0
SECTION
2
HEADER
9
$MEASUREMENT
70
1
0
ENDSEC
0
SECTION
2
TABLES
0
TABLE
2
LTYPE
0
LTYPE
72
65
70
64
2
CONTINUOUS
3
______
73
0
40
0
0
ENDTAB
0
TABLE
2
LAYER
0
LAYER
2
DEFAULT_255_2_778
70
0
62
255
6
CONTINUOUS
0
ENDTAB
0
ENDSEC
0
SECTION
2
ENTITIES
0
ARC
8
DEFAULT_255_2_778
10
9.864611
20
81.2264639
40
0.0951069
50
21.13868
51
43.510182
0
ARC
8
DEFAULT_255_2_778
10
8.9201251
20
80.4839487
40
1.2961334
50
38.5640149
51
41.8208666
0
ARC
8
DEFAULT_255_2_778
10
6.6030154
20
78.4264135
40
4.3949086
50
41.6681486
51
43.5422228
0
ARC
8
DEFAULT_255_2_778
10
3.376596
20
75.372358
40
8.8375428
50
43.4847761
51
45.0445846
0
ARC
8
DEFAULT_255_2_778
10
13.2920166
20
81.2263144
40
0.0952397
50
136.4914442
51
158.8079986
0
ARC
8
DEFAULT_255_2_778
10
14.2385102
20
80.4820654
40
1.2989164
50
138.1816437
51
141.4310085
0
ARC
8
DEFAULT_255_2_778
10
16.5485464
20
78.4309719
40
4.3881252
50
136.4566722
51
138.3339257
0
ARC
8
DEFAULT_255_2_778
10
19.7269356
20
75.4223466
40
8.7646474
50
134.9406444
51
136.5141253
0
ARC
8
DEFAULT_255_2_778
10
13.1737007
20
79.6755417
40
0.0891083
50
46.6439998
51
69.3149143
0
ARC
8
DEFAULT_255_2_778
10
12.3461558
20
78.6261409
40
1.4252183
50
47.7211317
51
51.4228424
0
ARC
8
DEFAULT_255_2_778
10
9.9193783
20
75.9206541
40
5.059601
50
46.2723215
51
47.9993227
0
ARC
8
DEFAULT_255_2_778
10
7.0960192
20
72.9533933
40
9.1554437
50
45.1465317
51
46.3399781
0
LINE
8
DEFAULT_255_2_778
10
13.2032178
20
81.2588052
11
9.9533178
21
81.2588052
0
LINE
8
DEFAULT_255_2_778
10
9.9533178
20
79.7589052
11
9.9533178
21
81.2607052
0
LINE
8
DEFAULT_255_2_778
10
9.6208178
20
81.6263052
11
9.6033178
21
81.6438052
0
LINE
8
DEFAULT_255_2_778
10
9.6033178
20
81.6438052
11
13.5533178
21
81.6438052
0
LINE
8
DEFAULT_255_2_778
10
13.5533178
20
81.6438052
11
13.5533178
21
79.4438052
0
LINE
8
DEFAULT_255_2_778
10
13.5533178
20
79.4438052
11
9.6033178
21
79.4438052
0
LINE
8
DEFAULT_255_2_778
10
9.6033178
20
79.4438052
11
9.6033178
21
81.6438052
0
LINE
8
DEFAULT_255_2_778
10
13.2032178
20
79.7589052
11
13.2032178
21
81.2607052
0
LINE
8
DEFAULT_255_2_778
10
13.5358178
20
81.6263052
11
13.5533178
21
81.6438052
0
LINE
8
DEFAULT_255_2_778
10
9.6033178
20
79.4438052
11
9.9515178
21
79.7589052
0
LINE
8
DEFAULT_255_2_778
10
9.9515178
20
79.7589052
11
13.2051178
21
79.7589052
0
ARC
8
DEFAULT_255_2_778
10
20.4238007
20
79.6755417
40
0.0891083
50
46.6439998
51
69.3149143
0
ARC
8
DEFAULT_255_2_778
10
19.5962558
20
78.6261409
40
1.4252183
50
47.7211317
51
51.4228424
0
ARC
8
DEFAULT_255_2_778
10
17.1694783
20
75.9206541
40
5.059601
50
46.2723215
51
47.9993227
0
ARC
8
DEFAULT_255_2_778
10
14.3461192
20
72.9533933
40
9.1554437
50
45.1465317
51
46.3399781
0
ARC
8
DEFAULT_255_2_778
10
17.114711
20
81.2264639
40
0.0951069
50
21.13868
51
43.510182
0
ARC
8
DEFAULT_255_2_778
10
16.1702251
20
80.4839487
40
1.2961334
50
38.5640149
51
41.8208666
0
ARC
8
DEFAULT_255_2_778
10
13.8531154
20
78.4264135
40
4.3949086
50
41.6681486
51
43.5422228
0
ARC
8
DEFAULT_255_2_778
10
10.626696
20
75.372358
40
8.8375428
50
43.4847761
51
45.0445846
0
ARC
8
DEFAULT_255_2_778
10
20.5421166
20
81.2263144
40
0.0952397
50
136.4914442
51
158.8079986
0
ARC
8
DEFAULT_255_2_778
10
21.4886102
20
80.4820654
40
1.2989164
50
138.1816437
51
141.4310085
0
ARC
8
DEFAULT_255_2_778
10
23.7986464
20
78.4309719
40
4.3881252
50
136.4566722
51
138.3339257
0
ARC
8
DEFAULT_255_2_778
10
26.9770356
20
75.4223466
40
8.7646474
50
134.9406444
51
136.5141253
0
LINE
8
DEFAULT_255_2_778
10
20.4533178
20
81.2588052
11
17.2034178
21
81.2588052
0
LINE
8
DEFAULT_255_2_778
10
17.2034178
20
79.7589052
11
17.2034178
21
81.2607052
0
LINE
8
DEFAULT_255_2_778
10
16.8709178
20
81.6263052
11
16.8534178
21
81.6438052
0
LINE
8
DEFAULT_255_2_778
10
16.8534178
20
81.6438052
11
20.8034178
21
81.6438052
0
LINE
8
DEFAULT_255_2_778
10
20.8034178
20
81.6438052
11
20.8034178
21
79.4438052
0
LINE
8
DEFAULT_255_2_778
10
20.8034178
20
79.4438052
11
16.8534178
21
79.4438052
0
LINE
8
DEFAULT_255_2_778
10
16.8534178
20
79.4438052
11
16.8534178
21
81.6438052
0
LINE
8
DEFAULT_255_2_778
10
16.8534178
20
79.4438052
11
17.2016178
21
79.7589052
0
LINE
8
DEFAULT_255_2_778
10
17.2016178
20
79.7589052
11
20.4552178
21
79.7589052
0
LINE
8
DEFAULT_255_2_778
10
20.4552178
20
79.7589052
11
20.4533178
21
81.2607052
0
LINE
8
DEFAULT_255_2_778
10
20.7859178
20
81.6263052
11
20.8034178
21
81.6438052
0
ARC
8
DEFAULT_255_2_778
10
20.4238007
20
76.6754417
40
0.0891083
50
46.6439998
51
69.3149143
0
ARC
8
DEFAULT_255_2_778
10
19.5962558
20
75.6260409
40
1.4252183
50
47.7211317
51
51.4228424
0
ARC
8
DEFAULT_255_2_778
10
17.1694783
20
72.9205541
40
5.059601
50
46.2723215
51
47.9993227
0
ARC
8
DEFAULT_255_2_778
10
14.3461192
20
69.9532933
40
9.1554437
50
45.1465317
51
46.3399781
0
ARC
8
DEFAULT_255_2_778
10
20.5421166
20
78.2262144
40
0.0952397
50
136.4914442
51
158.8079986
0
ARC
8
DEFAULT_255_2_778
10
21.4886102
20
77.4819654
40
1.2989164
50
138.1816437
51
141.4310085
0
ARC
8
DEFAULT_255_2_778
10
23.7986464
20
75.4308719
40
4.3881252
50
136.4566722
51
138.3339257
0
ARC
8
DEFAULT_255_2_778
10
26.9770356
20
72.4222466
40
8.7646474
50
134.9406444
51
136.5141253
0
LINE
8
DEFAULT_255_2_778
10
20.4533178
20
78.2587052
11
17.2034178
21
78.2587052
0
LINE
8
DEFAULT_255_2_778
10
20.8034178
20
76.4437052
11
16.8534178
21
76.4437052
0
LINE
8
DEFAULT_255_2_778
10
16.8534178
20
76.4437052
11
16.8534178
21
78.6437052
0
LINE
8
DEFAULT_255_2_778
10
16.8534178
20
78.6437052
11
20.8034178
21
78.6437052
0
LINE
8
DEFAULT_255_2_778
10
20.8034178
20
78.6437052
11
20.8034178
21
76.4437052
0
LINE
8
DEFAULT_255_2_778
10
16.8534178
20
76.4437052
11
17.2016178
21
76.7588052
0
LINE
8
DEFAULT_255_2_778
10
17.2016178
20
76.7588052
11
20.4552178
21
76.7588052
0
LINE
8
DEFAULT_255_2_778
10
20.4552178
20
76.7588052
11
20.4533178
21
78.2606052
0
LINE
8
DEFAULT_255_2_778
10
20.7859178
20
78.6262052
11
20.8034178
21
78.6437052
0
LINE
8
DEFAULT_255_2_778
10
16.8534178
20
78.6437052
11
16.8709178
21
78.6262052
0
LINE
8
DEFAULT_255_2_778
10
16.8709178
20
78.6262052
11
17.2034178
21
78.2606052
0
LINE
8
DEFAULT_255_2_778
10
17.2034178
20
78.2606052
11
17.2034178
21
76.7588052
0
ARC
8
DEFAULT_255_2_778
10
13.2920166
20
78.2262144
40
0.0952397
50
136.4914442
51
158.8079986
0
ARC
8
DEFAULT_255_2_778
10
14.2385102
20
77.4819654
40
1.2989164
50
138.1816437
51
141.4310085
0
ARC
8
DEFAULT_255_2_778
10
16.5485464
20
75.4308719
40
4.3881252
50
136.4566722
51
138.3339257
0
ARC
8
DEFAULT_255_2_778
10
19.7269356
20
72.4222466
40
8.7646474
50
134.9406444
51
136.5141253
0
ARC
8
DEFAULT_255_2_778
10
13.1737007
20
76.6754417
40
0.0891083
50
46.6439998
51
69.3149143
0
ARC
8
DEFAULT_255_2_778
10
12.3461558
20
75.6260409
40
1.4252183
50
47.7211317
51
51.4228424
0
ARC
8
DEFAULT_255_2_778
10
9.9193783
20
72.9205541
40
5.059601
50
46.2723215
51
47.9993227
0
ARC
8
DEFAULT_255_2_778
10
7.0960192
20
69.9532933
40
9.1554437
50
45.1465317
51
46.3399781
0
LINE
8
DEFAULT_255_2_778
10
13.2032178
20
78.2587052
11
9.9533178
21
78.2587052
0
LINE
8
DEFAULT_255_2_778
10
13.2032178
20
76.7588052
11
13.2032178
21
78.2606052
0
LINE
8
DEFAULT_255_2_778
10
13.5358178
20
78.6262052
11
13.5533178
21
78.6437052
0
LINE
8
DEFAULT_255_2_778
10
9.6033178
20
76.4437052
11
9.9515178
21
76.7588052
0
LINE
8
DEFAULT_255_2_778
10
9.9515178
20
76.7588052
11
13.2051178
21
76.7588052
0
LINE
8
DEFAULT_255_2_778
10
13.5533178
20
76.4437052
11
9.6033178
21
76.4437052
0
LINE
8
DEFAULT_255_2_778
10
9.6033178
20
76.4437052
11
9.6033178
21
78.6437052
0
LINE
8
DEFAULT_255_2_778
10
9.6033178
20
78.6437052
11
13.5533178
21
78.6437052
0
LINE
8
DEFAULT_255_2_778
10
13.5533178
20
78.6437052
11
13.5533178
21
76.4437052
0
LINE
8
DEFAULT_255_2_778
10
9.6033178
20
78.6437052
11
9.6208178
21
78.6262052
0
LINE
8
DEFAULT_255_2_778
10
9.6208178
20
78.6262052
11
9.9533178
21
78.2606052
0
LINE
8
DEFAULT_255_2_778
10
9.9533178
20
78.2606052
11
9.9533178
21
76.7588052
0
ARC
8
DEFAULT_255_2_778
10
13.2920166
20
75.2265769
40
0.0952397
50
136.4914442
51
158.8079986
0
ARC
8
DEFAULT_255_2_778
10
14.2385102
20
74.4823279
40
1.2989164
50
138.1816437
51
141.4310085
0
ARC
8
DEFAULT_255_2_778
10
16.5485464
20
72.4312344
40
4.3881252
50
136.4566722
51
138.3339257
0
ARC
8
DEFAULT_255_2_778
10
19.7269356
20
69.4226091
40
8.7646474
50
134.9406444
51
136.5141253
0
LINE
8
DEFAULT_255_2_778
10
13.2032178
20
74.5542677
11
13.3056178
21
74.5542677
0
LINE
8
DEFAULT_255_2_778
10
13.3056178
20
74.5542677
11
13.5530178
21
74.5542677
0
LINE
8
DEFAULT_255_2_778
10
13.5530178
20
74.5542677
11
13.5530178
21
73.4091677
0
LINE
8
DEFAULT_255_2_778
10
13.5530178
20
73.4091677
11
9.6033178
21
73.4091677
0
LINE
8
DEFAULT_255_2_778
10
9.9533178
20
73.7591677
11
13.2032178
21
73.7591677
0
LINE
8
DEFAULT_255_2_778
10
13.2032178
20
75.2590677
11
9.9533178
21
75.2590677
0
LINE
8
DEFAULT_255_2_778
10
9.9533178
20
75.2590677
11
9.9533178
21
74.5542677
0
LINE
8
DEFAULT_255_2_778
10
13.5533178
20
73.4091677
11
13.2032178
21
73.7591677
0
LINE
8
DEFAULT_255_2_778
10
13.2032178
20
73.7591677
11
13.2032178
21
74.5542677
0
LINE
8
DEFAULT_255_2_778
10
13.2032178
20
74.5542677
11
13.2032178
21
75.2609677
0
LINE
8
DEFAULT_255_2_778
10
13.5358178
20
75.6265677
11
13.5533178
21
75.6440677
0
LINE
8
DEFAULT_255_2_778
10
9.9533178
20
74.5542677
11
9.9533178
21
73.7591677
0
LINE
8
DEFAULT_255_2_778
10
9.9533178
20
73.7591677
11
9.9467178
21
73.7525677
0
LINE
8
DEFAULT_255_2_778
10
9.9467178
20
73.7525677
11
9.9269178
21
73.7327677
0
LINE
8
DEFAULT_255_2_778
10
9.9269178
20
73.7327677
11
9.8946178
21
73.7004677
0
LINE
8
DEFAULT_255_2_778
10
9.8946178
20
73.7004677
11
9.8509178
21
73.6567677
0
LINE
8
DEFAULT_255_2_778
10
9.8509178
20
73.6567677
11
9.7980178
21
73.6038677
0
LINE
8
DEFAULT_255_2_778
10
9.7980178
20
73.6038677
11
9.7374178
21
73.5432677
0
LINE
8
DEFAULT_255_2_778
10
9.7374178
20
73.5432677
11
9.6718178
21
73.4776677
0
LINE
8
DEFAULT_255_2_778
10
9.6718178
20
73.4776677
11
9.6036178
21
73.4093677
0
LINE
8
DEFAULT_255_2_778
10
9.6036178
20
73.4093677
11
9.6036178
21
74.5544677
0
LINE
8
DEFAULT_255_2_778
10
9.6036178
20
74.5544677
11
9.8509178
21
74.5544677
0
LINE
8
DEFAULT_255_2_778
10
9.8509178
20
74.5544677
11
9.9533178
21
74.5542677
0
ARC
8
DEFAULT_255_2_778
10
20.5421166
20
75.2263769
40
0.0952397
50
136.4914442
51
158.8079986
0
ARC
8
DEFAULT_255_2_778
10
21.4886102
20
74.4821279
40
1.2989164
50
138.1816437
51
141.4310085
0
ARC
8
DEFAULT_255_2_778
10
23.7986464
20
72.4310344
40
4.3881252
50
136.4566722
51
138.3339257
0
ARC
8
DEFAULT_255_2_778
10
26.9770356
20
69.4224091
40
8.7646474
50
134.9406444
51
136.5141253
0
LINE
8
DEFAULT_255_2_778
10
20.4533178
20
74.5542677
11
20.5557178
21
74.5542677
0
LINE
8
DEFAULT_255_2_778
10
20.5557178
20
74.5542677
11
20.8031178
21
74.5542677
0
LINE
8
DEFAULT_255_2_778
10
20.8031178
20
74.5542677
11
20.8031178
21
73.4091677
0
LINE
8
DEFAULT_255_2_778
10
20.8031178
20
73.4091677
11
16.8534178
21
73.4091677
0
LINE
8
DEFAULT_255_2_778
10
16.8534178
20
73.4091677
11
16.8534178
21
74.5542677
0
LINE
8
DEFAULT_255_2_778
10
16.8534178
20
74.5542677
11
17.1008178
21
74.5542677
0
LINE
8
DEFAULT_255_2_778
10
17.1008178
20
74.5542677
11
17.2032178
21
74.5542677
0
LINE
8
DEFAULT_255_2_778
10
17.2032178
20
73.7589677
11
20.4531178
21
73.7589677
0
LINE
8
DEFAULT_255_2_778
10
20.4531178
20
75.2588677
11
17.2034178
21
75.2588677
0
LINE
8
DEFAULT_255_2_778
10
20.8034178
20
73.4089677
11
20.4533178
21
73.7589677
0
LINE
8
DEFAULT_255_2_778
10
20.4533178
20
73.7589677
11
20.4533178
21
74.5540677
0
LINE
8
DEFAULT_255_2_778
10
20.4533178
20
74.5540677
11
20.4533178
21
75.2607677
0
LINE
8
DEFAULT_255_2_778
10
20.7859178
20
75.6263677
11
20.8034178
21
75.6438677
0
LINE
8
DEFAULT_255_2_778
10
16.8534178
20
75.6438677
11
16.8709178
21
75.6263677
0
LINE
8
DEFAULT_255_2_778
10
16.8709178
20
75.6263677
11
17.2034178
21
75.2607677
0
LINE
8
DEFAULT_255_2_778
10
17.2034178
20
75.2607677
11
17.2034178
21
74.5540677
0
LINE
8
DEFAULT_255_2_778
10
17.2034178
20
74.5540677
11
17.2034178
21
73.7589677
0
LINE
8
DEFAULT_255_2_778
10
17.2034178
20
73.7589677
11
16.8534178
21
73.4089677
0
LINE
8
DEFAULT_255_2_778
10
20.8034178
20
70.4090052
11
20.8034178
21
72.6090052
0
LINE
8
DEFAULT_255_2_778
10
20.8034178
20
72.6090052
11
16.8534178
21
72.6090052
0
LINE
8
DEFAULT_255_2_778
10
16.8534178
20
72.6090052
11
16.8534178
21
70.4090052
0
LINE
8
DEFAULT_255_2_778
10
16.8534178
20
70.4090052
11
20.8034178
21
70.4090052
0
LINE
8
DEFAULT_255_2_778
10
20.8034178
20
70.4090052
11
20.4533178
21
70.7590052
0
LINE
8
DEFAULT_255_2_778
10
20.4533178
20
70.7590052
11
20.4533178
21
72.2590052
0
LINE
8
DEFAULT_255_2_778
10
20.4533178
20
72.2590052
11
20.8034178
21
72.6090052
0
LINE
8
DEFAULT_255_2_778
10
17.2034178
20
70.7590052
11
20.4533178
21
70.7590052
0
LINE
8
DEFAULT_255_2_778
10
17.2034178
20
72.2590052
11
17.2034178
21
70.7590052
0
LINE
8
DEFAULT_255_2_778
10
17.2034178
20
70.7590052
11
16.8534178
21
70.4090052
0
LINE
8
DEFAULT_255_2_778
10
20.4533178
20
72.2590052
11
17.2034178
21
72.2590052
0
LINE
8
DEFAULT_255_2_778
10
17.2034178
20
72.2590052
11
16.8534178
21
72.6090052
0
LINE
8
DEFAULT_255_2_778
10
9.6033178
20
70.4090052
11
9.9533178
21
70.7590052
0
LINE
8
DEFAULT_255_2_778
10
9.9533178
20
70.7590052
11
13.2032178
21
70.7590052
0
LINE
8
DEFAULT_255_2_778
10
13.2032178
20
70.7590052
11
13.5533178
21
70.4090052
0
LINE
8
DEFAULT_255_2_778
10
13.2032178
20
70.7590052
11
13.2032178
21
72.2590052
0
LINE
8
DEFAULT_255_2_778
10
13.2032178
20
72.2590052
11
13.5533178
21
72.6090052
0
LINE
8
DEFAULT_255_2_778
10
13.5533178
20
72.6090052
11
13.5533178
21
70.4090052
0
LINE
8
DEFAULT_255_2_778
10
13.5533178
20
70.4090052
11
9.6033178
21
70.4090052
0
LINE
8
DEFAULT_255_2_778
10
9.6033178
20
70.4090052
11
9.6033178
21
72.6090052
0
LINE
8
DEFAULT_255_2_778
10
9.6033178
20
72.6090052
11
13.5533178
21
72.6090052
0
LINE
8
DEFAULT_255_2_778
10
9.9533178
20
72.2590052
11
9.9533178
21
70.7590052
0
LINE
8
DEFAULT_255_2_778
10
13.2032178
20
72.2590052
11
9.9533178
21
72.2590052
0
LINE
8
DEFAULT_255_2_778
10
9.9533178
20
72.2590052
11
9.6033178
21
72.6090052
0
ARC
8
DEFAULT_255_2_778
10
2.2006225
20
87.765947
40
1.9929158
50
89.926605
51
114.3113989
0
ARC
8
DEFAULT_255_2_778
10
2.2056757
20
87.7571038
40
2.0030556
50
114.3389823
51
170.1972101
0
ARC
8
DEFAULT_255_2_778
10
2.2163369
20
87.7594762
40
2.0131615
50
170.3154071
51
180.0175033
0
ARC
8
DEFAULT_255_2_778
10
28.7103612
20
87.7614141
40
1.9929158
50
359.926605
51
24.3113989
0
ARC
8
DEFAULT_255_2_778
10
28.7015179
20
87.756361
40
2.0030556
50
24.3389823
51
80.1972101
0
ARC
8
DEFAULT_255_2_778
10
28.7038904
20
87.7456998
40
2.0131615
50
80.3154071
51
90.0175033
0
ARC
8
DEFAULT_255_2_778
10
29.1983721
20
80.8830259
40
5.1934526
50
73.1558533
51
90.001956
0
ARC
8
DEFAULT_255_2_778
10
29.1981999
20
80.8791995
40
5.1972788
50
90.0000562
51
91.8972112
0
ARC
8
DEFAULT_255_2_778
10
29.1982511
20
80.877979
40
5.1985004
50
91.897329
51
95.4636992
0
ARC
8
DEFAULT_255_2_778
10
1.7080787
20
80.8830259
40
5.1934526
50
89.998044
51
106.8441467
0
ARC
8
DEFAULT_255_2_778
10
1.7082509
20
80.8791995
40
5.1972788
50
88.1027888
51
89.9999438
0
ARC
8
DEFAULT_255_2_778
10
1.7081998
20
80.877979
40
5.1985004
50
84.5363008
51
88.102671
0
ARC
8
DEFAULT_255_2_778
10
0.2353696
20
74.4338941
40
0.0380958
50
91.608287
51
147.6811262
0
ARC
8
DEFAULT_255_2_778
10
0.4039495
20
73.8043613
40
0.6888314
50
97.0989339
51
104.2578028
0
ARC
8
DEFAULT_255_2_778
10
0.6825074
20
71.8047768
40
2.7076712
50
95.071412
51
97.7191175
0
ARC
8
DEFAULT_255_2_778
10
0.9945649
20
68.4350902
40
6.0917653
50
93.8601363
51
95.1933502
0
ARC
8
DEFAULT_255_2_778
10
1.346832
20
63.217316
40
11.3214173
50
92.710423
51
93.8611561
0
ARC
8
DEFAULT_255_2_778
10
1.7176207
20
55.5015584
40
19.0460779
50
91.8451844
51
92.7269983
0
ARC
8
DEFAULT_255_2_778
10
2.0100073
20
46.5365431
40
28.0158594
50
91.0773355
51
91.8524867
0
ARC
8
DEFAULT_255_2_778
10
2.1572317
20
39.07087
40
35.4829815
50
90.5257562
51
91.088363
0
ARC
8
DEFAULT_255_2_778
10
2.2008953
20
34.5362831
40
40.0177782
50
89.9967354
51
90.5286944
0
ARC
8
DEFAULT_255_2_778
10
2.1959877
20
1.754802
40
1.9928139
50
179.9264183
51
204.3120318
0
ARC
8
DEFAULT_255_2_778
10
2.2050113
20
1.7599949
40
2.0031756
50
204.34113
51
260.1955271
0
ARC
8
DEFAULT_255_2_778
10
2.202745
20
1.7709625
40
2.0136013
50
260.3122132
51
270.0122462
0
ARC
8
DEFAULT_255_2_778
10
28.7058283
20
1.7500755
40
1.9929158
50
269.926605
51
294.3113989
0
ARC
8
DEFAULT_255_2_778
10
28.7007752
20
1.7589187
40
2.0030556
50
294.3389823
51
350.1972101
0
ARC
8
DEFAULT_255_2_778
10
28.6901139
20
1.7565462
40
2.0131615
50
350.3154071
51
0.0175033
0
LINE
8
DEFAULT_255_2_778
10
18.2032754
20
89.7572612
11
17.9532754
21
89.7572612
0
LINE
8
DEFAULT_255_2_778
10
17.9532754
20
88.5383612
11
18.2032754
21
88.5383612
0
LINE
8
DEFAULT_255_2_778
10
9.4532754
20
89.7572612
11
9.2032754
21
89.7572612
0
LINE
8
DEFAULT_255_2_778
10
9.2032754
20
88.5383612
11
9.4532754
21
88.5383612
0
LINE
8
DEFAULT_255_2_778
10
17.9532754
20
86.0525612
11
9.4532754
21
86.0525612
0
LINE
8
DEFAULT_255_2_778
10
9.4532754
20
86.0525612
11
9.4532754
21
84.8727612
0
LINE
8
DEFAULT_255_2_778
10
9.4532754
20
84.8727612
11
17.9532754
21
84.8727612
0
LINE
8
DEFAULT_255_2_778
10
17.9532754
20
84.8727612
11
17.9532754
21
89.7588612
0
LINE
8
DEFAULT_255_2_778
10
17.9532754
20
89.7588612
11
9.4532754
21
89.7588612
0
LINE
8
DEFAULT_255_2_778
10
9.4532754
20
89.7588612
11
9.4532754
21
86.0525612
0
LINE
8
DEFAULT_255_2_778
10
9.2032754
20
86.0525612
11
9.2032754
21
89.7588612
0
LINE
8
DEFAULT_255_2_778
10
9.2032754
20
89.7588612
11
2.2031754
21
89.7588612
0
LINE
8
DEFAULT_255_2_778
10
0.2031754
20
87.7588612
11
0.2031754
21
85.8536612
0
LINE
8
DEFAULT_255_2_778
10
30.7032754
20
85.8536612
11
30.7032754
21
87.7588612
0
LINE
8
DEFAULT_255_2_778
10
28.7032754
20
89.7588612
11
18.2032754
21
89.7588612
0
LINE
8
DEFAULT_255_2_778
10
18.2032754
20
89.7588612
11
18.2032754
21
86.0525612
0
LINE
8
DEFAULT_255_2_778
10
9.6032754
20
75.6435612
11
13.5532754
21
75.6435612
0
LINE
8
DEFAULT_255_2_778
10
13.5532754
20
75.6435612
11
13.5532754
21
74.5540612
0
LINE
8
DEFAULT_255_2_778
10
13.5532754
20
74.5540612
11
16.8533754
21
74.5540612
0
LINE
8
DEFAULT_255_2_778
10
16.8533754
20
74.5540612
11
16.8533754
21
75.6435612
0
LINE
8
DEFAULT_255_2_778
10
16.8533754
20
75.6435612
11
20.8033754
21
75.6435612
0
LINE
8
DEFAULT_255_2_778
10
20.8033754
20
75.6435612
11
20.8033754
21
74.5540612
0
LINE
8
DEFAULT_255_2_778
10
20.8033754
20
74.5540612
11
28.7032754
21
74.5540612
0
LINE
8
DEFAULT_255_2_778
10
28.7032754
20
74.5540612
11
28.7032754
21
86.0525612
0
LINE
8
DEFAULT_255_2_778
10
28.7032754
20
86.0525612
11
18.2032754
21
86.0525612
0
LINE
8
DEFAULT_255_2_778
10
18.2032754
20
86.0525612
11
18.2032754
21
84.7571612
0
LINE
8
DEFAULT_255_2_778
10
18.2032754
20
84.7571612
11
9.2032754
21
84.7571612
0
LINE
8
DEFAULT_255_2_778
10
9.2032754
20
84.7571612
11
9.2032754
21
86.0525612
0
LINE
8
DEFAULT_255_2_778
10
9.2032754
20
86.0525612
11
2.2031754
21
86.0525612
0
LINE
8
DEFAULT_255_2_778
10
2.2031754
20
86.0525612
11
2.2031754
21
74.5540612
0
LINE
8
DEFAULT_255_2_778
10
2.2031754
20
74.5540612
11
9.6032754
21
74.5540612
0
LINE
8
DEFAULT_255_2_778
10
9.6032754
20
74.5540612
11
9.6032754
21
75.6435612
0
LINE
8
DEFAULT_255_2_778
10
9.6032754
20
75.6435612
11
9.6207754
21
75.6261612
0
LINE
8
DEFAULT_255_2_778
10
9.6207754
20
75.6261612
11
9.9533754
21
75.2604612
0
LINE
8
DEFAULT_255_2_778
10
28.7032754
20
72.4678612
11
28.7032754
21
74.5537612
0
LINE
8
DEFAULT_255_2_778
10
28.7032754
20
74.5537612
11
30.7027754
21
74.4566612
0
LINE
8
DEFAULT_255_2_778
10
28.7532754
20
72.5175612
11
21.2031754
21
65.0073612
0
LINE
8
DEFAULT_255_2_778
10
21.2031754
20
65.0073612
11
28.7530754
21
65.0073612
0
LINE
8
DEFAULT_255_2_778
10
30.7529754
20
65.0073612
11
28.7530754
21
65.0073612
0
LINE
8
DEFAULT_255_2_778
10
28.7530754
20
65.0073612
11
28.7530754
21
72.5178612
0
LINE
8
DEFAULT_255_2_778
10
28.7530754
20
72.5178612
11
30.7529754
21
74.5074612
0
LINE
8
DEFAULT_255_2_778
10
30.7529754
20
74.5074612
11
30.7529754
21
65.0073612
0
LINE
8
DEFAULT_255_2_778
10
29.2030754
20
62.8165612
11
0.2031754
21
62.8165612
0
LINE
8
DEFAULT_255_2_778
10
0.2031754
20
62.8165612
11
0.2031754
21
65.0073612
0
LINE
8
DEFAULT_255_2_778
10
30.7032754
20
74.4577612
11
30.7032754
21
85.8536612
0
LINE
8
DEFAULT_255_2_778
10
28.7032754
20
86.0528612
11
28.7032754
21
89.7588612
0
LINE
8
DEFAULT_255_2_778
10
0.2031754
20
74.4542612
11
0.2031754
21
85.8536612
0
LINE
8
DEFAULT_255_2_778
10
2.2031754
20
86.0528612
11
2.2031754
21
89.7588612
0
LINE
8
DEFAULT_255_2_778
10
2.2031754
20
65.0073612
11
0.2031754
21
65.0073612
0
LINE
8
DEFAULT_255_2_778
10
0.2031754
20
65.0073612
11
0.2031754
21
74.4542612
0
LINE
8
DEFAULT_255_2_778
10
0.2031754
20
74.4542612
11
0.2031754
21
74.4542612
0
LINE
8
DEFAULT_255_2_778
10
2.2031754
20
74.5540612
11
2.2031754
21
65.0073612
0
LINE
8
DEFAULT_255_2_778
10
2.2031754
20
65.0073612
11
21.2031754
21
65.0073612
0
LINE
8
DEFAULT_255_2_778
10
13.2031754
20
-0.2426388
11
22.2032754
21
-0.2426388
0
LINE
8
DEFAULT_255_2_778
10
21.9532754
20
4.2145612
11
21.9532754
21
-0.2309388
0
LINE
8
DEFAULT_255_2_778
10
21.9532754
20
-0.2309388
11
13.4532754
21
-0.2309388
0
LINE
8
DEFAULT_255_2_778
10
13.4532754
20
-0.2309388
11
13.4532754
21
4.6402612
0
LINE
8
DEFAULT_255_2_778
10
13.4532754
20
4.6402612
11
21.9532754
21
4.6402612
0
LINE
8
DEFAULT_255_2_778
10
21.9532754
20
4.6402612
11
21.9532754
21
4.2148612
0
LINE
8
DEFAULT_255_2_778
10
21.9532754
20
4.2148612
11
13.4532754
21
4.2148612
0
LINE
8
DEFAULT_255_2_778
10
19.1531754
20
28.5776612
11
19.1531754
21
22.2075612
0
LINE
8
DEFAULT_255_2_778
10
19.7338754
20
28.5776612
11
19.7338754
21
22.2075612
0
LINE
8
DEFAULT_255_2_778
10
19.1531754
20
36.1262612
11
19.1531754
21
29.7561612
0
LINE
8
DEFAULT_255_2_778
10
19.7338754
20
36.1262612
11
19.7338754
21
29.7561612
0
LINE
8
DEFAULT_255_2_778
10
19.1531754
20
43.6747612
11
19.1531754
21
37.3046612
0
LINE
8
DEFAULT_255_2_778
10
19.7338754
20
43.6747612
11
19.7338754
21
37.3046612
0
LINE
8
DEFAULT_255_2_778
10
19.1531754
20
51.2233612
11
19.1531754
21
44.8532612
0
LINE
8
DEFAULT_255_2_778
10
26.0952754
20
44.8532612
11
26.0952754
21
51.2233612
0
LINE
8
DEFAULT_255_2_778
10
19.7336754
20
51.2233612
11
19.7336754
21
44.8532612
0
LINE
8
DEFAULT_255_2_778
10
19.7336754
20
21.0288612
11
19.7336754
21
14.9733612
0
LINE
8
DEFAULT_255_2_778
10
19.7336754
20
14.9733612
11
26.0952754
21
14.9733612
0
LINE
8
DEFAULT_255_2_778
10
26.0952754
20
14.9733612
11
26.0952754
21
21.0288612
0
LINE
8
DEFAULT_255_2_778
10
11.3529754
20
25.3587612
11
11.3529754
21
19.1087612
0
LINE
8
DEFAULT_255_2_778
10
18.1030754
20
19.1087612
11
18.1030754
21
25.3587612
0
LINE
8
DEFAULT_255_2_778
10
11.8530754
20
25.3587612
11
11.8530754
21
19.1087612
0
LINE
8
DEFAULT_255_2_778
10
11.3529754
20
32.8586612
11
11.3529754
21
26.6086612
0
LINE
8
DEFAULT_255_2_778
10
18.1030754
20
26.6086612
11
18.1030754
21
32.8586612
0
LINE
8
DEFAULT_255_2_778
10
11.8530754
20
32.8586612
11
11.8530754
21
26.6086612
0
LINE
8
DEFAULT_255_2_778
10
11.3529754
20
40.3587612
11
11.3529754
21
34.1087612
0
LINE
8
DEFAULT_255_2_778
10
18.1030754
20
34.1087612
11
18.1030754
21
40.3587612
0
LINE
8
DEFAULT_255_2_778
10
11.8530754
20
40.3587612
11
11.8530754
21
34.1087612
0
LINE
8
DEFAULT_255_2_778
10
11.3529754
20
47.8586612
11
11.3529754
21
41.6086612
0
LINE
8
DEFAULT_255_2_778
10
18.1030754
20
41.6086612
11
18.1030754
21
47.8586612
0
LINE
8
DEFAULT_255_2_778
10
11.8530754
20
47.8586612
11
11.8530754
21
41.6086612
0
LINE
8
DEFAULT_255_2_778
10
11.3529754
20
55.3587612
11
11.3529754
21
49.1087612
0
LINE
8
DEFAULT_255_2_778
10
18.1030754
20
49.1087612
11
18.1030754
21
55.3587612
0
LINE
8
DEFAULT_255_2_778
10
11.8530754
20
55.3587612
11
11.8530754
21
49.1087612
0
LINE
8
DEFAULT_255_2_778
10
17.6032754
20
58.0088612
11
17.6032754
21
58.4686612
0
LINE
8
DEFAULT_255_2_778
10
22.1032754
20
58.0088612
11
22.1032754
21
58.4686612
0
LINE
8
DEFAULT_255_2_778
10
17.3531754
20
58.5089612
11
17.3531754
21
58.0088612
0
LINE
8
DEFAULT_255_2_778
10
17.3531754
20
58.0088612
11
22.3532754
21
58.0088612
0
LINE
8
DEFAULT_255_2_778
10
22.3532754
20
58.0088612
11
22.3532754
21
58.5089612
0
LINE
8
DEFAULT_255_2_778
10
25.8531754
20
59.0446612
11
25.8531754
21
58.5089612
0
LINE
8
DEFAULT_255_2_778
10
25.8531754
20
58.5089612
11
13.8532754
21
58.5089612
0
LINE
8
DEFAULT_255_2_778
10
13.8532754
20
58.5089612
11
13.8532754
21
61.0089612
0
LINE
8
DEFAULT_255_2_778
10
13.8532754
20
61.0089612
11
25.8531754
21
61.0089612
0
LINE
8
DEFAULT_255_2_778
10
25.8531754
20
61.0089612
11
25.8531754
21
59.0449612
0
LINE
8
DEFAULT_255_2_778
10
25.8531754
20
59.0449612
11
13.8532754
21
59.0449612
0
LINE
8
DEFAULT_255_2_778
10
16.8533754
20
58.5091612
11
16.8533754
21
56.5091612
0
LINE
8
DEFAULT_255_2_778
10
13.8532754
20
58.5091612
11
13.8532754
21
56.5091612
0
LINE
8
DEFAULT_255_2_778
10
22.8533754
20
58.5091612
11
22.8533754
21
56.5091612
0
LINE
8
DEFAULT_255_2_778
10
25.8534754
20
58.5091612
11
25.8534754
21
56.5091612
0
LINE
8
DEFAULT_255_2_778
10
16.8531754
20
11.5088612
11
16.8531754
21
13.5088612
0
LINE
8
DEFAULT_255_2_778
10
13.8530754
20
11.5088612
11
13.8530754
21
13.5088612
0
LINE
8
DEFAULT_255_2_778
10
17.3529754
20
9.0088612
11
17.3529754
21
8.5087612
0
LINE
8
DEFAULT_255_2_778
10
17.3529754
20
8.5087612
11
22.3530754
21
8.5087612
0
LINE
8
DEFAULT_255_2_778
10
22.3530754
20
8.5087612
11
22.3530754
21
9.0088612
0
LINE
8
DEFAULT_255_2_778
10
25.8529754
20
13.5088612
11
25.8529754
21
9.0088612
0
LINE
8
DEFAULT_255_2_778
10
25.8529754
20
9.0088612
11
13.8532754
21
9.0088612
0
LINE
8
DEFAULT_255_2_778
10
13.8532754
20
9.0088612
11
13.8532754
21
11.5088612
0
LINE
8
DEFAULT_255_2_778
10
13.8532754
20
11.5088612
11
25.8531754
21
11.5088612
0
LINE
8
DEFAULT_255_2_778
10
21.9532754
20
13.5088612
11
21.9532754
21
13.0071612
0
LINE
8
DEFAULT_255_2_778
10
21.9532754
20
13.0071612
11
22.8533754
21
13.0071612
0
LINE
8
DEFAULT_255_2_778
10
25.9862754
20
13.5088612
11
25.9862754
21
13.0071612
0
LINE
8
DEFAULT_255_2_778
10
26.0955754
20
37.3046612
11
26.0955754
21
43.6747612
0
LINE
8
DEFAULT_255_2_778
10
26.0955754
20
29.7561612
11
26.0955754
21
36.1262612
0
LINE
8
DEFAULT_255_2_778
10
26.0955754
20
22.2075612
11
26.0955754
21
28.5776612
0
LINE
8
DEFAULT_255_2_778
10
11.3532754
20
17.6590612
11
11.3532754
21
14.6589612
0
LINE
8
DEFAULT_255_2_778
10
22.8533754
20
11.5091612
11
22.8533754
21
13.5091612
0
LINE
8
DEFAULT_255_2_778
10
19.1531754
20
49.1087612
11
11.3532754
21
49.1087612
0
LINE
8
DEFAULT_255_2_778
10
11.3532754
20
49.1087612
11
11.3532754
21
47.8589612
0
LINE
8
DEFAULT_255_2_778
10
11.3532754
20
47.8589612
11
19.1531754
21
47.8589612
0
LINE
8
DEFAULT_255_2_778
10
19.1531754
20
26.6088612
11
11.3532754
21
26.6088612
0
LINE
8
DEFAULT_255_2_778
10
11.3532754
20
26.6088612
11
11.3532754
21
25.3590612
0
LINE
8
DEFAULT_255_2_778
10
11.3532754
20
25.3590612
11
19.1531754
21
25.3590612
0
LINE
8
DEFAULT_255_2_778
10
19.1531754
20
17.6590612
11
11.3532754
21
17.6590612
0
LINE
8
DEFAULT_255_2_778
10
11.3532754
20
17.6590612
11
11.3532754
21
19.1090612
0
LINE
8
DEFAULT_255_2_778
10
11.3532754
20
19.1090612
11
19.1531754
21
19.1090612
0
LINE
8
DEFAULT_255_2_778
10
19.1531754
20
41.6089612
11
11.3532754
21
41.6089612
0
LINE
8
DEFAULT_255_2_778
10
11.3532754
20
41.6089612
11
11.3532754
21
40.3590612
0
LINE
8
DEFAULT_255_2_778
10
11.3532754
20
40.3590612
11
19.1531754
21
40.3590612
0
LINE
8
DEFAULT_255_2_778
10
19.1531754
20
34.1090612
11
11.3532754
21
34.1090612
0
LINE
8
DEFAULT_255_2_778
10
11.3532754
20
34.1090612
11
11.3532754
21
32.8591612
0
LINE
8
DEFAULT_255_2_778
10
11.3532754
20
32.8591612
11
19.1531754
21
32.8591612
0
LINE
8
DEFAULT_255_2_778
10
19.1531754
20
21.0290612
11
19.1531754
21
14.6589612
0
LINE
8
DEFAULT_255_2_778
10
19.1531754
20
55.3590612
11
19.1531754
21
52.6089612
0
LINE
8
DEFAULT_255_2_778
10
19.1531754
20
52.6089612
11
26.9530754
21
52.6089612
0
LINE
8
DEFAULT_255_2_778
10
26.9530754
20
52.6089612
11
26.9530754
21
55.3590612
0
LINE
8
DEFAULT_255_2_778
10
26.9530754
20
55.3590612
11
11.3532754
21
55.3590612
0
LINE
8
DEFAULT_255_2_778
10
11.3532754
20
55.3590612
11
11.3532754
21
56.5089612
0
LINE
8
DEFAULT_255_2_778
10
11.3532754
20
56.5089612
11
28.3532754
21
56.5089612
0
LINE
8
DEFAULT_255_2_778
10
28.3532754
20
56.5089612
11
28.3532754
21
13.5088612
0
LINE
8
DEFAULT_255_2_778
10
28.3532754
20
13.5088612
11
11.3532754
21
13.5088612
0
LINE
8
DEFAULT_255_2_778
10
11.3532754
20
13.5088612
11
11.3532754
21
14.6587612
0
LINE
8
DEFAULT_255_2_778
10
11.3532754
20
14.6587612
11
26.9533754
21
14.6587612
0
LINE
8
DEFAULT_255_2_778
10
26.9533754
20
14.6587612
11
26.9533754
21
21.0288612
0
LINE
8
DEFAULT_255_2_778
10
26.9533754
20
21.0288612
11
19.1534754
21
21.0288612
0
LINE
8
DEFAULT_255_2_778
10
19.1534754
20
21.0288612
11
19.1534754
21
22.2075612
0
LINE
8
DEFAULT_255_2_778
10
19.1534754
20
22.2075612
11
26.9533754
21
22.2075612
0
LINE
8
DEFAULT_255_2_778
10
26.9533754
20
22.2075612
11
26.9533754
21
28.5776612
0
LINE
8
DEFAULT_255_2_778
10
26.9533754
20
28.5776612
11
19.1534754
21
28.5776612
0
LINE
8
DEFAULT_255_2_778
10
19.1534754
20
28.5776612
11
19.1534754
21
29.7563612
0
LINE
8
DEFAULT_255_2_778
10
19.1534754
20
29.7563612
11
26.9533754
21
29.7563612
0
LINE
8
DEFAULT_255_2_778
10
26.9533754
20
29.7563612
11
26.9533754
21
36.1264612
0
LINE
8
DEFAULT_255_2_778
10
26.9533754
20
36.1264612
11
19.1534754
21
36.1264612
0
LINE
8
DEFAULT_255_2_778
10
19.1534754
20
36.1264612
11
19.1534754
21
37.3052612
0
LINE
8
DEFAULT_255_2_778
10
19.1534754
20
37.3052612
11
26.9533754
21
37.3052612
0
LINE
8
DEFAULT_255_2_778
10
26.9533754
20
37.3052612
11
26.9533754
21
43.6753612
0
LINE
8
DEFAULT_255_2_778
10
26.9533754
20
43.6753612
11
19.1534754
21
43.6753612
0
LINE
8
DEFAULT_255_2_778
10
19.1534754
20
43.6753612
11
19.1534754
21
44.8540612
0
LINE
8
DEFAULT_255_2_778
10
19.1534754
20
44.8540612
11
26.9533754
21
44.8540612
0
LINE
8
DEFAULT_255_2_778
10
26.9533754
20
44.8540612
11
26.9533754
21
51.2241612
0
LINE
8
DEFAULT_255_2_778
10
26.9533754
20
51.2241612
11
19.1534754
21
51.2241612
0
LINE
8
DEFAULT_255_2_778
10
19.1534754
20
51.2241612
11
19.1534754
21
52.6097612
0
LINE
8
DEFAULT_255_2_778
10
25.8534754
20
13.0082612
11
28.4535754
21
13.0082612
0
LINE
8
DEFAULT_255_2_778
10
28.4535754
20
13.0082612
11
28.4535754
21
55.5082612
0
LINE
8
DEFAULT_255_2_778
10
28.4535754
20
55.5082612
11
28.3534754
21
55.5082612
0
LINE
8
DEFAULT_255_2_778
10
0.2031754
20
62.8165612
11
0.2031754
21
1.7573612
0
LINE
8
DEFAULT_255_2_778
10
2.2031754
20
-0.2426388
11
11.5926754
21
-0.2426388
0
LINE
8
DEFAULT_255_2_778
10
29.2030754
20
65.0073612
11
29.2030754
21
1.0514612
0
LINE
8
DEFAULT_255_2_778
10
29.2030754
20
1.0514612
11
23.2258754
21
1.0514612
0
LINE
8
DEFAULT_255_2_778
10
23.2258754
20
1.0514612
11
23.2258754
21
6.2545612
0
LINE
8
DEFAULT_255_2_778
10
23.2258754
20
6.2545612
11
11.5926754
21
6.2545612
0
LINE
8
DEFAULT_255_2_778
10
11.5926754
20
6.2545612
11
11.5926754
21
-0.2428388
0
LINE
8
DEFAULT_255_2_778
10
11.5926754
20
-0.2428388
11
13.2029754
21
-0.2428388
0
LINE
8
DEFAULT_255_2_778
10
13.2029754
20
-0.2428388
11
13.2029754
21
4.7572612
0
LINE
8
DEFAULT_255_2_778
10
13.2029754
20
4.7572612
11
22.2032754
21
4.7572612
0
LINE
8
DEFAULT_255_2_778
10
22.2032754
20
4.7572612
11
22.2032754
21
-0.2428388
0
LINE
8
DEFAULT_255_2_778
10
22.2032754
20
-0.2428388
11
28.7032754
21
-0.2428388
0
LINE
8
DEFAULT_255_2_778
10
30.7032754
20
1.7571612
11
30.7032754
21
65.0073612
0
ARC
8
DEFAULT_255_2_778
10
15.0261947
20
52.172868
40
2.2471116
50
79.859793
51
89.9168326
0
ARC
8
DEFAULT_255_2_778
10
15.0262282
20
52.2486611
40
2.1713184
50
89.9148124
51
90
0
ARC
8
DEFAULT_255_2_778
10
15.0262228
20
52.1741401
40
2.2458394
50
89.999862
51
100.1430607
0
ARC
8
DEFAULT_255_2_778
10
15.0291297
20
52.1634988
40
2.2434014
50
280.0732305
51
305.6622417
0
ARC
8
DEFAULT_255_2_778
10
15.0248651
20
52.1702419
40
2.2513662
50
305.650371
51
352.0862382
0
ARC
8
DEFAULT_255_2_778
10
15.0150858
20
52.1693428
40
2.2609297
50
352.1429273
51
0.0110656
0
ARC
8
DEFAULT_255_2_778
10
15.0322831
20
52.1717168
40
2.2437335
50
359.9505274
51
25.5344045
0
ARC
8
DEFAULT_255_2_778
10
15.0251065
20
52.1687884
40
2.2514713
50
25.5229246
51
71.9561006
0
ARC
8
DEFAULT_255_2_778
10
15.0240726
20
52.1585227
40
2.2615537
50
72.0117524
51
79.8783359
0
ARC
8
DEFAULT_255_2_778
10
15.0231017
20
52.17606
40
2.2434014
50
100.0732305
51
125.6622417
0
ARC
8
DEFAULT_255_2_778
10
15.0273662
20
52.169317
40
2.2513662
50
125.650371
51
172.0862382
0
ARC
8
DEFAULT_255_2_778
10
15.0371455
20
52.1702161
40
2.2609297
50
172.1429273
51
180.0110656
0
ARC
8
DEFAULT_255_2_778
10
15.0199483
20
52.1678421
40
2.2437335
50
179.9505274
51
205.5344045
0
ARC
8
DEFAULT_255_2_778
10
15.0271248
20
52.1707705
40
2.2514713
50
205.5229246
51
251.9561006
0
ARC
8
DEFAULT_255_2_778
10
15.0281588
20
52.1810362
40
2.2615537
50
252.0117524
51
259.8783359
0
ARC
8
DEFAULT_255_2_778
10
15.0262289
20
52.1609986
40
2.2411942
50
259.835535
51
269.9999826
0
ARC
8
DEFAULT_255_2_778
10
15.0262282
20
52.0911227
40
2.1713183
50
270
51
270.0851876
0
ARC
8
DEFAULT_255_2_778
10
15.0261896
20
52.1622687
40
2.2424643
50
270.0834701
51
280.1615769
0
LINE
8
DEFAULT_255_2_778
10
16.4714157
20
51.6688794
11
15.4215157
21
51.6688794
0
LINE
8
DEFAULT_255_2_778
10
15.4215157
20
51.6688794
11
15.4215157
21
49.9546794
0
LINE
8
DEFAULT_255_2_778
10
15.4215157
20
54.3848794
11
15.4215157
21
52.6706794
0
LINE
8
DEFAULT_255_2_778
10
15.4215157
20
52.6706794
11
16.4714157
21
52.6706794
0
LINE
8
DEFAULT_255_2_778
10
16.4714157
20
52.6706794
11
16.4714157
21
51.6688794
0
LINE
8
DEFAULT_255_2_778
10
13.5808157
20
52.6706794
11
14.6307157
21
52.6706794
0
LINE
8
DEFAULT_255_2_778
10
14.6307157
20
52.6706794
11
14.6307157
21
54.3848794
0
LINE
8
DEFAULT_255_2_778
10
14.6307157
20
49.9546794
11
14.6307157
21
51.6688794
0
LINE
8
DEFAULT_255_2_778
10
14.6307157
20
51.6688794
11
13.5808157
21
51.6688794
0
LINE
8
DEFAULT_255_2_778
10
13.5808157
20
51.6688794
11
13.5808157
21
52.6706794
0
ARC
8
DEFAULT_255_2_778
10
15.0261624
20
44.672668
40
2.2471116
50
79.859793
51
89.9168326
0
ARC
8
DEFAULT_255_2_778
10
15.0261959
20
44.7484611
40
2.1713184
50
89.9148124
51
90
0
ARC
8
DEFAULT_255_2_778
10
15.0261905
20
44.6739401
40
2.2458394
50
89.999862
51
100.1430607
0
ARC
8
DEFAULT_255_2_778
10
15.0296554
20
44.6629658
40
2.242733
50
280.0695695
51
305.664242
0
ARC
8
DEFAULT_255_2_778
10
15.0249106
20
44.6703356
40
2.251487
50
305.652994
51
352.0867618
0
ARC
8
DEFAULT_255_2_778
10
15.0152003
20
44.669444
40
2.2609831
50
352.143019
51
0.0110349
0
ARC
8
DEFAULT_255_2_778
10
15.0326262
20
44.6717985
40
2.243558
50
359.9509912
51
25.5352273
0
ARC
8
DEFAULT_255_2_778
10
15.025049
20
44.6686767
40
2.2517408
50
25.5237926
51
71.9503273
0
ARC
8
DEFAULT_255_2_778
10
15.0240925
20
44.6586237
40
2.2615963
50
72.0062001
51
79.8721517
0
ARC
8
DEFAULT_255_2_778
10
15.0230637
20
44.676271
40
2.2432912
50
100.0735815
51
125.6640798
0
ARC
8
DEFAULT_255_2_778
10
15.0274583
20
44.6693219
40
2.2514993
50
125.6518379
51
172.0848717
0
ARC
8
DEFAULT_255_2_778
10
15.0368095
20
44.6703134
40
2.260626
50
172.1423998
51
180.0109996
0
ARC
8
DEFAULT_255_2_778
10
15.019916
20
44.6679421
40
2.2437335
50
179.9505274
51
205.5344045
0
ARC
8
DEFAULT_255_2_778
10
15.0270926
20
44.6708705
40
2.2514713
50
205.5229246
51
251.9561006
0
ARC
8
DEFAULT_255_2_778
10
15.0281265
20
44.6811362
40
2.2615537
50
252.0117524
51
259.8783359
0
ARC
8
DEFAULT_255_2_778
10
15.0261966
20
44.6607986
40
2.2411942
50
259.835535
51
269.9999826
0
ARC
8
DEFAULT_255_2_778
10
15.0261959
20
44.5909227
40
2.1713183
50
270
51
270.0851876
0
ARC
8
DEFAULT_255_2_778
10
15.0261573
20
44.6620687
40
2.2424643
50
270.0834701
51
280.1615769
0
LINE
8
DEFAULT_255_2_778
10
15.4217834
20
44.1689794
11
15.4217834
21
42.4547794
0
LINE
8
DEFAULT_255_2_778
10
15.4217834
20
46.8849794
11
15.4217834
21
45.1706794
0
LINE
8
DEFAULT_255_2_778
10
15.4217834
20
45.1706794
11
16.4715834
21
45.1706794
0
LINE
8
DEFAULT_255_2_778
10
16.4715834
20
45.1706794
11
16.4715834
21
44.1689794
0
LINE
8
DEFAULT_255_2_778
10
16.4715834
20
44.1689794
11
15.4217834
21
44.1689794
0
LINE
8
DEFAULT_255_2_778
10
14.6306834
20
45.1706794
11
14.6306834
21
46.8849794
0
LINE
8
DEFAULT_255_2_778
10
14.6306834
20
42.4547794
11
14.6306834
21
44.1689794
0
LINE
8
DEFAULT_255_2_778
10
14.6306834
20
44.1689794
11
13.5807834
21
44.1689794
0
LINE
8
DEFAULT_255_2_778
10
13.5807834
20
44.1689794
11
13.5807834
21
45.1706794
0
LINE
8
DEFAULT_255_2_778
10
13.5807834
20
45.1706794
11
14.6306834
21
45.1706794
0
ARC
8
DEFAULT_255_2_778
10
15.0261624
20
37.172768
40
2.2471116
50
79.859793
51
89.9168326
0
ARC
8
DEFAULT_255_2_778
10
15.0261959
20
37.2485611
40
2.1713184
50
89.9148124
51
90
0
ARC
8
DEFAULT_255_2_778
10
15.0261905
20
37.1740401
40
2.2458394
50
89.999862
51
100.1430607
0
ARC
8
DEFAULT_255_2_778
10
15.0261573
20
37.1621687
40
2.2424642
50
270.0834701
51
280.1615769
0
ARC
8
DEFAULT_255_2_778
10
15.0261959
20
37.0910227
40
2.1713184
50
270
51
270.0851876
0
ARC
8
DEFAULT_255_2_778
10
15.0261966
20
37.1608986
40
2.2411942
50
259.835535
51
269.9999826
0
ARC
8
DEFAULT_255_2_778
10
15.0230637
20
37.176371
40
2.2432912
50
100.0735815
51
125.6640798
0
ARC
8
DEFAULT_255_2_778
10
15.0274583
20
37.1694219
40
2.2514993
50
125.6518379
51
172.0848717
0
ARC
8
DEFAULT_255_2_778
10
15.0368095
20
37.1704134
40
2.260626
50
172.1423998
51
180.0109996
0
ARC
8
DEFAULT_255_2_778
10
15.019916
20
37.1680421
40
2.2437335
50
179.9505274
51
205.5344045
0
ARC
8
DEFAULT_255_2_778
10
15.0270926
20
37.1709705
40
2.2514713
50
205.5229246
51
251.9561006
0
ARC
8
DEFAULT_255_2_778
10
15.0281265
20
37.1812362
40
2.2615537
50
252.0117524
51
259.8783359
0
ARC
8
DEFAULT_255_2_778
10
15.0296554
20
37.1630658
40
2.242733
50
280.0695695
51
305.664242
0
ARC
8
DEFAULT_255_2_778
10
15.0249106
20
37.1704356
40
2.251487
50
305.652994
51
352.0867618
0
ARC
8
DEFAULT_255_2_778
10
15.0152003
20
37.169544
40
2.2609831
50
352.143019
51
0.0110349
0
ARC
8
DEFAULT_255_2_778
10
15.0326262
20
37.1718985
40
2.243558
50
359.9509912
51
25.5352273
0
ARC
8
DEFAULT_255_2_778
10
15.025049
20
37.1687767
40
2.2517408
50
25.5237926
51
71.9503273
0
ARC
8
DEFAULT_255_2_778
10
15.0240925
20
37.1587237
40
2.2615963
50
72.0062001
51
79.8721517
0
LINE
8
DEFAULT_255_2_778
10
14.6306834
20
34.9548794
11
14.6306834
21
36.6690794
0
LINE
8
DEFAULT_255_2_778
10
14.6306834
20
36.6690794
11
13.5807834
21
36.6690794
0
LINE
8
DEFAULT_255_2_778
10
13.5807834
20
36.6690794
11
13.5807834
21
37.6707794
0
LINE
8
DEFAULT_255_2_778
10
13.5807834
20
37.6707794
11
14.6306834
21
37.6707794
0
LINE
8
DEFAULT_255_2_778
10
14.6306834
20
37.6707794
11
14.6306834
21
39.3850794
0
LINE
8
DEFAULT_255_2_778
10
15.4217834
20
36.6690794
11
15.4217834
21
34.9548794
0
LINE
8
DEFAULT_255_2_778
10
15.4217834
20
39.3850794
11
15.4217834
21
37.6707794
0
LINE
8
DEFAULT_255_2_778
10
15.4217834
20
37.6707794
11
16.4715834
21
37.6707794
0
LINE
8
DEFAULT_255_2_778
10
16.4715834
20
37.6707794
11
16.4715834
21
36.6690794
0
LINE
8
DEFAULT_255_2_778
10
16.4715834
20
36.6690794
11
15.4217834
21
36.6690794
0
ARC
8
DEFAULT_255_2_778
10
15.0261624
20
29.6729614
40
2.2471116
50
79.859793
51
89.9168326
0
ARC
8
DEFAULT_255_2_778
10
15.0261959
20
29.7487545
40
2.1713184
50
89.9148124
51
90
0
ARC
8
DEFAULT_255_2_778
10
15.0261905
20
29.6742335
40
2.2458394
50
89.999862
51
100.1430607
0
ARC
8
DEFAULT_255_2_778
10
15.0230694
20
29.6761534
40
2.2434014
50
100.0732305
51
125.6622417
0
ARC
8
DEFAULT_255_2_778
10
15.0273339
20
29.6694104
40
2.2513662
50
125.650371
51
172.0862382
0
ARC
8
DEFAULT_255_2_778
10
15.0371132
20
29.6703095
40
2.2609297
50
172.1429273
51
180.0110656
0
ARC
8
DEFAULT_255_2_778
10
15.019916
20
29.6679355
40
2.2437335
50
179.9505274
51
205.5344045
0
ARC
8
DEFAULT_255_2_778
10
15.0270926
20
29.6708638
40
2.2514713
50
205.5229246
51
251.9561006
0
ARC
8
DEFAULT_255_2_778
10
15.0281265
20
29.6811296
40
2.2615537
50
252.0117524
51
259.8783359
0
ARC
8
DEFAULT_255_2_778
10
15.0293825
20
29.6633967
40
2.2432115
50
280.0744788
51
305.6640503
0
ARC
8
DEFAULT_255_2_778
10
15.0249746
20
29.6703431
40
2.2514251
50
305.6521207
51
352.0862461
0
ARC
8
DEFAULT_255_2_778
10
15.0152536
20
29.6694362
40
2.2609298
50
352.1429275
51
0.0110656
0
ARC
8
DEFAULT_255_2_778
10
15.0324071
20
29.671807
40
2.2437771
50
359.9506096
51
25.5339625
0
ARC
8
DEFAULT_255_2_778
10
15.0252733
20
29.6689194
40
2.2514589
50
25.5220169
51
71.9539947
0
ARC
8
DEFAULT_255_2_778
10
15.0243565
20
29.6589236
40
2.261248
50
72.0103676
51
79.8773716
0
ARC
8
DEFAULT_255_2_778
10
15.0261966
20
29.661092
40
2.2411942
50
259.835535
51
269.9999826
0
ARC
8
DEFAULT_255_2_778
10
15.0261959
20
29.5912161
40
2.1713183
50
270
51
270.0851876
0
ARC
8
DEFAULT_255_2_778
10
15.0261573
20
29.6623621
40
2.2424643
50
270.0834701
51
280.1615769
0
LINE
8
DEFAULT_255_2_778
10
14.6306834
20
30.1707728
11
14.6306834
21
31.8849728
0
LINE
8
DEFAULT_255_2_778
10
14.6306834
20
27.4547728
11
14.6306834
21
29.1689728
0
LINE
8
DEFAULT_255_2_778
10
14.6306834
20
29.1689728
11
13.5807834
21
29.1689728
0
LINE
8
DEFAULT_255_2_778
10
13.5807834
20
29.1689728
11
13.5807834
21
30.1707728
0
LINE
8
DEFAULT_255_2_778
10
13.5807834
20
30.1707728
11
14.6306834
21
30.1707728
0
LINE
8
DEFAULT_255_2_778
10
15.4217834
20
30.1707728
11
16.4715834
21
30.1707728
0
LINE
8
DEFAULT_255_2_778
10
16.4715834
20
30.1707728
11
16.4715834
21
29.1689728
0
LINE
8
DEFAULT_255_2_778
10
16.4715834
20
29.1689728
11
15.4217834
21
29.1689728
0
LINE
8
DEFAULT_255_2_778
10
15.4217834
20
29.1689728
11
15.4217834
21
27.4547728
0
LINE
8
DEFAULT_255_2_778
10
15.4217834
20
31.8849728
11
15.4217834
21
30.1707728
0
ARC
8
DEFAULT_255_2_778
10
15.0261947
20
22.1728003
40
2.2471116
50
79.859793
51
89.9168326
0
ARC
8
DEFAULT_255_2_778
10
15.0262282
20
22.2485934
40
2.1713184
50
89.9148124
51
90
0
ARC
8
DEFAULT_255_2_778
10
15.0262228
20
22.1740724
40
2.2458394
50
89.999862
51
100.1430607
0
ARC
8
DEFAULT_255_2_778
10
15.0231017
20
22.1759923
40
2.2434014
50
100.0732305
51
125.6622417
0
ARC
8
DEFAULT_255_2_778
10
15.0273662
20
22.1692493
40
2.2513662
50
125.650371
51
172.0862382
0
ARC
8
DEFAULT_255_2_778
10
15.0371455
20
22.1701484
40
2.2609297
50
172.1429273
51
180.0110656
0
ARC
8
DEFAULT_255_2_778
10
15.0199483
20
22.1677744
40
2.2437335
50
179.9505274
51
205.5344045
0
ARC
8
DEFAULT_255_2_778
10
15.0271248
20
22.1707027
40
2.2514713
50
205.5229246
51
251.9561006
0
ARC
8
DEFAULT_255_2_778
10
15.0281588
20
22.1809685
40
2.2615537
50
252.0117524
51
259.8783359
0
ARC
8
DEFAULT_255_2_778
10
15.0291297
20
22.1634311
40
2.2434014
50
280.0732305
51
305.6622417
0
ARC
8
DEFAULT_255_2_778
10
15.0248651
20
22.1701742
40
2.2513662
50
305.650371
51
352.0862382
0
ARC
8
DEFAULT_255_2_778
10
15.0150858
20
22.1692751
40
2.2609297
50
352.1429273
51
0.0110656
0
ARC
8
DEFAULT_255_2_778
10
15.0322831
20
22.1716491
40
2.2437335
50
359.9505274
51
25.5344045
0
ARC
8
DEFAULT_255_2_778
10
15.0251065
20
22.1687207
40
2.2514713
50
25.5229246
51
71.9561006
0
ARC
8
DEFAULT_255_2_778
10
15.0240726
20
22.158455
40
2.2615537
50
72.0117524
51
79.8783359
0
ARC
8
DEFAULT_255_2_778
10
15.0262228
20
22.1653511
40
2.2458394
50
259.8569393
51
270.000138
0
ARC
8
DEFAULT_255_2_778
10
15.0262282
20
22.09083
40
2.1713183
50
270
51
270.0851876
0
ARC
8
DEFAULT_255_2_778
10
15.0261947
20
22.1666231
40
2.2471114
50
270.0831674
51
280.140207
0
LINE
8
DEFAULT_255_2_778
10
14.6307157
20
21.6688117
11
13.5808157
21
21.6688117
0
LINE
8
DEFAULT_255_2_778
10
13.5808157
20
21.6688117
11
13.5808157
21
22.6705117
0
LINE
8
DEFAULT_255_2_778
10
13.5808157
20
22.6705117
11
14.6307157
21
22.6705117
0
LINE
8
DEFAULT_255_2_778
10
14.6307157
20
22.6705117
11
14.6307157
21
24.3848117
0
LINE
8
DEFAULT_255_2_778
10
14.6307157
20
19.9546117
11
14.6307157
21
21.6688117
0
LINE
8
DEFAULT_255_2_778
10
16.4714157
20
21.6688117
11
15.4215157
21
21.6688117
0
LINE
8
DEFAULT_255_2_778
10
15.4215157
20
21.6688117
11
15.4215157
21
19.9546117
0
LINE
8
DEFAULT_255_2_778
10
15.4215157
20
24.3848117
11
15.4215157
21
22.6705117
0
LINE
8
DEFAULT_255_2_778
10
15.4215157
20
22.6705117
11
16.4714157
21
22.6705117
0
LINE
8
DEFAULT_255_2_778
10
16.4714157
20
22.6705117
11
16.4714157
21
21.6688117
0
ARC
8
DEFAULT_255_2_778
10
22.9117072
20
48.0442184
40
2.2441591
50
99.9358827
51
125.2557685
0
ARC
8
DEFAULT_255_2_778
10
22.9157479
20
48.0377232
40
2.2517955
50
125.2443265
51
172.0234106
0
ARC
8
DEFAULT_255_2_778
10
22.9251502
20
48.0387627
40
2.2609637
50
172.0825612
51
180.0112583
0
ARC
8
DEFAULT_255_2_778
10
22.9083563
20
48.036371
40
2.2441707
50
179.9502802
51
205.2718051
0
ARC
8
DEFAULT_255_2_778
10
22.9153689
20
48.0392415
40
2.2517375
50
205.26168
51
252.0410022
0
ARC
8
DEFAULT_255_2_778
10
22.9161191
20
48.0489797
40
2.2612336
50
252.0990022
51
260.0264113
0
ARC
8
DEFAULT_255_2_778
10
22.9146714
20
48.0385882
40
2.2508007
50
260.0093724
51
270.0245993
0
LINE
8
DEFAULT_255_2_778
10
22.9156377
20
45.7877878
11
22.9165457
21
45.7877884
0
ARC
8
DEFAULT_255_2_778
10
22.9146522
20
48.0393217
40
2.2515341
50
270.0481839
51
280.2496983
0
ARC
8
DEFAULT_255_2_778
10
22.9170997
20
48.0332408
40
2.2451151
50
280.2158497
51
305.7481227
0
ARC
8
DEFAULT_255_2_778
10
22.9138302
20
48.0385728
40
2.2513527
50
305.7363743
51
352.1031006
0
ARC
8
DEFAULT_255_2_778
10
22.9030346
20
48.0378812
40
2.261952
50
352.1580238
51
0.011075
0
ARC
8
DEFAULT_255_2_778
10
22.9205427
20
48.0402919
40
2.2444447
50
359.9496197
51
25.4884178
0
ARC
8
DEFAULT_255_2_778
10
22.9141291
20
48.0376742
40
2.2513605
50
25.4783155
51
71.8446321
0
ARC
8
DEFAULT_255_2_778
10
22.9127333
20
48.0266547
40
2.2622674
50
71.8980021
51
79.7500675
0
ARC
8
DEFAULT_255_2_778
10
22.9150493
20
48.0447496
40
2.2440493
50
79.7260464
51
90.0048316
0
ARC
8
DEFAULT_255_2_778
10
22.9148298
20
48.0407256
40
2.2480736
50
89.9992289
51
90.3751944
0
ARC
8
DEFAULT_255_2_778
10
22.915147
20
48.029401
40
2.2593999
50
90.3813589
51
99.9644629
0
LINE
8
DEFAULT_255_2_778
10
21.4745865
20
48.4857184
11
22.5244865
21
48.4857184
0
LINE
8
DEFAULT_255_2_778
10
22.5244865
20
48.4857184
11
22.5244865
21
50.2547184
0
LINE
8
DEFAULT_255_2_778
10
22.5244865
20
45.8219184
11
22.5244865
21
47.4840184
0
LINE
8
DEFAULT_255_2_778
10
22.5244865
20
47.4840184
11
21.4745865
21
47.4840184
0
LINE
8
DEFAULT_255_2_778
10
21.4745865
20
47.4840184
11
21.4745865
21
48.4857184
0
LINE
8
DEFAULT_255_2_778
10
23.3152865
20
50.2528184
11
23.3152865
21
48.4857184
0
LINE
8
DEFAULT_255_2_778
10
23.3152865
20
48.4857184
11
24.3651865
21
48.4857184
0
LINE
8
DEFAULT_255_2_778
10
24.3651865
20
48.4857184
11
24.3651865
21
47.4840184
0
LINE
8
DEFAULT_255_2_778
10
24.3651865
20
47.4840184
11
23.3152865
21
47.4840184
0
LINE
8
DEFAULT_255_2_778
10
23.3152865
20
47.4840184
11
23.3152865
21
45.8237184
0
ARC
8
DEFAULT_255_2_778
10
22.9117072
20
40.5440184
40
2.2441591
50
99.9358827
51
125.2557685
0
ARC
8
DEFAULT_255_2_778
10
22.9157479
20
40.5375232
40
2.2517955
50
125.2443265
51
172.0234106
0
ARC
8
DEFAULT_255_2_778
10
22.9251502
20
40.5385627
40
2.2609637
50
172.0825612
51
180.0112583
0
ARC
8
DEFAULT_255_2_778
10
22.9083563
20
40.536171
40
2.2441707
50
179.9502802
51
205.2718051
0
ARC
8
DEFAULT_255_2_778
10
22.9153689
20
40.5390415
40
2.2517375
50
205.26168
51
252.0410022
0
ARC
8
DEFAULT_255_2_778
10
22.9161191
20
40.5487797
40
2.2612336
50
252.0990022
51
260.0264113
0
ARC
8
DEFAULT_255_2_778
10
22.9146714
20
40.5383882
40
2.2508007
50
260.0093724
51
270.0245993
0
LINE
8
DEFAULT_255_2_778
10
22.9156377
20
38.2875878
11
22.9165457
21
38.2875884
0
ARC
8
DEFAULT_255_2_778
10
22.9146522
20
40.5391217
40
2.2515341
50
270.0481839
51
280.2496983
0
ARC
8
DEFAULT_255_2_778
10
22.9170997
20
40.5330408
40
2.2451151
50
280.2158497
51
305.7481227
0
ARC
8
DEFAULT_255_2_778
10
22.9138302
20
40.5383728
40
2.2513527
50
305.7363743
51
352.1031006
0
ARC
8
DEFAULT_255_2_778
10
22.9030346
20
40.5376812
40
2.261952
50
352.1580238
51
0.011075
0
ARC
8
DEFAULT_255_2_778
10
22.9205427
20
40.5400919
40
2.2444447
50
359.9496197
51
25.4884178
0
ARC
8
DEFAULT_255_2_778
10
22.9141291
20
40.5374742
40
2.2513605
50
25.4783155
51
71.8446321
0
ARC
8
DEFAULT_255_2_778
10
22.9127333
20
40.5264547
40
2.2622674
50
71.8980021
51
79.7500675
0
ARC
8
DEFAULT_255_2_778
10
22.9150493
20
40.5445496
40
2.2440493
50
79.7260464
51
90.0048316
0
ARC
8
DEFAULT_255_2_778
10
22.9148298
20
40.5405256
40
2.2480736
50
89.9992289
51
90.3751944
0
ARC
8
DEFAULT_255_2_778
10
22.915147
20
40.529201
40
2.2593999
50
90.3813589
51
99.9644629
0
LINE
8
DEFAULT_255_2_778
10
21.4745865
20
40.9855184
11
22.5244865
21
40.9855184
0
LINE
8
DEFAULT_255_2_778
10
22.5244865
20
40.9855184
11
22.5244865
21
42.7545184
0
LINE
8
DEFAULT_255_2_778
10
22.5244865
20
38.3217184
11
22.5244865
21
39.9838184
0
LINE
8
DEFAULT_255_2_778
10
22.5244865
20
39.9838184
11
21.4745865
21
39.9838184
0
LINE
8
DEFAULT_255_2_778
10
21.4745865
20
39.9838184
11
21.4745865
21
40.9855184
0
LINE
8
DEFAULT_255_2_778
10
23.3152865
20
42.7526184
11
23.3152865
21
40.9855184
0
LINE
8
DEFAULT_255_2_778
10
23.3152865
20
40.9855184
11
24.3651865
21
40.9855184
0
LINE
8
DEFAULT_255_2_778
10
24.3651865
20
40.9855184
11
24.3651865
21
39.9838184
0
LINE
8
DEFAULT_255_2_778
10
24.3651865
20
39.9838184
11
23.3152865
21
39.9838184
0
LINE
8
DEFAULT_255_2_778
10
23.3152865
20
39.9838184
11
23.3152865
21
38.3235184
0
ARC
8
DEFAULT_255_2_778
10
22.9117072
20
33.0441184
40
2.2441591
50
99.9358827
51
125.2557685
0
ARC
8
DEFAULT_255_2_778
10
22.9157479
20
33.0376232
40
2.2517955
50
125.2443265
51
172.0234106
0
ARC
8
DEFAULT_255_2_778
10
22.9251502
20
33.0386627
40
2.2609637
50
172.0825612
51
180.0112583
0
ARC
8
DEFAULT_255_2_778
10
22.9083563
20
33.036271
40
2.2441707
50
179.9502802
51
205.2718051
0
ARC
8
DEFAULT_255_2_778
10
22.9153689
20
33.0391415
40
2.2517375
50
205.26168
51
252.0410022
0
ARC
8
DEFAULT_255_2_778
10
22.9161191
20
33.0488797
40
2.2612336
50
252.0990022
51
260.0264113
0
ARC
8
DEFAULT_255_2_778
10
22.9146714
20
33.0384882
40
2.2508007
50
260.0093724
51
270.0245993
0
LINE
8
DEFAULT_255_2_778
10
22.9156377
20
30.7876878
11
22.9165457
21
30.7876884
0
ARC
8
DEFAULT_255_2_778
10
22.9146522
20
33.0392217
40
2.2515341
50
270.0481839
51
280.2496983
0
ARC
8
DEFAULT_255_2_778
10
22.9170997
20
33.0331408
40
2.2451151
50
280.2158497
51
305.7481227
0
ARC
8
DEFAULT_255_2_778
10
22.9138302
20
33.0384728
40
2.2513527
50
305.7363743
51
352.1031006
0
ARC
8
DEFAULT_255_2_778
10
22.9030346
20
33.0377812
40
2.261952
50
352.1580238
51
0.011075
0
ARC
8
DEFAULT_255_2_778
10
22.9205427
20
33.0401919
40
2.2444447
50
359.9496197
51
25.4884178
0
ARC
8
DEFAULT_255_2_778
10
22.9141291
20
33.0375742
40
2.2513605
50
25.4783155
51
71.8446321
0
ARC
8
DEFAULT_255_2_778
10
22.9127333
20
33.0265547
40
2.2622674
50
71.8980021
51
79.7500675
0
ARC
8
DEFAULT_255_2_778
10
22.9150493
20
33.0446496
40
2.2440493
50
79.7260464
51
90.0048316
0
ARC
8
DEFAULT_255_2_778
10
22.9148298
20
33.0406256
40
2.2480736
50
89.9992289
51
90.3751944
0
ARC
8
DEFAULT_255_2_778
10
22.915147
20
33.029301
40
2.2593999
50
90.3813589
51
99.9644629
0
LINE
8
DEFAULT_255_2_778
10
21.4745865
20
33.4856184
11
22.5244865
21
33.4856184
0
LINE
8
DEFAULT_255_2_778
10
22.5244865
20
33.4856184
11
22.5244865
21
35.2546184
0
LINE
8
DEFAULT_255_2_778
10
22.5244865
20
30.8218184
11
22.5244865
21
32.4839184
0
LINE
8
DEFAULT_255_2_778
10
22.5244865
20
32.4839184
11
21.4745865
21
32.4839184
0
LINE
8
DEFAULT_255_2_778
10
21.4745865
20
32.4839184
11
21.4745865
21
33.4856184
0
LINE
8
DEFAULT_255_2_778
10
23.3152865
20
35.2527184
11
23.3152865
21
33.4856184
0
LINE
8
DEFAULT_255_2_778
10
23.3152865
20
33.4856184
11
24.3651865
21
33.4856184
0
LINE
8
DEFAULT_255_2_778
10
24.3651865
20
33.4856184
11
24.3651865
21
32.4839184
0
LINE
8
DEFAULT_255_2_778
10
24.3651865
20
32.4839184
11
23.3152865
21
32.4839184
0
LINE
8
DEFAULT_255_2_778
10
23.3152865
20
32.4839184
11
23.3152865
21
30.8236184
0
ARC
8
DEFAULT_255_2_778
10
22.9117072
20
25.5443184
40
2.2441591
50
99.9358827
51
125.2557685
0
ARC
8
DEFAULT_255_2_778
10
22.9157479
20
25.5378232
40
2.2517955
50
125.2443265
51
172.0234106
0
ARC
8
DEFAULT_255_2_778
10
22.9251502
20
25.5388627
40
2.2609637
50
172.0825612
51
180.0112583
0
ARC
8
DEFAULT_255_2_778
10
22.9083563
20
25.536471
40
2.2441707
50
179.9502802
51
205.2718051
0
ARC
8
DEFAULT_255_2_778
10
22.9153689
20
25.5393415
40
2.2517375
50
205.26168
51
252.0410022
0
ARC
8
DEFAULT_255_2_778
10
22.9161191
20
25.5490797
40
2.2612336
50
252.0990022
51
260.0264113
0
ARC
8
DEFAULT_255_2_778
10
22.9146714
20
25.5386882
40
2.2508007
50
260.0093724
51
270.0245993
0
LINE
8
DEFAULT_255_2_778
10
22.9156377
20
23.2878878
11
22.9165457
21
23.2878884
0
ARC
8
DEFAULT_255_2_778
10
22.9146522
20
25.5394217
40
2.2515341
50
270.0481839
51
280.2496983
0
ARC
8
DEFAULT_255_2_778
10
22.9170997
20
25.5333408
40
2.2451151
50
280.2158497
51
305.7481227
0
ARC
8
DEFAULT_255_2_778
10
22.9138302
20
25.5386728
40
2.2513527
50
305.7363743
51
352.1031006
0
ARC
8
DEFAULT_255_2_778
10
22.9030346
20
25.5379812
40
2.261952
50
352.1580238
51
0.011075
0
ARC
8
DEFAULT_255_2_778
10
22.9205427
20
25.5403919
40
2.2444447
50
359.9496197
51
25.4884178
0
ARC
8
DEFAULT_255_2_778
10
22.9141291
20
25.5377742
40
2.2513605
50
25.4783155
51
71.8446321
0
ARC
8
DEFAULT_255_2_778
10
22.9127333
20
25.5267547
40
2.2622674
50
71.8980021
51
79.7500675
0
ARC
8
DEFAULT_255_2_778
10
22.9150493
20
25.5448496
40
2.2440493
50
79.7260464
51
90.0048316
0
ARC
8
DEFAULT_255_2_778
10
22.9148298
20
25.5408256
40
2.2480736
50
89.9992289
51
90.3751944
0
ARC
8
DEFAULT_255_2_778
10
22.915147
20
25.529501
40
2.2593999
50
90.3813589
51
99.9644629
0
LINE
8
DEFAULT_255_2_778
10
21.4745865
20
25.9858184
11
22.5244865
21
25.9858184
0
LINE
8
DEFAULT_255_2_778
10
22.5244865
20
25.9858184
11
22.5244865
21
27.7548184
0
LINE
8
DEFAULT_255_2_778
10
22.5244865
20
23.3220184
11
22.5244865
21
24.9841184
0
LINE
8
DEFAULT_255_2_778
10
22.5244865
20
24.9841184
11
21.4745865
21
24.9841184
0
LINE
8
DEFAULT_255_2_778
10
21.4745865
20
24.9841184
11
21.4745865
21
25.9858184
0
LINE
8
DEFAULT_255_2_778
10
23.3152865
20
27.7529184
11
23.3152865
21
25.9858184
0
LINE
8
DEFAULT_255_2_778
10
23.3152865
20
25.9858184
11
24.3651865
21
25.9858184
0
LINE
8
DEFAULT_255_2_778
10
24.3651865
20
25.9858184
11
24.3651865
21
24.9841184
0
LINE
8
DEFAULT_255_2_778
10
24.3651865
20
24.9841184
11
23.3152865
21
24.9841184
0
LINE
8
DEFAULT_255_2_778
10
23.3152865
20
24.9841184
11
23.3152865
21
23.3238184
0
ARC
8
DEFAULT_255_2_778
10
22.9117072
20
18.0441184
40
2.2441591
50
99.9358827
51
125.2557685
0
ARC
8
DEFAULT_255_2_778
10
22.9157479
20
18.0376232
40
2.2517955
50
125.2443265
51
172.0234106
0
ARC
8
DEFAULT_255_2_778
10
22.9251502
20
18.0386627
40
2.2609637
50
172.0825612
51
180.0112583
0
ARC
8
DEFAULT_255_2_778
10
22.9083563
20
18.036271
40
2.2441707
50
179.9502802
51
205.2718051
0
ARC
8
DEFAULT_255_2_778
10
22.9153689
20
18.0391415
40
2.2517375
50
205.26168
51
252.0410022
0
ARC
8
DEFAULT_255_2_778
10
22.9161191
20
18.0488797
40
2.2612336
50
252.0990022
51
260.0264113
0
ARC
8
DEFAULT_255_2_778
10
22.9146714
20
18.0384882
40
2.2508007
50
260.0093724
51
270.0245993
0
LINE
8
DEFAULT_255_2_778
10
22.9156377
20
15.7876878
11
22.9165457
21
15.7876884
0
ARC
8
DEFAULT_255_2_778
10
22.9146522
20
18.0392217
40
2.2515341
50
270.0481839
51
280.2496983
0
ARC
8
DEFAULT_255_2_778
10
22.9170997
20
18.0331408
40
2.2451151
50
280.2158497
51
305.7481227
0
ARC
8
DEFAULT_255_2_778
10
22.9138302
20
18.0384728
40
2.2513527
50
305.7363743
51
352.1031006
0
ARC
8
DEFAULT_255_2_778
10
22.9030346
20
18.0377812
40
2.261952
50
352.1580238
51
0.011075
0
ARC
8
DEFAULT_255_2_778
10
22.9205427
20
18.0401919
40
2.2444447
50
359.9496197
51
25.4884178
0
ARC
8
DEFAULT_255_2_778
10
22.9141291
20
18.0375742
40
2.2513605
50
25.4783155
51
71.8446321
0
ARC
8
DEFAULT_255_2_778
10
22.9127333
20
18.0265547
40
2.2622674
50
71.8980021
51
79.7500675
0
ARC
8
DEFAULT_255_2_778
10
22.9150493
20
18.0446496
40
2.2440493
50
79.7260464
51
90.0048316
0
ARC
8
DEFAULT_255_2_778
10
22.9148298
20
18.0406256
40
2.2480736
50
89.9992289
51
90.3751944
0
ARC
8
DEFAULT_255_2_778
10
22.915147
20
18.029301
40
2.2593999
50
90.3813589
51
99.9644629
0
LINE
8
DEFAULT_255_2_778
10
21.4745865
20
18.4856184
11
22.5244865
21
18.4856184
0
LINE
8
DEFAULT_255_2_778
10
22.5244865
20
18.4856184
11
22.5244865
21
20.2546184
0
LINE
8
DEFAULT_255_2_778
10
22.5244865
20
15.8218184
11
22.5244865
21
17.4839184
0
LINE
8
DEFAULT_255_2_778
10
22.5244865
20
17.4839184
11
21.4745865
21
17.4839184
0
LINE
8
DEFAULT_255_2_778
10
21.4745865
20
17.4839184
11
21.4745865
21
18.4856184
0
LINE
8
DEFAULT_255_2_778
10
23.3152865
20
20.2527184
11
23.3152865
21
18.4856184
0
LINE
8
DEFAULT_255_2_778
10
23.3152865
20
18.4856184
11
24.3651865
21
18.4856184
0
LINE
8
DEFAULT_255_2_778
10
24.3651865
20
18.4856184
11
24.3651865
21
17.4839184
0
LINE
8
DEFAULT_255_2_778
10
24.3651865
20
17.4839184
11
23.3152865
21
17.4839184
0
LINE
8
DEFAULT_255_2_778
10
23.3152865
20
17.4839184
11
23.3152865
21
15.8236184
0
ENDSEC
0
EOF