0
SECTION
2
HEADER
9
$MEASUREMENT
70
1
0
ENDSEC
0
SECTION
2
TABLES
0
TABLE
2
LTYPE
0
LTYPE
72
65
70
64
2
CONTINUOUS
3
______
73
0
40
0
0
ENDTAB
0
TABLE
2
LAYER
0
LAYER
2
DEFAULT_255_2_778
70
0
62
255
6
CONTINUOUS
0
ENDTAB
0
ENDSEC
0
SECTION
2
ENTITIES
0
ARC
8
DEFAULT_255_2_778
10
5.6420532
20
12.1765033
40
2.7133405
50
159.8532571
51
179.9418876
0
ARC
8
DEFAULT_255_2_778
10
5.649626
20
12.1701361
40
2.722645
50
100.9299348
51
159.7823506
0
ARC
8
DEFAULT_255_2_778
10
5.6457921
20
12.1590398
40
2.7328195
50
90.0959806
51
100.8069007
0
ARC
8
DEFAULT_255_2_778
10
5.638452
20
12.178941
40
2.7129158
50
69.8509138
51
89.9416633
0
ARC
8
DEFAULT_255_2_778
10
5.6318375
20
12.1708404
40
2.7228011
50
10.9294463
51
69.7789616
0
ARC
8
DEFAULT_255_2_778
10
5.6208158
20
12.1746744
40
2.7329023
50
0.0960415
51
10.8067139
0
ARC
8
DEFAULT_255_2_778
10
5.6250593
20
12.174382
40
4.5389575
50
0.0615165
51
14.4710495
0
ARC
8
DEFAULT_255_2_778
10
5.6492561
20
12.1766345
40
4.5149671
50
14.5201043
51
38.0006675
0
ARC
8
DEFAULT_255_2_778
10
5.626136
20
12.1647659
40
4.5404957
50
37.9390637
51
71.299095
0
ARC
8
DEFAULT_255_2_778
10
5.6394641
20
12.1860505
40
4.5160651
50
71.3726798
51
86.9968809
0
ARC
8
DEFAULT_255_2_778
10
5.6323943
20
12.0970959
40
4.6052685
50
86.9670257
51
89.8877807
0
ARC
8
DEFAULT_255_2_778
10
5.6428213
20
12.1668915
40
4.535464
50
90.0177757
51
104.4429857
0
ARC
8
DEFAULT_255_2_778
10
5.6406049
20
12.1910163
40
4.5115506
50
104.4921436
51
127.9602806
0
ARC
8
DEFAULT_255_2_778
10
5.6522425
20
12.168093
40
4.5367853
50
127.8980834
51
161.3169415
0
ARC
8
DEFAULT_255_2_778
10
5.6303486
20
12.1816905
40
4.511693
50
161.3914569
51
177.0464121
0
ARC
8
DEFAULT_255_2_778
10
5.7195487
20
12.1746763
40
4.6011367
50
177.0164182
51
179.9429794
0
ARC
8
DEFAULT_255_2_778
10
5.6587186
20
5.1020221
40
1.4871975
50
330.098685
51
0.0898923
0
ARC
8
DEFAULT_255_2_778
10
5.6514506
20
5.1050315
40
1.4949985
50
277.8676458
51
330.1375562
0
ARC
8
DEFAULT_255_2_778
10
5.6522237
20
5.1176001
40
1.5073448
50
269.9844336
51
277.7731412
0
ARC
8
DEFAULT_255_2_778
10
5.6494697
20
5.0975496
40
1.4872961
50
240.101369
51
270.090316
0
ARC
8
DEFAULT_255_2_778
10
5.6523897
20
5.1046291
40
1.4948893
50
187.8655659
51
240.1396027
0
ARC
8
DEFAULT_255_2_778
10
5.6653437
20
5.1039441
40
1.5076297
50
179.9843696
51
187.7724069
0
ARC
8
DEFAULT_255_2_778
10
5.6390678
20
5.1060837
40
1.4813546
50
179.9939234
51
180.0668497
0
ARC
8
DEFAULT_255_2_778
10
5.6498195
20
5.1063034
40
1.4921065
50
135.0014494
51
180.0024033
0
ARC
8
DEFAULT_255_2_778
10
5.650002
20
5.1060219
40
1.4924346
50
90.0027685
51
134.9987624
0
ARC
8
DEFAULT_255_2_778
10
5.6504008
20
5.4887294
40
1.1097272
50
89.927029
51
90.0243157
0
ARC
8
DEFAULT_255_2_778
10
5.6541891
20
5.1129117
40
1.4855456
50
60.723041
51
90.0915964
0
ARC
8
DEFAULT_255_2_778
10
5.6491828
20
5.1025484
40
1.4970335
50
6.9981063
51
60.749877
0
ARC
8
DEFAULT_255_2_778
10
5.6425827
20
5.104648
40
1.5033315
50
359.9888475
51
6.8880333
0
LINE
8
DEFAULT_255_2_778
10
1.1184142
20
12.1792554
11
1.1184142
21
11.5625554
0
LINE
8
DEFAULT_255_2_778
10
1.1184142
20
11.5625554
11
2.9287142
21
11.5625554
0
LINE
8
DEFAULT_255_2_778
10
2.9287142
20
11.5625554
11
2.9287142
21
12.1792554
0
LINE
8
DEFAULT_255_2_778
10
8.3537142
20
12.1792554
11
8.3537142
21
7.7115554
0
LINE
8
DEFAULT_255_2_778
10
8.3537142
20
7.7115554
11
10.1640142
21
7.7115554
0
LINE
8
DEFAULT_255_2_778
10
10.1640142
20
7.7115554
11
10.1640142
21
12.1792554
0
ARC
8
DEFAULT_255_2_778
10
5.6376178
20
5.1160475
40
3.5315404
50
162.8611147
51
179.9408748
0
ARC
8
DEFAULT_255_2_778
10
5.6441382
20
5.1070131
40
3.54044
50
107.8710678
51
162.7524975
0
ARC
8
DEFAULT_255_2_778
10
5.634469
20
5.1167088
40
3.5282504
50
90.6195969
51
107.7699421
0
ARC
8
DEFAULT_255_2_778
10
5.6384564
20
5.034418
40
3.6105808
50
90.112305
51
90.6687466
0
ARC
8
DEFAULT_255_2_778
10
5.627735
20
5.1134533
40
3.5315404
50
72.8611147
51
89.9408748
0
ARC
8
DEFAULT_255_2_778
10
5.6187006
20
5.1069329
40
3.54044
50
17.8710678
51
72.7524975
0
ARC
8
DEFAULT_255_2_778
10
5.6283963
20
5.1166021
40
3.5282504
50
0.6195969
51
17.7699421
0
ARC
8
DEFAULT_255_2_778
10
5.5461055
20
5.1126147
40
3.6105808
50
0.112305
51
0.6687466
0
ARC
8
DEFAULT_255_2_778
10
5.6252562
20
5.1235209
40
3.5314252
50
342.8583343
51
359.9378744
0
ARC
8
DEFAULT_255_2_778
10
5.6185832
20
5.1326137
40
3.5404881
50
287.8706571
51
342.7495497
0
ARC
8
DEFAULT_255_2_778
10
5.6282872
20
5.1227996
40
3.5281752
50
270.6196205
51
287.7695797
0
ARC
8
DEFAULT_255_2_778
10
5.6243026
20
5.2047747
40
3.6101899
50
270.1123114
51
270.6687848
0
ARC
8
DEFAULT_255_2_778
10
5.6288229
20
5.0972285
40
3.5026376
50
252.6685514
51
270.0418183
0
ARC
8
DEFAULT_255_2_778
10
5.6499394
20
5.1381988
40
3.5480473
50
196.1526149
51
252.5401255
0
ARC
8
DEFAULT_255_2_778
10
5.610796
20
5.117555
40
3.5047174
50
179.961797
51
196.0064729
0
ARC
8
DEFAULT_255_2_778
10
5.6330776
20
5.1166037
40
5.3372993
50
179.9647022
51
193.3550465
0
ARC
8
DEFAULT_255_2_778
10
5.6039745
20
5.1133793
40
5.3082397
50
193.3937435
51
213.5040946
0
ARC
8
DEFAULT_255_2_778
10
5.6484387
20
5.1380264
40
5.3589226
50
213.4614119
51
250.3865118
0
ARC
8
DEFAULT_255_2_778
10
5.6219482
20
5.0862654
40
5.3012781
50
250.4684216
51
265.550008
0
ARC
8
DEFAULT_255_2_778
10
5.6305601
20
5.1768379
40
5.392246
50
265.5334481
51
270.0055169
0
ARC
8
DEFAULT_255_2_778
10
5.6343599
20
5.1235765
40
5.3389857
50
269.9647938
51
283.3516822
0
ARC
8
DEFAULT_255_2_778
10
5.6376643
20
5.0942272
40
5.3096678
50
283.3901245
51
303.4967061
0
ARC
8
DEFAULT_255_2_778
10
5.6140004
20
5.1373777
40
5.3587132
50
303.4530767
51
340.382036
0
ARC
8
DEFAULT_255_2_778
10
5.6660154
20
5.1106981
40
5.3007655
50
340.4649087
51
355.5495474
0
ARC
8
DEFAULT_255_2_778
10
5.5749217
20
5.1193691
40
5.3922576
50
355.5327982
51
0.0055537
0
ARC
8
DEFAULT_255_2_778
10
5.6284081
20
5.1232224
40
5.3387723
50
359.964256
51
13.3531503
0
ARC
8
DEFAULT_255_2_778
10
5.6595099
20
5.1269425
40
5.3076532
50
13.3916181
51
33.504519
0
ARC
8
DEFAULT_255_2_778
10
5.6154537
20
5.1024474
40
5.3579118
50
33.4628764
51
70.391595
0
ARC
8
DEFAULT_255_2_778
10
5.6413549
20
5.1528312
40
5.3017631
50
70.4725482
51
85.5513444
0
ARC
8
DEFAULT_255_2_778
10
5.6326946
20
5.061797
40
5.3931948
50
85.5346332
51
90.0054746
0
ARC
8
DEFAULT_255_2_778
10
5.6289256
20
5.119335
40
5.3356578
50
89.9650607
51
103.3590981
0
ARC
8
DEFAULT_255_2_778
10
5.6263543
20
5.146006
40
5.3091156
50
103.3986046
51
123.6551775
0
ARC
8
DEFAULT_255_2_778
10
5.65124
20
5.1010228
40
5.3603521
50
123.610126
51
160.4308688
0
ARC
8
DEFAULT_255_2_778
10
5.5968422
20
5.1285404
40
5.2998851
50
160.5141968
51
175.6364481
0
ARC
8
DEFAULT_255_2_778
10
5.6860472
20
5.1201802
40
5.3894679
50
175.6199826
51
180.005192
0
ARC
8
DEFAULT_255_2_778
10
0.5936773
20
-1.2173366
40
5.1135942
50
11.4086994
51
29.1497502
0
ARC
8
DEFAULT_255_2_778
10
1.3017182
20
-0.8239005
40
4.3035868
50
29.1667272
51
32.3776796
0
ARC
8
DEFAULT_255_2_778
10
1.5805634
20
-0.6520714
40
3.9760797
50
32.4382741
51
36.4163315
0
ARC
8
DEFAULT_255_2_778
10
1.2919321
20
-0.8672012
40
4.3360603
50
36.439783
51
40.6197648
0
ARC
8
DEFAULT_255_2_778
10
0.7698056
20
-1.3158685
40
5.0244774
50
40.6270209
51
44.6583841
0
ARC
8
DEFAULT_255_2_778
10
0.3268043
20
-1.7468188
40
5.6424965
50
44.6092716
51
45.9869982
0
ARC
8
DEFAULT_255_2_778
10
6.1000226
20
1.8634038
40
1.9060296
50
160.0071659
51
166.4132272
0
ARC
8
DEFAULT_255_2_778
10
5.2295031
20
2.1845808
40
0.9781695
50
149.6710325
51
160.2525059
0
ARC
8
DEFAULT_255_2_778
10
4.7723708
20
2.4577531
40
0.4456853
50
129.814506
51
150.3074847
0
ARC
8
DEFAULT_255_2_778
10
4.6376105
20
2.6185034
40
0.2359228
50
90.2216868
51
129.6728905
0
ARC
8
DEFAULT_255_2_778
10
4.6344264
20
2.5724272
40
0.2820064
50
72.8392431
51
89.5385354
0
ARC
8
DEFAULT_255_2_778
10
4.6033746
20
2.464479
40
0.3943169
50
65.1421858
51
73.1561616
0
ARC
8
DEFAULT_255_2_778
10
4.3206761
20
1.8626042
40
1.0592734
50
44.725223
51
64.952942
0
ARC
8
DEFAULT_255_2_778
10
3.252933
20
0.7635843
40
2.5914501
50
41.556206
51
45.3766624
0
ARC
8
DEFAULT_255_2_778
10
-2.7463758
20
-4.5998756
40
10.6386937
50
40.9417416
51
41.7384419
0
ARC
8
DEFAULT_255_2_778
10
69.8005076
20
58.5654484
40
85.5533653
50
221.0584352
51
221.0945079
0
ARC
8
DEFAULT_255_2_778
10
5.8409084
20
4.6770677
40
0.5156759
50
173.0374136
51
179.9448685
0
ARC
8
DEFAULT_255_2_778
10
5.8204888
20
4.6944854
40
0.4935179
50
119.8381823
51
174.7575179
0
ARC
8
DEFAULT_255_2_778
10
5.71113
20
4.8437588
40
0.3103052
50
89.9810268
51
116.033536
0
ARC
8
DEFAULT_255_2_778
10
5.6828623
20
4.7570069
40
0.3980693
50
20.1045241
51
85.9130612
0
ARC
8
DEFAULT_255_2_778
10
5.5751762
20
4.6808732
40
0.5264938
50
19.7053664
51
23.8594288
0
ARC
8
DEFAULT_255_2_778
10
5.6451506
20
4.7033031
40
0.453061
50
6.118213
51
20.0187231
0
ARC
8
DEFAULT_255_2_778
10
5.7593196
20
4.7177121
40
0.3380136
50
0.0935365
51
5.7522727
0
ARC
8
DEFAULT_255_2_778
10
6.370604
20
3.0876346
40
0.7932338
50
85.0775018
51
90.1929513
0
ARC
8
DEFAULT_255_2_778
10
6.4147751
20
3.462719
40
0.4159107
50
53.1798139
51
86.7064327
0
ARC
8
DEFAULT_255_2_778
10
6.3896184
20
3.4289901
40
0.4579879
50
49.7675528
51
53.1892589
0
ARC
8
DEFAULT_255_2_778
10
6.3663524
20
3.4037796
40
0.4922637
50
27.6170586
51
49.5954368
0
ARC
8
DEFAULT_255_2_778
10
6.29791
20
3.3689305
40
0.5690634
50
9.582793
51
27.5316247
0
ARC
8
DEFAULT_255_2_778
10
6.8525108
20
-11.2836873
40
14.9283536
50
89.5399143
51
90.0317715
0
ARC
8
DEFAULT_255_2_778
10
6.9314197
20
-2.2679072
40
5.9122339
50
88.3329507
51
89.6030069
0
ARC
8
DEFAULT_255_2_778
10
7.0516368
20
1.6654902
40
1.9770124
50
85.2814233
51
88.4992485
0
ARC
8
DEFAULT_255_2_778
10
7.1706342
20
3.046104
40
0.5913103
50
76.942268
51
85.768097
0
ARC
8
DEFAULT_255_2_778
10
7.2345405
20
3.3362765
40
0.2942208
50
62.1016269
51
76.2985274
0
ARC
8
DEFAULT_255_2_778
10
6.9152437
20
2.7426767
40
0.9682423
50
58.6909433
51
61.8389106
0
ARC
8
DEFAULT_255_2_778
10
8.9391148
20
6.129362
40
2.9771348
50
239.2828765
51
239.6791478
0
ARC
8
DEFAULT_255_2_778
10
6.9959129
20
3.0138664
40
0.7010493
50
47.9550445
51
51.101395
0
ARC
8
DEFAULT_255_2_778
10
7.1419528
20
3.1758154
40
0.482978
50
17.3070626
51
47.9541681
0
ARC
8
DEFAULT_255_2_778
10
6.4525823
20
2.9025349
40
1.2237096
50
18.6795181
51
19.9217703
0
ARC
8
DEFAULT_255_2_778
10
5.8767066
20
2.7098098
40
1.8309767
50
16.891917
51
18.621159
0
ARC
8
DEFAULT_255_2_778
10
5.2030829
20
2.5015318
40
2.536058
50
16.7818469
51
16.9723185
0
LINE
8
DEFAULT_255_2_778
10
7.6311327
20
3.2337639
11
7.6311327
21
2.5767639
0
ARC
8
DEFAULT_255_2_778
10
7.6456728
20
-6.4404671
40
9.7850418
50
89.0783238
51
90.0851386
0
ARC
8
DEFAULT_255_2_778
10
7.7604679
20
0.2026394
40
3.1409584
50
86.4643782
51
89.2228329
0
ARC
8
DEFAULT_255_2_778
10
7.9059445
20
2.4324262
40
0.9064768
50
78.9596279
51
86.9504958
0
ARC
8
DEFAULT_255_2_778
10
8.0322413
20
3.0494314
40
0.2767657
50
47.9256468
51
80.1609326
0
LINE
8
DEFAULT_255_2_778
10
8.2177004
20
3.2548679
11
8.2179327
21
3.2546639
0
ARC
8
DEFAULT_255_2_778
10
7.8587056
20
2.8715125
40
0.5252134
50
1.092852
51
46.8458087
0
ARC
8
DEFAULT_255_2_778
10
7.937415
20
2.8786949
40
0.4464176
50
359.9960219
51
0.3638379
0
ARC
8
DEFAULT_255_2_778
10
3.1932398
20
2.7683666
40
5.1917647
50
0.5680357
51
1.2173213
0
ARC
8
DEFAULT_255_2_778
10
2.2173132
20
2.7584747
40
6.1677414
50
359.9923057
51
0.5700435
0
ARC
8
DEFAULT_255_2_778
10
0.4433474
20
2.7628847
40
7.9417088
50
358.6482405
51
359.9622085
0
ARC
8
DEFAULT_255_2_778
10
-1.9791321
20
2.8194659
40
10.364849
50
357.1934043
51
358.6514575
0
ARC
8
DEFAULT_255_2_778
10
-3.0733316
20
2.8693547
40
11.4601795
50
355.4034894
51
357.212144
0
ARC
8
DEFAULT_255_2_778
10
-1.0031567
20
2.6911468
40
9.3823888
50
352.6771376
51
355.4751494
0
ARC
8
DEFAULT_255_2_778
10
2.3413854
20
2.2650646
40
6.0108184
50
350.3029071
51
352.641967
0
ARC
8
DEFAULT_255_2_778
10
4.4844453
20
1.8989464
40
3.8367098
50
347.7313814
51
350.3015845
0
ARC
8
DEFAULT_255_2_778
10
4.5521193
20
1.8720787
40
3.7648908
50
346.2371492
51
347.9120803
0
ARC
8
DEFAULT_255_2_778
10
2.0040855
20
2.4905371
40
6.3869034
50
345.3753992
51
346.2863558
0
ARC
8
DEFAULT_255_2_778
10
-1.6074982
20
3.4351806
40
10.1199834
50
344.4224298
51
345.3631259
0
ARC
8
DEFAULT_255_2_778
10
-6.8083088
20
4.8811869
40
15.5180716
50
343.7894561
51
344.4362707
0
ARC
8
DEFAULT_255_2_778
10
-11.3421415
20
6.1942637
40
20.2382192
50
343.498691
51
343.8031253
0
ARC
8
DEFAULT_255_2_778
10
-16.7096149
20
7.7892705
40
25.8376656
50
342.9378343
51
343.488155
0
ARC
8
DEFAULT_255_2_778
10
-21.547619
20
9.2690465
40
30.8969146
50
342.6443449
51
342.9468616
0
ARC
8
DEFAULT_255_2_778
10
-22.1553904
20
9.4578628
40
31.5333395
50
342.4615278
51
342.6463068
0
ARC
8
DEFAULT_255_2_778
10
-20.0047718
20
8.7781
40
29.2778489
50
342.3415439
51
342.4616908
0
ARC
8
DEFAULT_255_2_778
10
-14.7656794
20
7.1092393
40
23.7793778
50
342.205457
51
342.3439265
0
ARC
8
DEFAULT_255_2_778
10
-4.8852891
20
3.9371915
40
13.4022876
50
342.0951451
51
342.2088743
0
ARC
8
DEFAULT_255_2_778
10
4.478914
20
0.9122355
40
3.5616242
50
342.0580219
51
342.0878662
0
LINE
8
DEFAULT_255_2_778
10
5.3252327
20
2.3309639
11
5.3252327
21
4.6775639
0
LINE
8
DEFAULT_255_2_778
10
6.0973327
20
4.7182639
11
6.0973327
21
3.8808639
0
LINE
8
DEFAULT_255_2_778
10
6.0973327
20
3.8808639
11
6.3679327
21
3.8808639
0
LINE
8
DEFAULT_255_2_778
10
6.8590327
20
3.4636639
11
6.8590327
21
2.9418639
0
LINE
8
DEFAULT_255_2_778
10
6.8590327
20
2.9418639
11
6.8590327
21
3.4689639
0
LINE
8
DEFAULT_255_2_778
10
6.8590327
20
3.4689639
11
6.8442327
21
3.6446639
0
LINE
8
DEFAULT_255_2_778
10
7.6311327
20
2.5767639
11
7.6311327
21
3.3445639
0
LINE
8
DEFAULT_255_2_778
10
7.8673327
20
-0.1849361
11
5.6012327
21
-0.1950361
0
LINE
8
DEFAULT_255_2_778
10
5.6012327
20
-0.1950361
11
5.6062327
21
-0.2058361
0
ENDSEC
0
EOF