0
SECTION
2
HEADER
9
$MEASUREMENT
70
1
0
ENDSEC
0
SECTION
2
TABLES
0
TABLE
2
LTYPE
0
LTYPE
72
65
70
64
2
CONTINUOUS
3
______
73
0
40
0
0
ENDTAB
0
TABLE
2
LAYER
0
LAYER
2
DEFAULT_255_2_778
70
0
62
255
6
CONTINUOUS
0
ENDTAB
0
ENDSEC
0
SECTION
2
ENTITIES
0
LINE
8
DEFAULT_255_2_778
10
0.9894879
20
5.9116735
11
8.7420879
21
12.5410735
0
LINE
8
DEFAULT_255_2_778
10
8.7420879
20
12.5410735
11
8.8364879
21
12.4254735
0
LINE
8
DEFAULT_255_2_778
10
8.8364879
20
12.4254735
11
1.0881879
21
5.8010735
0
LINE
8
DEFAULT_255_2_778
10
1.0881879
20
5.8010735
11
0.9894879
21
5.9116735
0
LINE
8
DEFAULT_255_2_778
10
9.3050879
20
12.6302735
11
16.6588879
21
5.5616735
0
LINE
8
DEFAULT_255_2_778
10
16.6588879
20
5.5616735
11
16.5535879
21
5.4521735
0
LINE
8
DEFAULT_255_2_778
10
16.5535879
20
5.4521735
11
9.2002879
21
12.5207735
0
LINE
8
DEFAULT_255_2_778
10
9.2002879
20
12.5207735
11
9.3050879
21
12.6302735
0
ARC
8
DEFAULT_255_2_778
10
2.3051228
20
2.9212075
40
1.9492496
50
241.0133191
51
264.3170897
0
ARC
8
DEFAULT_255_2_778
10
2.2897649
20
2.8980415
40
1.9215443
50
183.5986524
51
241.0791457
0
ARC
8
DEFAULT_255_2_778
10
2.2903842
20
2.8934395
40
1.9218791
50
179.9975404
51
183.4605684
0
ARC
8
DEFAULT_255_2_778
10
2.3149014
20
2.8932798
40
1.9463963
50
174.9422442
51
179.9928681
0
ARC
8
DEFAULT_255_2_778
10
2.337655
20
2.891543
40
1.9692144
50
174.1767896
51
174.9502723
0
ARC
8
DEFAULT_255_2_778
10
2.5674532
20
5.5005213
40
1.9480572
50
151.0213772
51
174.3373519
0
ARC
8
DEFAULT_255_2_778
10
2.5451642
20
5.5154278
40
1.9213381
50
93.6060286
51
151.0882246
0
ARC
8
DEFAULT_255_2_778
10
2.5402905
20
5.5163883
40
1.9200789
50
89.9974671
51
93.4626846
0
ARC
8
DEFAULT_255_2_778
10
2.5401324
20
5.49204
40
1.9444273
50
84.9316683
51
89.9928412
0
ARC
8
DEFAULT_255_2_778
10
2.5386597
20
5.4721391
40
1.9643806
50
84.1639485
51
84.9401595
0
ARC
8
DEFAULT_255_2_778
10
15.3656423
20
4.2401217
40
1.9487336
50
61.0237698
51
84.335091
0
ARC
8
DEFAULT_255_2_778
10
15.3809918
20
4.2632864
40
1.9210337
50
3.6020146
51
61.0895648
0
ARC
8
DEFAULT_255_2_778
10
15.3811683
20
4.2680084
40
1.9205666
50
359.9975616
51
3.4617528
0
ARC
8
DEFAULT_255_2_778
10
15.3566914
20
4.2681706
40
1.9450434
50
354.9316756
51
359.9928138
0
ARC
8
DEFAULT_255_2_778
10
15.3361607
20
4.2697035
40
1.9656293
50
354.1640738
51
354.9400388
0
ARC
8
DEFAULT_255_2_778
10
15.1262226
20
1.6473282
40
1.9234168
50
309.4280862
51
354.6634129
0
ARC
8
DEFAULT_255_2_778
10
15.1273096
20
1.6463371
40
1.9219609
50
269.9932331
51
309.4218193
0
ARC
8
DEFAULT_255_2_778
10
15.1271126
20
1.6498615
40
1.9254852
50
264.1692556
51
269.9991075
0
LINE
8
DEFAULT_255_2_778
10
14.9315023
20
-0.2701619
11
2.1121023
21
0.9815381
0
LINE
8
DEFAULT_255_2_778
10
0.3786023
20
3.0913381
11
0.6289023
21
5.6927381
0
LINE
8
DEFAULT_255_2_778
10
2.7384023
20
7.4263381
11
15.5580023
21
6.1793381
0
LINE
8
DEFAULT_255_2_778
10
17.2916023
20
4.0698381
11
17.0413023
21
1.4684381
0
LINE
8
DEFAULT_255_2_778
10
14.9315023
20
-0.2656619
11
14.9315023
21
-0.2701619
0
ARC
8
DEFAULT_255_2_778
10
13.0408581
20
4.2396989
40
1.5644756
50
352.2998303
51
358.8742109
0
ARC
8
DEFAULT_255_2_778
10
16.3308611
20
4.1715062
40
1.7262357
50
172.802833
51
178.7567352
0
ARC
8
DEFAULT_255_2_778
10
15.2086658
20
4.3046217
40
0.596266
50
134.9451924
51
171.9834733
0
ARC
8
DEFAULT_255_2_778
10
15.0722045
20
4.4516912
40
0.3958398
50
105.4634174
51
136.003243
0
ARC
8
DEFAULT_255_2_778
10
15.025802
20
4.5918494
40
0.2484919
50
90.2243438
51
103.7676731
0
ARC
8
DEFAULT_255_2_778
10
15.0252652
20
4.6267472
40
0.2135928
50
76.7759584
51
90.1170197
0
ARC
8
DEFAULT_255_2_778
10
14.9797777
20
4.4647707
40
0.3817484
50
43.5318521
51
75.6911
0
ARC
8
DEFAULT_255_2_778
10
14.7360795
20
4.2135587
40
0.731591
50
16.2040032
51
44.6500909
0
ARC
8
DEFAULT_255_2_778
10
14.9027131
20
4.2600697
40
0.5586006
50
3.349496
51
16.3924433
0
ARC
8
DEFAULT_255_2_778
10
15.0213941
20
4.2702074
40
0.4395415
50
0.0209555
51
2.9341571
0
ARC
8
DEFAULT_255_2_778
10
15.0748697
20
4.2697401
40
0.3860662
50
353.5955948
51
0.0932095
0
ARC
8
DEFAULT_255_2_778
10
14.7812802
20
1.6466765
40
0.3478655
50
333.8188389
51
346.0095076
0
ARC
8
DEFAULT_255_2_778
10
14.6194104
20
1.7217822
40
0.5262807
50
328.8870138
51
334.2563486
0
ARC
8
DEFAULT_255_2_778
10
14.4722607
20
1.8121162
40
0.6989421
50
304.2566662
51
328.7801843
0
ARC
8
DEFAULT_255_2_778
10
14.6784312
20
1.5157753
40
0.3379748
50
289.0081518
51
303.6473241
0
ARC
8
DEFAULT_255_2_778
10
14.7295658
20
1.3709541
40
0.1843995
50
274.3108182
51
288.6422146
0
ARC
8
DEFAULT_255_2_778
10
14.7271864
20
1.4647813
40
0.2781796
50
269.9636128
51
273.346837
0
ARC
8
DEFAULT_255_2_778
10
14.7332637
20
1.6049297
40
0.4183746
50
254.7858376
51
269.1435046
0
ARC
8
DEFAULT_255_2_778
10
14.787698
20
1.8272023
40
0.6471679
50
248.2346234
51
255.2996922
0
ARC
8
DEFAULT_255_2_778
10
14.8149808
20
1.9128087
40
0.736816
50
223.6382084
51
248.7327365
0
ARC
8
DEFAULT_255_2_778
10
14.5614819
20
1.6579296
40
0.3775832
50
212.4420972
51
222.1936384
0
ARC
8
DEFAULT_255_2_778
10
25.2927478
20
8.0759228
40
12.8814749
50
206.0555285
51
210.9278811
0
ARC
8
DEFAULT_255_2_778
10
254.5495371
20
123.728768
40
269.6571883
50
206.7065634
51
206.7354033
0
ARC
8
DEFAULT_255_2_778
10
-16.8848309
20
-12.7694895
40
34.1658057
50
26.6197211
51
27.3057261
0
ARC
8
DEFAULT_255_2_778
10
26.7637214
20
0.7228706
40
13.8390875
50
171.6445687
51
172.7777126
0
ARC
8
DEFAULT_255_2_778
10
-34.0008358
20
8.5623434
40
47.4291286
50
352.5049192
51
352.610998
0
ARC
8
DEFAULT_255_2_778
10
8.7166077
20
2.8439984
40
4.3318478
50
344.1581306
51
353.7930205
0
ARC
8
DEFAULT_255_2_778
10
12.776129
20
1.6984129
40
0.1139501
50
330.1243658
51
341.0860368
0
ARC
8
DEFAULT_255_2_778
10
12.659257
20
1.7773265
40
0.2548038
50
305.1129028
51
327.8278134
0
ARC
8
DEFAULT_255_2_778
10
12.4568015
20
2.0475458
40
0.5923864
50
288.5832619
51
306.0980827
0
ARC
8
DEFAULT_255_2_778
10
12.4883516
20
1.9354758
40
0.4761406
50
276.7541207
51
289.2823636
0
ARC
8
DEFAULT_255_2_778
10
12.512709
20
1.7540395
40
0.2931127
50
270.1634337
51
276.1970538
0
ARC
8
DEFAULT_255_2_778
10
12.5119324
20
1.6548784
40
0.193957
50
258.7793052
51
270.4763964
0
ARC
8
DEFAULT_255_2_778
10
12.5051653
20
1.6133193
40
0.1518824
50
257.7837179
51
258.23261
0
ARC
8
DEFAULT_255_2_778
10
12.5247685
20
1.6862475
40
0.2273378
50
240.8474387
51
256.84422
0
ARC
8
DEFAULT_255_2_778
10
12.5721936
20
1.780101
40
0.3324328
50
238.2221181
51
241.5889161
0
ARC
8
DEFAULT_255_2_778
10
12.6986109
20
1.9556201
40
0.5484219
50
206.9581073
51
236.6513034
0
ARC
8
DEFAULT_255_2_778
10
12.4973432
20
1.8541426
40
0.3230216
50
191.5059511
51
207.0985266
0
ARC
8
DEFAULT_255_2_778
10
12.3825485
20
1.827871
40
0.2053132
50
183.9644219
51
190.7118154
0
ARC
8
DEFAULT_255_2_778
10
13.8637355
20
1.9119932
40
1.6888731
50
179.9451801
51
183.3373364
0
ARC
8
DEFAULT_255_2_778
10
16.1050568
20
1.8206633
40
3.9312926
50
171.0959887
51
178.645255
0
ARC
8
DEFAULT_255_2_778
10
3.4902962
20
3.633979
40
8.8135836
50
352.1429665
51
353.6732167
0
ARC
8
DEFAULT_255_2_778
10
8.5006255
20
3.0638188
40
3.7709664
50
353.8943618
51
355.1207665
0
ARC
8
DEFAULT_255_2_778
10
13.0937482
20
4.5401351
40
0.6062346
50
139.1129952
51
170.6740197
0
ARC
8
DEFAULT_255_2_778
10
12.873991
20
4.7271313
40
0.3177054
50
90.3519714
51
138.6663033
0
ARC
8
DEFAULT_255_2_778
10
12.8714865
20
4.6972093
40
0.3476217
50
81.2402096
51
89.9088845
0
ARC
8
DEFAULT_255_2_778
10
12.762003
20
4.2691773
40
0.7885089
50
33.997398
51
78.1126415
0
ARC
8
DEFAULT_255_2_778
10
14.4359169
20
3.1539381
40
0.1963639
50
203.9979131
51
217.4335572
0
ARC
8
DEFAULT_255_2_778
10
14.5178172
20
3.2121723
40
0.296816
50
216.7500129
51
217.7878076
0
ARC
8
DEFAULT_255_2_778
10
14.5444214
20
3.2327701
40
0.3304621
50
217.7837746
51
218.7001819
0
ARC
8
DEFAULT_255_2_778
10
14.5778829
20
3.2595732
40
0.373335
50
218.6996027
51
219.4973154
0
ARC
8
DEFAULT_255_2_778
10
14.6208149
20
3.2950775
40
0.4290459
50
219.5094015
51
220.5374281
0
ARC
8
DEFAULT_255_2_778
10
14.6874718
20
3.3520692
40
0.5167454
50
220.5362411
51
221.3686634
0
ARC
8
DEFAULT_255_2_778
10
14.7735535
20
3.4278403
40
0.6314246
50
221.3661822
51
222.0303851
0
ARC
8
DEFAULT_255_2_778
10
14.8845313
20
3.5278948
40
0.7808465
50
222.0316374
51
222.5550735
0
ARC
8
DEFAULT_255_2_778
10
15.0379154
20
3.6687007
40
0.9890604
50
222.5543826
51
222.9568794
0
ARC
8
DEFAULT_255_2_778
10
12.018684
20
0.7736838
40
3.1940061
50
41.8771408
51
44.0569064
0
ARC
8
DEFAULT_255_2_778
10
13.5524765
20
2.1679508
40
1.1213461
50
38.0814759
51
41.1475023
0
ARC
8
DEFAULT_255_2_778
10
-1.03537
20
4.9327
40
6.5656798
50
352.4722453
51
353.7452705
0
ARC
8
DEFAULT_255_2_778
10
3.0150472
20
4.3019044
40
2.4693504
50
331.4277762
51
354.6707461
0
ARC
8
DEFAULT_255_2_778
10
3.9808167
20
3.8342743
40
1.3984836
50
306.9945473
51
329.3290233
0
ARC
8
DEFAULT_255_2_778
10
3.9054913
20
3.9412552
40
1.5292605
50
295.7606248
51
306.8367156
0
ARC
8
DEFAULT_255_2_778
10
3.8479036
20
4.1762074
40
1.7666056
50
274.6268555
51
294.130705
0
ARC
8
DEFAULT_255_2_778
10
3.5334585
20
6.9530573
40
4.5606481
50
271.4533038
51
275.7503522
0
ARC
8
DEFAULT_255_2_778
10
3.5678262
20
4.0630992
40
1.6712017
50
240.968534
51
272.7884194
0
ARC
8
DEFAULT_255_2_778
10
3.3794658
20
3.6121991
40
1.1867809
50
221.9358119
51
238.3546267
0
ARC
8
DEFAULT_255_2_778
10
4.4807532
20
4.6015396
40
2.6671959
50
212.3241273
51
221.9353106
0
ARC
8
DEFAULT_255_2_778
10
3.661068
20
4.1134129
40
1.7137208
50
180.4855903
51
213.1869918
0
ARC
8
DEFAULT_255_2_778
10
3.6885004
20
4.0962874
40
1.7410936
50
170.7702063
51
179.9143876
0
ARC
8
DEFAULT_255_2_778
10
3.9508692
20
4.0542087
40
2.0068148
50
164.0073829
51
170.78587
0
ARC
8
DEFAULT_255_2_778
10
4.2304997
20
3.9763353
40
2.2970791
50
160.3104258
51
164.0618197
0
ARC
8
DEFAULT_255_2_778
10
4.6499673
20
3.8498633
40
2.7347231
50
148.5273376
51
160.7766215
0
ARC
8
DEFAULT_255_2_778
10
3.6563654
20
4.4591752
40
1.5691741
50
119.3828512
51
148.5610896
0
ARC
8
DEFAULT_255_2_778
10
3.6950844
20
4.383106
40
1.6544589
50
116.1770161
51
119.2587147
0
ARC
8
DEFAULT_255_2_778
10
3.802378
20
4.1034537
40
1.9529488
50
106.5289436
51
115.3825607
0
ARC
8
DEFAULT_255_2_778
10
3.7298202
20
4.3488645
40
1.6970368
50
93.9695878
51
106.5377178
0
ARC
8
DEFAULT_255_2_778
10
3.7228525
20
4.4132854
40
1.63229
50
90.0002259
51
93.8821373
0
ARC
8
DEFAULT_255_2_778
10
3.7092117
20
4.2597502
40
1.7858773
50
66.4526767
51
89.5625713
0
ARC
8
DEFAULT_255_2_778
10
3.4740369
20
3.6745904
40
2.4163333
50
58.041145
51
66.8838371
0
ARC
8
DEFAULT_255_2_778
10
4.0743174
20
4.5625843
40
1.3457726
50
38.4802943
51
59.7133259
0
ARC
8
DEFAULT_255_2_778
10
3.871532
20
4.4418361
40
1.5799697
50
11.8452609
51
37.332179
0
ARC
8
DEFAULT_255_2_778
10
2.5613023
20
4.1322264
40
2.9260504
50
2.1237446
51
12.5123484
0
ARC
8
DEFAULT_255_2_778
10
1.4447058
20
4.0555391
40
4.0448755
50
2.3681763
51
2.623152
0
ARC
8
DEFAULT_255_2_778
10
6.7717481
20
4.4179734
40
2.179278
50
179.2111664
51
183.8650308
0
ARC
8
DEFAULT_255_2_778
10
2.2832013
20
4.4777638
40
2.3096674
50
359.2610412
51
3.7488307
0
ARC
8
DEFAULT_255_2_778
10
3.7832612
20
4.4930649
40
0.8160294
50
9.573162
51
70.2582105
0
ARC
8
DEFAULT_255_2_778
10
3.7227352
20
4.4193836
40
0.9063924
50
68.2298947
51
87.2497597
0
ARC
8
DEFAULT_255_2_778
10
3.7293809
20
4.4924851
40
0.8330621
50
87.4650657
51
89.9952317
0
ARC
8
DEFAULT_255_2_778
10
3.7214362
20
4.5979543
40
0.727637
50
89.3689429
51
122.7571677
0
ARC
8
DEFAULT_255_2_778
10
3.9672797
20
4.2982313
40
1.1136088
50
125.0511001
51
166.1244974
0
ARC
8
DEFAULT_255_2_778
10
4.4061687
20
4.139227
40
1.5785862
50
164.3416177
51
173.3908728
0
ARC
8
DEFAULT_255_2_778
10
4.4820188
20
4.1286985
40
1.6551449
50
173.3310357
51
179.9943246
0
ARC
8
DEFAULT_255_2_778
10
4.3790311
20
4.12606
40
1.5521598
50
179.8965503
51
189.7138422
0
ARC
8
DEFAULT_255_2_778
10
4.0813784
20
4.0741158
40
1.2500106
50
189.6690506
51
198.8806227
0
ARC
8
DEFAULT_255_2_778
10
3.8502597
20
3.9983764
40
1.006823
50
199.0584677
51
203.2539007
0
ARC
8
DEFAULT_255_2_778
10
3.872026
20
3.9945198
40
1.0253703
50
202.5757016
51
215.7518954
0
ARC
8
DEFAULT_255_2_778
10
3.5620603
20
3.770912
40
0.6431675
50
215.7194498
51
263.6752243
0
ARC
8
DEFAULT_255_2_778
10
3.65203
20
4.2683543
40
1.1480158
50
261.9470388
51
270.2867329
0
ARC
8
DEFAULT_255_2_778
10
3.6544992
20
4.7838054
40
1.6634556
50
270.1128354
51
274.3785806
0
ARC
8
DEFAULT_255_2_778
10
3.6078348
20
5.4016408
40
2.2830504
50
274.3624883
51
277.7172716
0
ARC
8
DEFAULT_255_2_778
10
3.5137912
20
6.1158049
40
3.0033762
50
277.6655805
51
279.5413057
0
ARC
8
DEFAULT_255_2_778
10
3.9494128
20
3.5121827
40
0.363569
50
279.8529273
51
284.0346005
0
ARC
8
DEFAULT_255_2_778
10
3.8874667
20
3.6869361
40
0.5484147
50
285.8860033
51
313.7426073
0
ARC
8
DEFAULT_255_2_778
10
3.5977458
20
4.0060536
40
0.9793466
50
313.0794863
51
337.5969358
0
ARC
8
DEFAULT_255_2_778
10
3.618897
20
4.0086587
40
0.9608417
50
336.9726129
51
354.087105
0
ARC
8
DEFAULT_255_2_778
10
11.328016
20
1.6688455
40
0.6022934
50
61.35229
51
84.8168899
0
ARC
8
DEFAULT_255_2_778
10
11.5161774
20
1.9944138
40
0.2265516
50
1.4246928
51
63.6398182
0
ARC
8
DEFAULT_255_2_778
10
11.4766729
20
2.0018549
40
0.2659923
50
345.029601
51
359.6104583
0
ARC
8
DEFAULT_255_2_778
10
11.3712147
20
2.0290334
40
0.3748932
50
335.7866303
51
345.1802827
0
ARC
8
DEFAULT_255_2_778
10
11.4488127
20
1.9989149
40
0.2918019
50
330.1011074
51
334.9311184
0
ARC
8
DEFAULT_255_2_778
10
11.2680771
20
2.1183017
40
0.5081705
50
308.8301978
51
328.5894493
0
ARC
8
DEFAULT_255_2_778
10
11.1136281
20
2.289029
40
0.7381294
50
292.3898075
51
309.8601851
0
ARC
8
DEFAULT_255_2_778
10
11.2061955
20
2.0600403
40
0.4911465
50
278.4586512
51
292.5804292
0
ARC
8
DEFAULT_255_2_778
10
11.2347
20
1.8891292
40
0.3179162
50
270.1855655
51
277.9082141
0
ARC
8
DEFAULT_255_2_778
10
11.2356206
20
1.8344771
40
0.2632625
50
266.9965377
51
270.0237413
0
ARC
8
DEFAULT_255_2_778
10
11.5417942
20
9.9223755
40
8.356927
50
261.44166
51
267.8057394
0
ARC
8
DEFAULT_255_2_778
10
5.7170325
20
-32.90341
40
34.8642013
50
82.4495689
51
82.8203672
0
ARC
8
DEFAULT_255_2_778
10
8.8115209
20
-8.2363968
40
10.0038545
50
82.7477908
51
84.6376237
0
ARC
8
DEFAULT_255_2_778
10
9.8562778
20
3.136888
40
1.4174748
50
254.9855892
51
265.5552478
0
ARC
8
DEFAULT_255_2_778
10
9.7240675
20
2.6553948
40
0.9181735
50
239.6756439
51
255.1703022
0
ARC
8
DEFAULT_255_2_778
10
9.5526635
20
2.3724586
40
0.5874293
50
208.639887
51
240.173067
0
ARC
8
DEFAULT_255_2_778
10
9.5508288
20
2.3569744
40
0.5785372
50
179.195973
51
207.381005
0
ARC
8
DEFAULT_255_2_778
10
9.7599379
20
2.3624306
40
0.7875938
50
169.988542
51
179.8063399
0
ARC
8
DEFAULT_255_2_778
10
9.9694236
20
2.3262183
40
1.0001853
50
162.4380406
51
170.0319155
0
ARC
8
DEFAULT_255_2_778
10
10.1603788
20
2.2681961
40
1.1997499
50
158.9985586
51
162.5479022
0
ARC
8
DEFAULT_255_2_778
10
7.8460083
20
3.0877201
40
1.2562407
50
341.9355288
51
359.5511411
0
ARC
8
DEFAULT_255_2_778
10
2.5408853
20
3.3795795
40
6.5682579
50
357.3672974
51
357.8622939
0
ARC
8
DEFAULT_255_2_778
10
-16.1582468
20
4.0891897
40
25.2808487
50
357.8359737
51
357.9095225
0
ARC
8
DEFAULT_255_2_778
10
12.2484732
20
3.0920566
40
3.1435899
50
174.3000166
51
178.6338528
0
ARC
8
DEFAULT_255_2_778
10
9.5168963
20
4.9764369
40
0.1943923
50
151.3275469
51
169.0758128
0
ARC
8
DEFAULT_255_2_778
10
9.6443335
20
4.9129695
40
0.3366988
50
146.0832224
51
152.2566672
0
ARC
8
DEFAULT_255_2_778
10
9.7856498
20
4.8123683
40
0.5101252
50
121.7461782
51
145.56308
0
ARC
8
DEFAULT_255_2_778
10
9.6581019
20
5.0202308
40
0.2662528
50
105.0219228
51
121.9405514
0
ARC
8
DEFAULT_255_2_778
10
9.6226732
20
5.1451734
40
0.1364094
50
90.5656287
51
104.2514492
0
ARC
8
DEFAULT_255_2_778
10
9.7565461
20
15.9519964
40
10.6712769
50
269.2739655
51
270.0240772
0
ARC
8
DEFAULT_255_2_778
10
9.7370528
20
26.8454745
40
21.5647673
50
270.0637066
51
270.6697122
0
ARC
8
DEFAULT_255_2_778
10
8.7550528
20
120.9095693
40
115.6339742
50
270.6114782
51
270.6448594
0
ARC
8
DEFAULT_255_2_778
10
10.4012171
20
-21.1895212
40
26.4746848
50
90.107063
51
90.7460995
0
ARC
8
DEFAULT_255_2_778
10
10.479566
20
0.8965652
40
4.3904133
50
76.7531337
51
91.6683069
0
ARC
8
DEFAULT_255_2_778
10
10.843351
20
2.7351407
40
2.5182954
50
67.8132463
51
75.2240522
0
ARC
8
DEFAULT_255_2_778
10
11.7351575
20
4.9405659
40
0.1395727
50
35.006863
51
64.9170473
0
ARC
8
DEFAULT_255_2_778
10
11.4409367
20
4.7208165
40
0.5067526
50
19.1570725
51
36.2739689
0
ARC
8
DEFAULT_255_2_778
10
11.4103375
20
4.698128
40
0.5432221
50
10.3026512
51
20.3585847
0
ARC
8
DEFAULT_255_2_778
10
11.6893915
20
4.7490239
40
0.2595649
50
0.7424864
51
10.2657577
0
ARC
8
DEFAULT_255_2_778
10
11.849637
20
4.7500645
40
0.0993246
50
344.6737145
51
1.340174
0
ARC
8
DEFAULT_255_2_778
10
11.9122519
20
4.7327557
40
0.034362
50
317.3530557
51
344.9122728
0
LINE
8
DEFAULT_255_2_778
10
11.9375266
20
4.7094762
11
11.9372254
21
4.7091521
0
ARC
8
DEFAULT_255_2_778
10
11.2664387
20
5.3169217
40
0.9051733
50
291.1501852
51
317.8216964
0
ARC
8
DEFAULT_255_2_778
10
11.4518988
20
4.8742027
40
0.4255659
50
274.0056414
51
289.3689561
0
ARC
8
DEFAULT_255_2_778
10
11.4301529
20
6.1559416
40
1.7070416
50
269.9878675
51
271.7279431
0
ARC
8
DEFAULT_255_2_778
10
11.4770244
20
7.4163361
40
2.9678119
50
260.9701093
51
269.0880952
0
ARC
8
DEFAULT_255_2_778
10
13.724791
20
23.4203732
40
19.1285183
50
261.5453411
51
261.8445329
0
ARC
8
DEFAULT_255_2_778
10
10.1096299
20
-0.5251978
40
5.0886497
50
80.9234094
51
85.0113971
0
ARC
8
DEFAULT_255_2_778
10
10.3127711
20
0.217358
40
4.3334336
50
86.8336791
51
87.6737385
0
ARC
8
DEFAULT_255_2_778
10
10.377779
20
1.8309554
40
2.7185274
50
87.6623303
51
88.9395938
0
ARC
8
DEFAULT_255_2_778
10
10.3936262
20
2.6356291
40
1.9136985
50
88.9681219
51
89.9778331
0
ARC
8
DEFAULT_255_2_778
10
10.3835708
20
3.5900434
40
0.9593449
50
89.3552187
51
97.1190272
0
ARC
8
DEFAULT_255_2_778
10
10.2985611
20
4.2271413
40
0.316669
50
96.1422756
51
116.8158633
0
ARC
8
DEFAULT_255_2_778
10
10.2472936
20
4.3481033
40
0.1857964
50
119.5351506
51
171.7329886
0
ARC
8
DEFAULT_255_2_778
10
10.6324707
20
4.260494
40
0.5804135
50
168.6401456
51
179.8645427
0
ARC
8
DEFAULT_255_2_778
10
11.1178541
20
4.2430644
40
1.065961
50
178.9893481
51
180.0129846
0
ARC
8
DEFAULT_255_2_778
10
11.5634434
20
4.2462991
40
1.5115544
50
180.1317688
51
182.8612595
0
ARC
8
DEFAULT_255_2_778
10
12.6935437
20
4.3011391
40
2.642984
50
182.825698
51
184.5307047
0
ARC
8
DEFAULT_255_2_778
10
14.8164495
20
4.4674926
40
4.7723971
50
184.5083536
51
185.5292066
0
ARC
8
DEFAULT_255_2_778
10
17.4739217
20
4.7187288
40
7.4417143
50
185.483099
51
185.7173581
0
ARC
8
DEFAULT_255_2_778
10
11.2735396
20
2.9535444
40
0.8208006
50
67.7083008
51
85.4658495
0
ARC
8
DEFAULT_255_2_778
10
11.4951012
20
3.5026247
40
0.2287361
50
3.7909204
51
66.8878685
0
ARC
8
DEFAULT_255_2_778
10
11.3528829
20
3.4793744
40
0.3724362
50
359.884482
51
5.9138821
0
ARC
8
DEFAULT_255_2_778
10
11.2624554
20
3.4792065
40
0.4628632
50
355.6405388
51
359.9278317
0
ARC
8
DEFAULT_255_2_778
10
11.1959378
20
3.4836722
40
0.5295281
50
354.3866143
51
355.7058288
0
ARC
8
DEFAULT_255_2_778
10
11.2729582
20
3.4707671
40
0.4516459
50
319.1679747
51
355.0601838
0
ARC
8
DEFAULT_255_2_778
10
11.3395302
20
3.4308396
40
0.3754055
50
271.0199793
51
317.1350124
0
ARC
8
DEFAULT_255_2_778
10
11.3235241
20
3.5524956
40
0.4975197
50
269.9882939
51
272.6138071
0
ARC
8
DEFAULT_255_2_778
10
11.323721
20
3.5902266
40
0.5352507
50
265.85435
51
269.9680401
0
ARC
8
DEFAULT_255_2_778
10
11.5799724
20
6.6984705
40
3.6540174
50
258.7862518
51
265.3701502
0
ARC
8
DEFAULT_255_2_778
10
17.6561329
20
40.3495777
40
37.8488096
50
259.5924356
51
259.6702955
0
ARC
8
DEFAULT_255_2_778
10
9.8175356
20
-1.9911959
40
5.2117475
50
78.9238412
51
82.9884942
0
ARC
8
DEFAULT_255_2_778
10
9.3366582
20
-5.0857588
40
8.3424619
50
82.3048949
51
82.8665545
0
ARC
8
DEFAULT_255_2_778
10
9.9779544
20
0.0577206
40
3.1591594
50
82.8232329
51
84.2812987
0
ARC
8
DEFAULT_255_2_778
10
10.1496288
20
1.7869071
40
1.4214733
50
84.2214825
51
87.1103901
0
ARC
8
DEFAULT_255_2_778
10
10.1823644
20
2.407244
40
0.800276
50
87.2121754
51
89.9035331
0
ARC
8
DEFAULT_255_2_778
10
10.1738928
20
2.8688883
40
0.3387727
50
88.339105
51
105.9806148
0
ARC
8
DEFAULT_255_2_778
10
10.1336791
20
3.0343122
40
0.1688109
50
108.3175804
51
163.6039036
0
ARC
8
DEFAULT_255_2_778
10
10.5730705
20
2.8603225
40
0.6408833
50
159.7671184
51
169.4266476
0
ARC
8
DEFAULT_255_2_778
10
11.9812298
20
2.5761496
40
2.0773829
50
168.8485792
51
171.873939
0
ARC
8
DEFAULT_255_2_778
10
15.0708
20
2.1136237
40
5.201354
50
171.6407781
51
172.2219956
0
ARC
8
DEFAULT_255_2_778
10
20.6303591
20
1.3531793
40
10.8126794
50
172.2164634
51
172.5181424
0
ARC
8
DEFAULT_255_2_778
10
27.903464
20
0.3908678
40
18.1491684
50
172.495819
51
172.5227135
0
ARC
8
DEFAULT_255_2_778
10
10.9029473
20
2.501258
40
1.0256143
50
165.8099454
51
177.4306725
0
ARC
8
DEFAULT_255_2_778
10
7.951591
20
2.688354
40
1.9319342
50
353.93929
51
355.8110562
0
ARC
8
DEFAULT_255_2_778
10
7.3730814
20
3.098475
40
0.2651762
50
79.3415995
51
90.003743
0
ARC
8
DEFAULT_255_2_778
10
7.3730827
20
3.0939349
40
0.2697163
50
90.0039589
51
90.6201927
0
ARC
8
DEFAULT_255_2_778
10
7.3730863
20
3.0972587
40
0.2663927
50
90.6287025
51
100.6342305
0
ARC
8
DEFAULT_255_2_778
10
5.6874334
20
-7.2588163
40
10.7432654
50
81.2381756
51
81.7239211
0
ARC
8
DEFAULT_255_2_778
10
6.4533874
20
-1.9818379
40
5.410988
50
81.7069041
51
82.6382368
0
ARC
8
DEFAULT_255_2_778
10
6.7818947
20
0.5752169
40
2.8329191
50
82.6009084
51
84.3494192
0
ARC
8
DEFAULT_255_2_778
10
6.9128573
20
1.9118435
40
1.4898931
50
84.3001969
51
87.2635115
0
ARC
8
DEFAULT_255_2_778
10
6.9423269
20
2.4990539
40
0.9019466
50
87.3525097
51
89.9185438
0
ARC
8
DEFAULT_255_2_778
10
6.9359074
20
2.9582493
40
0.4428173
50
89.0034215
51
101.602283
0
ARC
8
DEFAULT_255_2_778
10
6.8777814
20
3.2239742
40
0.1708674
50
100.429743
51
165.2332942
0
ARC
8
DEFAULT_255_2_778
10
7.3067942
20
3.0703073
40
0.6261088
50
161.6397628
51
171.3464325
0
ARC
8
DEFAULT_255_2_778
10
8.9093783
20
2.8031316
40
2.250766
50
170.7606809
51
173.4899646
0
ARC
8
DEFAULT_255_2_778
10
12.0774474
20
2.4147418
40
5.4425075
50
173.2088951
51
173.2288657
0
ARC
8
DEFAULT_255_2_778
10
-85.6562399
20
14.0011979
40
92.9755783
50
353.2384605
51
353.2396635
0
ARC
8
DEFAULT_255_2_778
10
12.016245
20
2.4218631
40
5.3808922
50
173.2481153
51
173.2681426
0
ARC
8
DEFAULT_255_2_778
10
11.32294
20
2.5036265
40
4.6827825
50
173.2672668
51
173.2901822
0
ARC
8
DEFAULT_255_2_778
10
11.9584832
20
2.4287893
40
5.3227168
50
173.2894593
51
173.3095336
0
ARC
8
DEFAULT_255_2_778
10
11.9286297
20
2.4323045
40
5.292657
50
173.3096766
51
173.3297783
0
ARC
8
DEFAULT_255_2_778
10
-16.8165753
20
5.7912684
40
23.6481351
50
353.33174
51
353.3362195
0
ARC
8
DEFAULT_255_2_778
10
-62.5225485
20
11.1097023
40
69.6624971
50
353.3506683
51
353.3522581
0
ARC
8
DEFAULT_255_2_778
10
-59.5293204
20
10.7389715
40
66.6464788
50
353.3676214
51
353.3692755
0
ARC
8
DEFAULT_255_2_778
10
-56.7178779
20
10.3909525
40
63.8136592
50
353.3847322
51
353.3864518
0
ARC
8
DEFAULT_255_2_778
10
-17.998332
20
5.8929675
40
24.833729
50
353.3975089
51
353.401977
0
ARC
8
DEFAULT_255_2_778
10
-17.513899
20
5.8282056
40
24.3450641
50
353.4132884
51
353.4178245
0
ARC
8
DEFAULT_255_2_778
10
-51.6035753
20
9.7440408
40
58.6589043
50
353.4312703
51
353.4331439
0
ARC
8
DEFAULT_255_2_778
10
12.307378
20
2.3846743
40
5.6743704
50
173.431649
51
173.4508865
0
ARC
8
DEFAULT_255_2_778
10
12.2908689
20
2.3864507
40
5.6577663
50
173.4496897
51
173.4689281
0
ARC
8
DEFAULT_255_2_778
10
-15.8130494
20
5.6026683
40
22.6295856
50
353.4673089
51
353.4720954
0
ARC
8
DEFAULT_255_2_778
10
12.1989999
20
2.3952206
40
5.565496
50
173.4705148
51
173.4898816
0
ARC
8
DEFAULT_255_2_778
10
12.1584606
20
2.399584
40
5.5247233
50
173.4871741
51
173.5065878
0
ARC
8
DEFAULT_255_2_778
10
-7.0011655
20
4.5789618
40
13.7584548
50
353.5044347
51
353.5121917
0
ARC
8
DEFAULT_255_2_778
10
12.9689185
20
2.3059313
40
6.3405731
50
173.5107864
51
173.5275345
0
ARC
8
DEFAULT_255_2_778
10
12.9104539
20
2.3112397
40
6.281883
50
173.5155324
51
173.5323525
0
ARC
8
DEFAULT_255_2_778
10
-6.4788788
20
4.5077519
40
13.2314687
50
353.5310052
51
353.5389507
0
ARC
8
DEFAULT_255_2_778
10
12.8061316
20
2.3217953
40
6.1770354
50
173.5376597
51
173.5545932
0
ARC
8
DEFAULT_255_2_778
10
12.7484486
20
2.3270245
40
6.1191301
50
173.5426162
51
173.559623
0
ARC
8
DEFAULT_255_2_778
10
-5.9682925
20
4.4382562
40
12.7163073
50
353.5583944
51
353.5665364
0
ARC
8
DEFAULT_255_2_778
10
12.6456413
20
2.337418
40
6.0158056
50
173.5653676
51
173.5824899
0
ARC
8
DEFAULT_255_2_778
10
12.5887694
20
2.3425648
40
5.958715
50
173.5705453
51
173.5877425
0
ARC
8
DEFAULT_255_2_778
10
12.5321875
20
2.3476834
40
5.9019156
50
173.5757771
51
173.5930498
0
ARC
8
DEFAULT_255_2_778
10
12.4758985
20
2.3527736
40
5.8454103
50
173.5810638
51
173.5984127
0
ARC
8
DEFAULT_255_2_778
10
12.4199051
20
2.3578351
40
5.7892017
50
173.5864063
51
173.603832
0
ARC
8
DEFAULT_255_2_778
10
13.5052861
20
2.2349748
40
6.8815135
50
173.5939954
51
173.608578
0
ARC
8
DEFAULT_255_2_778
10
13.4388444
20
2.2413263
40
6.8147777
50
173.5994619
51
173.6141097
0
ARC
8
DEFAULT_255_2_778
10
13.3727659
20
2.2476406
40
6.7484069
50
173.604987
51
173.6197004
0
ARC
8
DEFAULT_255_2_778
10
13.3070534
20
2.2539172
40
6.6824039
50
173.6105717
51
173.6253513
0
ARC
8
DEFAULT_255_2_778
10
-39.8801389
20
8.1575161
40
46.8314272
50
353.5654891
51
353.6721291
0
ARC
8
DEFAULT_255_2_778
10
-3.0618184
20
4.0091431
40
9.7801431
50
353.0712011
51
353.5426655
0
ARC
8
DEFAULT_255_2_778
10
-0.236421
20
3.6665469
40
6.9340507
50
352.3383232
51
353.0650041
0
ARC
8
DEFAULT_255_2_778
10
8.7707701
20
2.500563
40
2.1486599
50
173.5462131
51
175.9024923
0
ARC
8
DEFAULT_255_2_778
10
18.550821
20
1.7525095
40
11.9572569
50
175.6757619
51
175.8052413
0
ARC
8
DEFAULT_255_2_778
10
5.8376222
20
2.6272171
40
0.7879735
50
336.3250223
51
359.9948752
0
ARC
8
DEFAULT_255_2_778
10
6.2398922
20
2.4823374
40
0.3625323
50
330.5650228
51
331.7615376
0
ARC
8
DEFAULT_255_2_778
10
6.1143505
20
2.536285
40
0.4985972
50
296.8123712
51
332.2558779
0
ARC
8
DEFAULT_255_2_778
10
6.1928554
20
2.4086709
40
0.3495156
50
269.880112
51
294.7625151
0
ARC
8
DEFAULT_255_2_778
10
6.1939984
20
2.4639648
40
0.404813
50
254.833095
51
269.7347182
0
ARC
8
DEFAULT_255_2_778
10
6.2162642
20
2.5536813
40
0.4972337
50
248.8709618
51
255.0615283
0
ARC
8
DEFAULT_255_2_778
10
6.2300948
20
2.4845564
40
0.439372
50
207.2941875
51
243.9332113
0
ARC
8
DEFAULT_255_2_778
10
6.550389
20
2.6690014
40
0.8087643
50
182.6374509
51
208.5011451
0
ARC
8
DEFAULT_255_2_778
10
6.5726125
20
2.6752597
40
0.8312687
50
180.0079979
51
182.997872
0
ARC
8
DEFAULT_255_2_778
10
6.5077443
20
2.6765099
40
0.7664019
50
171.0246272
51
180.1021386
0
ARC
8
DEFAULT_255_2_778
10
6.55676
20
5.2289572
40
0.4614259
50
142.9330057
51
172.3633563
0
ARC
8
DEFAULT_255_2_778
10
6.4501209
20
5.2959021
40
0.3361598
50
87.8863979
51
141.0818352
0
LINE
8
DEFAULT_255_2_778
10
6.4625188
20
5.6318332
11
6.4632107
21
5.6318337
0
ARC
8
DEFAULT_255_2_778
10
6.4628354
20
5.1405651
40
0.4912688
50
85.436046
51
89.9562311
0
ARC
8
DEFAULT_255_2_778
10
9.5140536
20
37.2021685
40
31.7152533
50
264.550172
51
265.089488
0
ARC
8
DEFAULT_255_2_778
10
3.3207023
20
-34.7319066
40
40.4849467
50
84.6916833
51
85.0709729
0
ARC
8
DEFAULT_255_2_778
10
6.6219892
20
-0.5248052
40
6.1203562
50
75.402098
51
85.8381192
0
ARC
8
DEFAULT_255_2_778
10
8.0512849
20
5.0029267
40
0.4109596
50
63.1023265
51
74.0049418
0
ARC
8
DEFAULT_255_2_778
10
7.999297
20
4.89401
40
0.5316203
50
60.4287491
51
63.4159689
0
ARC
8
DEFAULT_255_2_778
10
7.8481083
20
4.6555642
40
0.8137366
50
43.3473943
51
59.455561
0
ARC
8
DEFAULT_255_2_778
10
7.644211
20
4.4449131
40
1.1066858
50
27.3025298
51
44.0322239
0
ARC
8
DEFAULT_255_2_778
10
7.9390601
20
4.5986879
40
0.7741504
50
17.7859251
51
27.1989264
0
ARC
8
DEFAULT_255_2_778
10
8.1630815
20
4.6723007
40
0.5383529
50
10.6698172
51
17.6087665
0
ARC
8
DEFAULT_255_2_778
10
6.5621518
20
4.3610575
40
2.1692502
50
7.1564761
51
10.9194568
0
ARC
8
DEFAULT_255_2_778
10
6.8517077
20
4.39715
40
1.8774537
50
2.8533775
51
7.1644557
0
ARC
8
DEFAULT_255_2_778
10
7.0620919
20
4.4086061
40
1.6667603
50
0.020816
51
2.8200718
0
ARC
8
DEFAULT_255_2_778
10
7.4210463
20
4.3982649
40
1.3078516
50
345.2999134
51
0.4795685
0
ARC
8
DEFAULT_255_2_778
10
7.8270707
20
4.281176
40
0.8854642
50
295.376258
51
345.9614821
0
ARC
8
DEFAULT_255_2_778
10
7.6814824
20
4.5756568
40
1.2139366
50
281.0773985
51
295.6282042
0
ARC
8
DEFAULT_255_2_778
10
7.5768455
20
5.0916194
40
1.7403943
50
271.0668675
51
281.1943656
0
ARC
8
DEFAULT_255_2_778
10
7.5584105
20
5.4964996
40
2.1455751
50
269.993384
51
271.3577618
0
ARC
8
DEFAULT_255_2_778
10
7.5585602
20
5.6388152
40
2.2878908
50
268.3196618
51
269.990046
0
ARC
8
DEFAULT_255_2_778
10
7.5635406
20
5.8093189
40
2.4584672
50
266.7211321
51
268.320162
0
ARC
8
DEFAULT_255_2_778
10
6.826638
20
-3.2814849
40
7.3821753
50
88.7373054
51
89.8875485
0
ARC
8
DEFAULT_255_2_778
10
6.2733511
20
-31.1223726
40
35.2285465
50
88.7494847
51
88.8354754
0
ARC
8
DEFAULT_255_2_778
10
7.2767844
20
13.4124254
40
9.317596
50
268.5571835
51
269.7921392
0
ARC
8
DEFAULT_255_2_778
10
7.2655175
20
6.6818625
40
2.5870698
50
269.5008925
51
276.2514015
0
ARC
8
DEFAULT_255_2_778
10
7.5126139
20
4.3937654
40
0.2856937
50
276.9586606
51
292.0465021
0
ARC
8
DEFAULT_255_2_778
10
7.4734489
20
4.5056054
40
0.4040966
50
291.2412814
51
292.9029796
0
ARC
8
DEFAULT_255_2_778
10
7.4830726
20
4.4960573
40
0.3915898
50
292.1495475
51
317.1374448
0
ARC
8
DEFAULT_255_2_778
10
7.6325738
20
4.3465313
40
0.1804664
50
319.6475686
51
324.5526289
0
ARC
8
DEFAULT_255_2_778
10
7.6965219
20
4.3041327
40
0.1038132
50
323.1467688
51
345.937915
0
ARC
8
DEFAULT_255_2_778
10
7.7320799
20
4.2930986
40
0.0666717
50
347.7117764
51
348.9993124
0
ARC
8
DEFAULT_255_2_778
10
6.9591121
20
4.3823294
40
0.8445906
50
353.0667367
51
358.1666787
0
ARC
8
DEFAULT_255_2_778
10
6.733179
20
4.392481
40
1.0707368
50
358.0105199
51
0.0112955
0
ARC
8
DEFAULT_255_2_778
10
6.6911618
20
4.3926868
40
1.1127541
50
0.0002698
51
3.0842258
0
ARC
8
DEFAULT_255_2_778
10
7.0546273
20
4.4238086
40
0.7482293
50
2.2019786
51
15.808746
0
ARC
8
DEFAULT_255_2_778
10
7.5850149
20
4.5781079
40
0.1959078
50
14.6472447
51
40.572807
0
ARC
8
DEFAULT_255_2_778
10
7.6816385
20
4.6553258
40
0.0724124
50
43.8916514
51
60.3812096
0
ARC
8
DEFAULT_255_2_778
10
6.937503
20
2.9625231
40
1.9211845
50
66.0487143
51
82.7741452
0
ARC
8
DEFAULT_255_2_778
10
6.8620264
20
2.5413911
40
2.3485676
50
82.2396979
51
87.8965821
0
ARC
8
DEFAULT_255_2_778
10
6.9552862
20
4.8666653
40
0.0228299
50
108.0125488
51
161.7465652
0
ARC
8
DEFAULT_255_2_778
10
7.185215
20
4.7459873
40
0.2822193
50
153.0674475
51
163.1982213
0
ARC
8
DEFAULT_255_2_778
10
8.130264
20
4.4423542
40
1.2748132
50
162.411946
51
166.2563765
0
ARC
8
DEFAULT_255_2_778
10
9.6023691
20
4.0671677
40
2.7939447
50
165.9548195
51
166.8961609
0
ARC
8
DEFAULT_255_2_778
10
12.1124888
20
3.490763
40
5.3693888
50
166.9782212
51
168.3280393
0
ARC
8
DEFAULT_255_2_778
10
19.5168955
20
1.9499772
40
12.9324048
50
168.2795081
51
168.7540649
0
ARC
8
DEFAULT_255_2_778
10
36.695339
20
-1.4848564
40
30.4508766
50
168.7188247
51
168.7246954
0
ARC
8
DEFAULT_255_2_778
10
-80.9997263
20
21.912251
40
89.547267
50
348.7081344
51
348.7673257
0
ARC
8
DEFAULT_255_2_778
10
7.0992067
20
4.3444868
40
0.2870756
50
173.2404965
51
179.6211482
0
ARC
8
DEFAULT_255_2_778
10
7.1263425
20
4.343804
40
0.3142156
50
179.5293613
51
180.0043984
0
ARC
8
DEFAULT_255_2_778
10
7.647652
20
4.3770502
40
0.8361873
50
182.2802901
51
191.150467
0
ARC
8
DEFAULT_255_2_778
10
3.7323938
20
3.7230467
40
3.133766
50
8.9513341
51
9.0382711
0
ARC
8
DEFAULT_255_2_778
10
5.48321
20
3.9923892
40
1.3623796
50
5.5362353
51
9.2186805
0
ARC
8
DEFAULT_255_2_778
10
5.7773774
20
4.0243958
40
1.0665024
50
4.1176779
51
5.3494177
0
LINE
8
DEFAULT_255_2_778
10
14.4306266
20
2.8584762
11
14.5912266
21
4.0300762
0
LINE
8
DEFAULT_255_2_778
10
15.4585266
20
4.2266762
11
15.3064266
21
2.8767762
0
LINE
8
DEFAULT_255_2_778
10
15.3064266
20
2.8767762
11
15.1188266
21
1.5625762
0
LINE
8
DEFAULT_255_2_778
10
13.4739266
20
2.9036762
11
13.2236266
21
3.3775762
0
LINE
8
DEFAULT_255_2_778
10
13.2236266
20
3.3775762
11
13.1254266
21
3.3775762
0
LINE
8
DEFAULT_255_2_778
10
13.1254266
20
3.3775762
11
13.0715266
21
2.7338762
0
LINE
8
DEFAULT_255_2_778
10
12.2579266
20
2.7430762
11
12.3523266
21
3.7445762
0
LINE
8
DEFAULT_255_2_778
10
12.3523266
20
3.7445762
11
12.4955266
21
4.6383762
0
LINE
8
DEFAULT_255_2_778
10
13.4157266
20
4.7100762
11
14.2565266
21
3.0740762
0
LINE
8
DEFAULT_255_2_778
10
14.4351266
20
2.8595762
11
14.4306266
21
2.8584762
0
LINE
8
DEFAULT_255_2_778
10
5.4861266
20
4.2226762
11
5.4912266
21
4.2173762
0
LINE
8
DEFAULT_255_2_778
10
4.5746266
20
3.9096762
11
4.5926266
21
4.2673762
0
LINE
8
DEFAULT_255_2_778
10
4.5926266
20
4.2673762
11
4.5974266
21
4.2710762
0
LINE
8
DEFAULT_255_2_778
10
9.8719266
20
2.4742762
11
11.3824266
21
2.2686762
0
LINE
8
DEFAULT_255_2_778
10
9.1204266
20
3.4042762
11
9.3260266
21
5.0132762
0
LINE
8
DEFAULT_255_2_778
10
10.0692266
20
3.9773762
11
11.3384266
21
3.7717762
0
LINE
8
DEFAULT_255_2_778
10
9.8727266
20
2.4843762
11
9.8719266
21
2.4742762
0
LINE
8
DEFAULT_255_2_778
10
5.7507266
20
2.7960762
11
5.9028266
21
3.8149762
0
LINE
8
DEFAULT_255_2_778
10
5.9028266
20
3.8149762
11
6.0994266
21
5.2902762
0
LINE
8
DEFAULT_255_2_778
10
7.4229266
20
3.3548762
11
7.4221266
21
3.3590762
0
LINE
8
DEFAULT_255_2_778
10
6.8411266
20
4.1009762
11
6.8411266
21
4.1006762
0
ARC
8
DEFAULT_255_2_778
10
9.2265439
20
12.5054939
40
0.6334063
50
89.8557213
51
180.1171926
0
ARC
8
DEFAULT_255_2_778
10
9.2296257
20
12.5056842
40
0.6332159
50
359.8384075
51
90.1345281
0
ARC
8
DEFAULT_255_2_778
10
9.2294347
20
12.5023033
40
0.6334062
50
269.8827843
51
0.1442819
0
ARC
8
DEFAULT_255_2_778
10
9.2267349
20
12.5024938
40
0.633597
50
179.900112
51
270.1269632
0
LINE
8
DEFAULT_255_2_778
10
8.5931389
20
12.5035984
11
8.5931389
21
12.5041984
0
ENDSEC
0
EOF