0
SECTION
2
HEADER
9
$MEASUREMENT
70
1
0
ENDSEC
0
SECTION
2
TABLES
0
TABLE
2
LTYPE
0
LTYPE
72
65
70
64
2
CONTINUOUS
3
______
73
0
40
0
0
ENDTAB
0
TABLE
2
LAYER
0
LAYER
2
DEFAULT_255_2_778
70
0
62
255
6
CONTINUOUS
0
ENDTAB
0
ENDSEC
0
SECTION
2
ENTITIES
0
ARC
8
DEFAULT_255_2_778
10
11.049631
20
5.9163987
40
6.1676853
50
89.966758
51
102.2588433
0
ARC
8
DEFAULT_255_2_778
10
11.0387374
20
5.9795967
40
6.1036159
50
102.2848789
51
119.4141406
0
ARC
8
DEFAULT_255_2_778
10
11.0680544
20
5.9260774
40
6.1646344
50
119.4072027
51
159.9806412
0
ARC
8
DEFAULT_255_2_778
10
11.0195607
20
5.9523041
40
6.1100977
50
160.0560419
51
174.2775789
0
ARC
8
DEFAULT_255_2_778
10
11.1270914
20
5.940376
40
6.218282
50
174.2670112
51
180.0091503
0
ARC
8
DEFAULT_255_2_778
10
11.0774509
20
5.9357984
40
6.1686426
50
179.9667062
51
192.2578455
0
ARC
8
DEFAULT_255_2_778
10
11.0138965
20
5.9248256
40
6.1042079
50
192.283852
51
209.4123165
0
ARC
8
DEFAULT_255_2_778
10
11.0668252
20
5.9537543
40
6.164521
50
209.4049478
51
249.9787311
0
ARC
8
DEFAULT_255_2_778
10
11.0403209
20
5.9046544
40
6.1093197
50
250.0546235
51
264.2770318
0
ARC
8
DEFAULT_255_2_778
10
11.0522177
20
6.0119481
40
6.2172651
50
264.2665414
51
270.0091384
0
ARC
8
DEFAULT_255_2_778
10
11.0567809
20
5.9625654
40
6.1678835
50
269.9668228
51
282.2586459
0
ARC
8
DEFAULT_255_2_778
10
11.0676069
20
5.8996765
40
6.1041307
50
282.2846809
51
299.4130108
0
ARC
8
DEFAULT_255_2_778
10
11.0384469
20
5.953019
40
6.1649179
50
299.4056206
51
339.9783312
0
ARC
8
DEFAULT_255_2_778
10
11.087609
20
5.9264867
40
6.1096482
50
340.0542627
51
354.2769208
0
ARC
8
DEFAULT_255_2_778
10
10.9801875
20
5.9383956
40
6.217722
50
354.2664393
51
0.0090976
0
ARC
8
DEFAULT_255_2_778
10
11.0293195
20
5.9429683
40
6.1685909
50
359.9666973
51
12.2579404
0
ARC
8
DEFAULT_255_2_778
10
11.0929577
20
5.9539627
40
6.10407
50
12.2839181
51
29.4128039
0
ARC
8
DEFAULT_255_2_778
10
11.0398976
20
5.9249262
40
6.1645506
50
29.4057036
51
69.9802961
0
ARC
8
DEFAULT_255_2_778
10
11.066138
20
5.9734155
40
6.1100134
50
70.0558292
51
84.2775699
0
ARC
8
DEFAULT_255_2_778
10
11.0542024
20
5.8658008
40
6.218282
50
84.2670112
51
90.0091503
0
ARC
8
DEFAULT_255_2_778
10
11.04122
20
5.9323301
40
1.5291942
50
270.0010444
51
270.4492206
0
ARC
8
DEFAULT_255_2_778
10
11.0412327
20
5.9276549
40
1.5245188
50
225.0039499
51
270.0005714
0
ARC
8
DEFAULT_255_2_778
10
11.0415718
20
5.9274435
40
1.5246093
50
180.000828
51
224.9893214
0
ARC
8
DEFAULT_255_2_778
10
11.0461529
20
5.9273936
40
1.5291905
50
179.5507793
51
179.9989555
0
ARC
8
DEFAULT_255_2_778
10
11.0461566
20
5.9513722
40
1.5291942
50
180.0010444
51
180.4492206
0
ARC
8
DEFAULT_255_2_778
10
11.0418013
20
5.9513274
40
1.5248388
50
135.0142511
51
179.9993611
0
ARC
8
DEFAULT_255_2_778
10
11.0409276
20
5.9516158
40
1.5240169
50
90.0017383
51
134.9986997
0
ARC
8
DEFAULT_255_2_778
10
11.0409035
20
5.9552037
40
1.520429
50
89.5362631
51
90.0008361
0
ARC
8
DEFAULT_255_2_778
10
11.0655151
20
5.9552074
40
1.5204253
50
89.9991641
51
90.463737
0
ARC
8
DEFAULT_255_2_778
10
11.0654183
20
5.9514401
40
1.5241926
50
45.0040333
51
89.9955269
0
ARC
8
DEFAULT_255_2_778
10
11.0646174
20
5.9513274
40
1.5248387
50
0.0006389
51
44.9857489
0
ARC
8
DEFAULT_255_2_778
10
11.0602621
20
5.9513722
40
1.5291941
50
359.5507794
51
359.9989556
0
ARC
8
DEFAULT_255_2_778
10
11.0179822
20
5.9746101
40
1.571822
50
271.2842024
51
358.7157957
0
ARC
8
DEFAULT_255_2_778
10
1.7936566
20
5.9513722
40
1.5291942
50
180.0010444
51
180.4492206
0
ARC
8
DEFAULT_255_2_778
10
1.7885764
20
5.9514273
40
1.5241139
50
134.9976445
51
180.0031161
0
ARC
8
DEFAULT_255_2_778
10
1.7887377
20
5.9513403
40
1.5242896
50
89.9996179
51
134.999623
0
ARC
8
DEFAULT_255_2_778
10
1.78872
20
5.9464393
40
1.5291905
50
89.5507793
51
89.9989555
0
ARC
8
DEFAULT_255_2_778
10
1.8130152
20
5.9552037
40
1.520429
50
89.9991639
51
90.4637369
0
ARC
8
DEFAULT_255_2_778
10
1.8129911
20
5.9516158
40
1.524017
50
45.0013003
51
89.9982617
0
ARC
8
DEFAULT_255_2_778
10
1.8129422
20
5.9516647
40
1.5240169
50
0.0017383
51
44.9986997
0
ARC
8
DEFAULT_255_2_778
10
1.8165302
20
5.9516887
40
1.520429
50
359.5362631
51
0.0008361
0
ARC
8
DEFAULT_255_2_778
10
1.8165339
20
5.9270771
40
1.5204253
50
359.9991641
51
0.463737
0
ARC
8
DEFAULT_255_2_778
10
1.8131716
20
5.9271062
40
1.5237876
50
314.9977258
51
359.9980717
0
ARC
8
DEFAULT_255_2_778
10
1.812686
20
5.9276549
40
1.5245189
50
269.9994286
51
314.9960501
0
ARC
8
DEFAULT_255_2_778
10
1.8126987
20
5.9323301
40
1.5291941
50
269.5507794
51
269.9989556
0
ARC
8
DEFAULT_255_2_778
10
1.7991825
20
5.9128973
40
1.5097152
50
241.5875568
51
270.0579445
0
ARC
8
DEFAULT_255_2_778
10
1.8174144
20
5.9521965
40
1.5529578
50
180.4727575
51
241.6858235
0
LINE
8
DEFAULT_255_2_778
10
11.0532093
20
12.0840829
11
11.0532093
21
12.0840829
0
LINE
8
DEFAULT_255_2_778
10
11.0532093
20
4.4031829
11
11.0532093
21
4.4031829
0
ENDSEC
0
EOF