0
SECTION
2
HEADER
9
$MEASUREMENT
70
1
0
ENDSEC
0
SECTION
2
TABLES
0
TABLE
2
LTYPE
0
LTYPE
72
65
70
64
2
CONTINUOUS
3
______
73
0
40
0
0
ENDTAB
0
TABLE
2
LAYER
0
LAYER
2
DEFAULT_255_2_778
70
0
62
255
6
CONTINUOUS
0
LAYER
2
DEFAULT_255_1_388
70
0
62
255
6
CONTINUOUS
0
ENDTAB
0
ENDSEC
0
SECTION
2
ENTITIES
0
ARC
8
DEFAULT_255_2_778
10
3.5700693
20
75.805203
40
0.7914215
50
129.1312896
51
180.1450914
0
ARC
8
DEFAULT_255_2_778
10
3.5703345
20
75.8056901
40
0.7912112
50
89.854026
51
129.1684493
0
ARC
8
DEFAULT_255_2_778
10
25.7993937
20
75.8053767
40
0.7915249
50
39.4792447
51
90.147911
0
ARC
8
DEFAULT_255_2_778
10
25.7999935
20
75.8052233
40
0.7911595
50
359.8533901
51
39.5154338
0
ARC
8
DEFAULT_255_2_778
10
25.7996693
20
-1.9863492
40
0.7914836
50
309.4761667
51
0.1482649
0
ARC
8
DEFAULT_255_2_778
10
25.799398
20
-1.9867803
40
0.7913235
50
269.8517415
51
309.511178
0
ARC
8
DEFAULT_255_2_778
10
3.570342
20
-1.9867221
40
0.7913815
50
219.1282118
51
270.1454017
0
ARC
8
DEFAULT_255_2_778
10
3.5700247
20
-1.9863397
40
0.7913769
50
179.8524075
51
219.1641908
0
LINE
8
DEFAULT_255_2_778
10
3.5723503
20
76.5968989
11
25.7973503
21
76.5968989
0
LINE
8
DEFAULT_255_2_778
10
26.5911503
20
75.8031989
11
26.5911503
21
-1.9843011
0
LINE
8
DEFAULT_255_2_778
10
25.7973503
20
-2.7781011
11
3.5723503
21
-2.7781011
0
LINE
8
DEFAULT_255_2_778
10
2.7786503
20
-1.9843011
11
2.7786503
21
75.8031989
0
LINE
8
DEFAULT_255_1_388
10
11.1797882
20
0.6757898
11
11.1797882
21
0.5330267
0
LINE
8
DEFAULT_255_1_388
10
11.1797882
20
0.5330267
11
10.7569201
21
0.5330267
0
LINE
8
DEFAULT_255_1_388
10
10.7569201
20
0.5330267
11
10.7569201
21
-0.6398
0
LINE
8
DEFAULT_255_1_388
10
10.7569201
20
-0.6398
11
10.5843393
21
-0.6398
0
LINE
8
DEFAULT_255_1_388
10
10.5843393
20
-0.6398
11
10.5843393
21
0.5330267
0
LINE
8
DEFAULT_255_1_388
10
10.5843393
20
0.5330267
11
10.1623747
21
0.5330267
0
LINE
8
DEFAULT_255_1_388
10
10.1623747
20
0.5330267
11
10.1623747
21
0.6757898
0
LINE
8
DEFAULT_255_1_388
10
10.1623747
20
0.6757898
11
11.1797882
21
0.6757898
0
LINE
8
DEFAULT_255_1_388
10
11.8809542
20
0.6821148
11
11.8809542
21
-0.6398
0
LINE
8
DEFAULT_255_1_388
10
11.8809542
20
-0.6398
11
11.7128913
21
-0.6398
0
LINE
8
DEFAULT_255_1_388
10
11.7128913
20
-0.6398
11
11.7128913
21
0.474295
0
LINE
8
DEFAULT_255_1_388
10
11.7128913
20
0.474295
11
11.3758617
21
0.3505066
0
LINE
8
DEFAULT_255_1_388
10
11.3758617
20
0.3505066
11
11.3758617
21
0.5023055
0
LINE
8
DEFAULT_255_1_388
10
11.3758617
20
0.5023055
11
11.8547509
21
0.6821148
0
LINE
8
DEFAULT_255_1_388
10
11.8547509
20
0.6821148
11
11.8809542
21
0.6821148
0
LINE
8
DEFAULT_255_1_388
10
13.2146154
20
-0.6398
11
12.7483761
21
-0.0280869
0
LINE
8
DEFAULT_255_1_388
10
12.7483761
20
-0.0280869
11
12.5875417
21
-0.1952463
0
LINE
8
DEFAULT_255_1_388
10
12.5875417
20
-0.1952463
11
12.5875417
21
-0.6398
0
LINE
8
DEFAULT_255_1_388
10
12.5875417
20
-0.6398
11
12.4140573
21
-0.6398
0
LINE
8
DEFAULT_255_1_388
10
12.4140573
20
-0.6398
11
12.4140573
21
0.6757898
0
LINE
8
DEFAULT_255_1_388
10
12.4140573
20
0.6757898
11
12.5875417
21
0.6757898
0
LINE
8
DEFAULT_255_1_388
10
12.5875417
20
0.6757898
11
12.5875417
21
0.0252234
0
LINE
8
DEFAULT_255_1_388
10
12.5875417
20
0.0252234
11
13.1721479
21
0.6757898
0
LINE
8
DEFAULT_255_1_388
10
13.1721479
20
0.6757898
11
13.3817748
21
0.6757898
0
LINE
8
DEFAULT_255_1_388
10
13.3817748
20
0.6757898
11
12.8640324
21
0.0947979
0
LINE
8
DEFAULT_255_1_388
10
12.8640324
20
0.0947979
11
13.4224352
21
-0.6398
0
LINE
8
DEFAULT_255_1_388
10
13.4224352
20
-0.6398
11
13.2146154
21
-0.6398
0
LINE
8
DEFAULT_255_1_388
10
13.8380749
20
-0.0127263
11
13.8380749
21
-0.1491645
0
LINE
8
DEFAULT_255_1_388
10
13.8380749
20
-0.1491645
11
13.3971354
21
-0.1491645
0
LINE
8
DEFAULT_255_1_388
10
13.3971354
20
-0.1491645
11
13.3971354
21
-0.0127263
0
LINE
8
DEFAULT_255_1_388
10
13.3971354
20
-0.0127263
11
13.8380749
21
-0.0127263
0
LINE
8
DEFAULT_255_1_388
10
14.8085031
20
0.138169
11
14.8085031
21
-0.0786865
0
LINE
8
DEFAULT_255_1_388
10
13.9781273
20
-0.1012756
11
13.9781273
21
0.1219048
0
LINE
8
DEFAULT_255_1_388
10
14.6413437
20
-0.1238647
11
14.6413437
21
0.1499153
0
LINE
8
DEFAULT_255_1_388
10
14.1452868
20
0.1625652
11
14.1452868
21
-0.1048898
0
ARC
8
DEFAULT_255_1_388
10
13.4307365
20
-0.0841882
40
1.3777776
50
353.8440855
51
0.2287917
0
ARC
8
DEFAULT_255_1_388
10
13.9526382
20
-0.1424586
40
0.852639
50
344.4934746
51
353.9763743
0
ARC
8
DEFAULT_255_1_388
10
14.2893189
20
-0.2381809
40
0.5026273
50
329.2803599
51
344.7473406
0
ARC
8
DEFAULT_255_1_388
10
14.4008685
20
-0.2993962
40
0.3754848
50
324.9361395
51
328.6153007
0
ARC
8
DEFAULT_255_1_388
10
14.4434335
20
-0.3291414
40
0.3235566
50
280.5801797
51
324.9173226
0
ARC
8
DEFAULT_255_1_388
10
14.3982964
20
-0.1411764
40
0.5167077
50
269.5979457
51
281.6732777
0
ARC
8
DEFAULT_255_1_388
10
14.3901867
20
-0.1546887
40
0.5032026
50
256.6228565
51
270.5105488
0
ARC
8
DEFAULT_255_1_388
10
14.344961
20
-0.3288655
40
0.3233092
50
215.8618351
51
257.2787793
0
ARC
8
DEFAULT_255_1_388
10
14.4598317
20
-0.2517894
40
0.4615831
50
197.9695203
51
215.2622745
0
ARC
8
DEFAULT_255_1_388
10
14.7393992
20
-0.1574359
40
0.7566307
50
187.8816486
51
198.2346584
0
ARC
8
DEFAULT_255_1_388
10
15.1847231
20
-0.0931547
40
1.2065653
50
180.8977266
51
188.0054894
0
ARC
8
DEFAULT_255_1_388
10
15.4897444
20
-0.08166
40
1.5117443
50
180.7434591
51
181.152202
0
ARC
8
DEFAULT_255_1_388
10
15.322244
20
0.1273371
40
1.3441277
50
173.7674302
51
180.2315596
0
ARC
8
DEFAULT_255_1_388
10
14.8140309
20
0.1847779
40
0.8326847
50
164.3058537
51
173.9000553
0
ARC
8
DEFAULT_255_1_388
10
14.4864309
20
0.2791652
40
0.4917711
50
148.7922028
51
164.5682288
0
ARC
8
DEFAULT_255_1_388
10
14.3795047
20
0.3388457
40
0.3694204
50
144.5883979
51
148.1161588
0
ARC
8
DEFAULT_255_1_388
10
14.3407792
20
0.3658667
40
0.322202
50
101.6440149
51
144.5142619
0
ARC
8
DEFAULT_255_1_388
10
14.3885984
20
0.1758337
40
0.5180451
50
89.528284
51
102.5820197
0
ARC
8
DEFAULT_255_1_388
10
14.3974976
20
0.1714376
40
0.5224441
50
77.0437914
51
90.508231
0
ARC
8
DEFAULT_255_1_388
10
14.442723
20
0.3562272
40
0.3322297
50
48.2777708
51
77.4996087
0
ARC
8
DEFAULT_255_1_388
10
14.450897
20
0.3707557
40
0.315966
50
36.3141586
51
47.6307332
0
ARC
8
DEFAULT_255_1_388
10
14.3531692
20
0.3049159
40
0.4337313
50
18.2931065
51
35.6770203
0
ARC
8
DEFAULT_255_1_388
10
14.0670533
20
0.2067107
40
0.7362203
50
8.0246996
51
18.5605636
0
ARC
8
DEFAULT_255_1_388
10
13.5986888
20
0.1375432
40
1.2096583
50
1.127539
51
8.1718423
0
ARC
8
DEFAULT_255_1_388
10
13.2338022
20
0.1232374
40
1.5747719
50
0.5432713
51
1.38669
0
ARC
8
DEFAULT_255_1_388
10
13.43954
20
0.1539163
40
1.2018103
50
359.8092569
51
4.9408001
0
ARC
8
DEFAULT_255_1_388
10
13.9131982
20
0.19619
40
0.7262727
50
4.8364937
51
12.2906017
0
ARC
8
DEFAULT_255_1_388
10
14.2231446
20
0.2652485
40
0.4087324
50
12.0806994
51
23.8171225
0
ARC
8
DEFAULT_255_1_388
10
14.3551842
20
0.3211508
40
0.2653719
50
24.2874621
51
31.3934353
0
ARC
8
DEFAULT_255_1_388
10
14.4142278
20
0.3597822
40
0.1948607
50
30.7407708
51
82.4658033
0
ARC
8
DEFAULT_255_1_388
10
14.3939939
20
0.2604017
40
0.2961198
50
81.1057101
51
90.2187368
0
ARC
8
DEFAULT_255_1_388
10
14.3899751
20
0.2894421
40
0.2670929
50
89.380395
51
105.6763916
0
ARC
8
DEFAULT_255_1_388
10
14.3693473
20
0.364432
40
0.1893189
50
105.7980655
51
149.7387869
0
ARC
8
DEFAULT_255_1_388
10
14.4890613
20
0.2924719
40
0.3289892
50
149.4208441
51
163.628295
0
ARC
8
DEFAULT_255_1_388
10
14.7242843
20
0.2207345
40
0.5749004
50
163.3764549
51
172.141138
0
ARC
8
DEFAULT_255_1_388
10
15.0955564
20
0.1675582
40
0.9499585
50
172.0258462
51
178.0705453
0
ARC
8
DEFAULT_255_1_388
10
15.4377117
20
0.1513682
40
1.2924734
50
177.8639301
51
179.5036263
0
ARC
8
DEFAULT_255_1_388
10
15.3158136
20
-0.1089849
40
1.170534
50
179.7995545
51
185.246089
0
ARC
8
DEFAULT_255_1_388
10
14.8609729
20
-0.1520596
40
0.7136613
50
185.1411911
51
193.0082205
0
ARC
8
DEFAULT_255_1_388
10
14.5635989
20
-0.2223559
40
0.4080987
50
192.7897338
51
205.2507384
0
ARC
8
DEFAULT_255_1_388
10
14.4458199
20
-0.2749462
40
0.2791522
50
205.8001921
51
211.2545876
0
ARC
8
DEFAULT_255_1_388
10
14.3869739
20
-0.3143868
40
0.2084074
50
210.3789935
51
238.4007996
0
ARC
8
DEFAULT_255_1_388
10
14.3847825
20
-0.3091214
40
0.2117943
50
239.6521916
51
265.9793852
0
ARC
8
DEFAULT_255_1_388
10
14.3943673
20
-0.2334642
40
0.2879689
50
265.1324455
51
270.0603288
0
ARC
8
DEFAULT_255_1_388
10
14.3976051
20
-0.2699582
40
0.2514919
50
269.3314378
51
287.2180039
0
ARC
8
DEFAULT_255_1_388
10
14.4131133
20
-0.3265709
40
0.1928357
50
287.7957942
51
329.0808983
0
ARC
8
DEFAULT_255_1_388
10
14.305389
20
-0.2593349
40
0.319808
50
328.6635261
51
343.3325043
0
ARC
8
DEFAULT_255_1_388
10
14.0609348
20
-0.1831805
40
0.5758408
50
343.0498092
51
351.9392499
0
ARC
8
DEFAULT_255_1_388
10
13.670867
20
-0.1256795
40
0.9701202
50
351.8071632
51
357.7957897
0
ARC
8
DEFAULT_255_1_388
10
13.3074147
20
-0.1068276
40
1.3340376
50
357.5870923
51
359.2682493
0
ARC
8
DEFAULT_255_1_388
10
15.5029984
20
0.329572
40
0.3175098
50
338.8762533
51
0.5167111
0
ARC
8
DEFAULT_255_1_388
10
15.5219578
20
0.32446
40
0.2979894
50
325.8415285
51
338.4793574
0
ARC
8
DEFAULT_255_1_388
10
15.4780211
20
0.3549242
40
0.351452
50
296.7587686
51
325.7536481
0
ARC
8
DEFAULT_255_1_388
10
15.4451839
20
0.4103363
40
0.4157374
50
296.0927901
51
297.3613472
0
ARC
8
DEFAULT_255_1_388
10
15.4746034
20
-0.3279407
40
0.395855
50
47.9007294
51
67.1948823
0
ARC
8
DEFAULT_255_1_388
10
15.4966676
20
-0.3002401
40
0.360516
50
35.2363914
51
47.551141
0
ARC
8
DEFAULT_255_1_388
10
15.526108
20
-0.2805907
40
0.3251343
50
359.2759765
51
35.4014143
0
ARC
8
DEFAULT_255_1_388
10
15.4423007
20
-0.2888213
40
0.4089365
50
343.1293083
51
0.5775513
0
ARC
8
DEFAULT_255_1_388
10
15.523812
20
-0.3112664
40
0.3244269
50
310.8496669
51
342.7449331
0
ARC
8
DEFAULT_255_1_388
10
15.4767995
20
-0.2576087
40
0.3957651
50
281.5472888
51
310.9170406
0
ARC
8
DEFAULT_255_1_388
10
15.4366869
20
-0.0829186
40
0.5749654
50
269.619248
51
281.9789564
0
ARC
8
DEFAULT_255_1_388
10
15.4285647
20
-0.0828224
40
0.5750649
50
257.4585678
51
270.4285689
0
ARC
8
DEFAULT_255_1_388
10
15.3857167
20
-0.2632259
40
0.389671
50
228.7554326
51
257.8484789
0
ARC
8
DEFAULT_255_1_388
10
15.3508653
20
-0.3051772
40
0.335154
50
184.0104975
51
228.5071184
0
ARC
8
DEFAULT_255_1_388
10
15.4817045
20
-0.285257
40
0.4671891
50
179.9315832
51
185.3253753
0
ARC
8
DEFAULT_255_1_388
10
15.3493558
20
-0.2810408
40
0.33486
50
145.6796023
51
180.6259786
0
ARC
8
DEFAULT_255_1_388
10
15.3677324
20
-0.2938729
40
0.3572723
50
115.5537685
51
145.6415986
0
ARC
8
DEFAULT_255_1_388
10
15.4060368
20
-0.3624913
40
0.4357296
50
113.243307
51
116.2057839
0
ARC
8
DEFAULT_255_1_388
10
15.3889019
20
0.3572379
40
0.3549126
50
222.9549744
51
244.1370481
0
ARC
8
DEFAULT_255_1_388
10
15.3751663
20
0.3418378
40
0.3343711
50
213.3436887
51
222.6274467
0
ARC
8
DEFAULT_255_1_388
10
15.3535732
20
0.3271653
40
0.3082678
50
180.431584
51
213.271499
0
ARC
8
DEFAULT_255_1_388
10
15.4170731
20
0.3324296
40
0.3718363
50
179.9991191
51
181.1690594
0
ARC
8
DEFAULT_255_1_388
10
15.4643187
20
0.3363072
40
0.4190996
50
164.6186169
51
180.529336
0
ARC
8
DEFAULT_255_1_388
10
15.3632836
20
0.363478
40
0.3144772
50
132.2455553
51
164.5090724
0
ARC
8
DEFAULT_255_1_388
10
15.3955814
20
0.326907
40
0.3632644
50
100.7053914
51
132.1386381
0
ARC
8
DEFAULT_255_1_388
10
15.4298875
20
0.1719118
40
0.5219578
50
89.6730358
51
101.2451698
0
ARC
8
DEFAULT_255_1_388
10
15.4368866
20
0.1915648
40
0.5023124
50
76.287748
51
90.4586006
0
ARC
8
DEFAULT_255_1_388
10
15.4713368
20
0.3290671
40
0.3605639
50
47.8240511
51
76.4266241
0
ARC
8
DEFAULT_255_1_388
10
15.4963753
20
0.3583599
40
0.3220463
50
6.9168387
51
47.6262497
0
ARC
8
DEFAULT_255_1_388
10
15.3629206
20
0.3337004
40
0.4575765
50
359.8415968
51
7.9697453
0
ARC
8
DEFAULT_255_1_388
10
15.4013475
20
-0.2783481
40
0.2827228
50
359.445363
51
16.9256873
0
ARC
8
DEFAULT_255_1_388
10
15.4540909
20
-0.2638219
40
0.2280396
50
17.2920767
51
45.4630727
0
ARC
8
DEFAULT_255_1_388
10
15.4480045
20
-0.2690676
40
0.2360485
50
45.30305
51
83.1920945
0
ARC
8
DEFAULT_255_1_388
10
15.4318789
20
-0.3592527
40
0.3275527
50
82.2612665
51
90.1434275
0
ARC
8
DEFAULT_255_1_388
10
15.4284066
20
-0.3330131
40
0.3013237
50
89.4956434
51
104.8580688
0
ARC
8
DEFAULT_255_1_388
10
15.4085255
20
-0.2576545
40
0.2233867
50
104.8856641
51
135.244616
0
ARC
8
DEFAULT_255_1_388
10
15.4141244
20
-0.2626648
40
0.2308906
50
135.3399546
51
172.1044062
0
ARC
8
DEFAULT_255_1_388
10
15.5048769
20
-0.2800333
40
0.3232034
50
171.2645637
51
180.186429
0
ARC
8
DEFAULT_255_1_388
10
15.4858773
20
-0.2836574
40
0.304213
50
179.5154935
51
193.6464289
0
ARC
8
DEFAULT_255_1_388
10
15.3940449
20
-0.3070527
40
0.209456
50
193.3540274
51
225.8258581
0
ARC
8
DEFAULT_255_1_388
10
15.3986321
20
-0.2990924
40
0.2183738
50
226.4180634
51
255.8552336
0
ARC
8
DEFAULT_255_1_388
10
15.4274788
20
-0.1937479
40
0.3275812
50
255.4654104
51
268.7987425
0
ARC
8
DEFAULT_255_1_388
10
15.4327965
20
-0.0995455
40
0.4218877
50
268.3449238
51
270.0094605
0
ARC
8
DEFAULT_255_1_388
10
15.4354198
20
-0.1763906
40
0.3450519
50
269.5759586
51
282.0820163
0
ARC
8
DEFAULT_255_1_388
10
15.4607234
20
-0.2882637
40
0.2303642
50
281.752014
51
306.6056188
0
ARC
8
DEFAULT_255_1_388
10
15.4718042
20
-0.3064198
40
0.2091906
50
307.1346085
51
314.027845
0
ARC
8
DEFAULT_255_1_388
10
15.4677554
20
-0.3034541
40
0.2141385
50
314.2552483
51
350.1694025
0
ARC
8
DEFAULT_255_1_388
10
15.3719791
20
-0.2826825
40
0.312082
50
349.4140529
51
0.2933014
0
ARC
8
DEFAULT_255_1_388
10
15.4305068
20
0.2976924
40
0.2588377
50
89.477747
51
105.729729
0
ARC
8
DEFAULT_255_1_388
10
15.4151988
20
0.3545367
40
0.1999733
50
105.9233417
51
135.1660906
0
ARC
8
DEFAULT_255_1_388
10
15.4175019
20
0.3529412
40
0.2027322
50
135.3052302
51
168.9883645
0
ARC
8
DEFAULT_255_1_388
10
15.5106036
20
0.3315996
40
0.2982129
50
168.3801673
51
180.3602268
0
ARC
8
DEFAULT_255_1_388
10
15.4849152
20
0.3273622
40
0.2725291
50
179.5033122
51
194.9125571
0
ARC
8
DEFAULT_255_1_388
10
15.4190559
20
0.3100427
40
0.204431
50
194.9720816
51
224.194444
0
ARC
8
DEFAULT_255_1_388
10
15.4158925
20
0.3074635
40
0.2003651
50
224.2962453
51
262.015664
0
ARC
8
DEFAULT_255_1_388
10
15.4318928
20
0.3897315
40
0.2840925
50
261.1245923
51
270.1962896
0
ARC
8
DEFAULT_255_1_388
10
15.435241
20
0.3686859
40
0.2630559
50
269.4827276
51
285.0987215
0
ARC
8
DEFAULT_255_1_388
10
15.4525846
20
0.3036175
40
0.1957162
50
285.1585357
51
315.9484501
0
ARC
8
DEFAULT_255_1_388
10
15.4425719
20
0.3128315
40
0.2093195
50
316.0413965
51
351.916092
0
ARC
8
DEFAULT_255_1_388
10
15.3601094
20
0.3287323
40
0.2932279
50
351.105835
51
0.1939062
0
ARC
8
DEFAULT_255_1_388
10
15.3896728
20
0.3321224
40
0.2636739
50
359.4789618
51
16.0678224
0
ARC
8
DEFAULT_255_1_388
10
15.44322
20
0.3465721
40
0.2082215
50
16.3252067
51
44.7913869
0
ARC
8
DEFAULT_255_1_388
10
15.4412262
20
0.346632
40
0.2095992
50
44.3957814
51
88.2499162
0
ARC
8
DEFAULT_255_1_388
10
15.4329596
20
0.2778006
40
0.2787189
50
86.9833854
51
90.0192215
0
LINE
8
DEFAULT_255_1_388
10
17.0141039
20
0.6757898
11
17.0141039
21
0.5330267
0
LINE
8
DEFAULT_255_1_388
10
17.0141039
20
0.5330267
11
16.5912357
21
0.5330267
0
LINE
8
DEFAULT_255_1_388
10
16.5912357
20
0.5330267
11
16.5912357
21
-0.6398
0
LINE
8
DEFAULT_255_1_388
10
16.5912357
20
-0.6398
11
16.4186549
21
-0.6398
0
LINE
8
DEFAULT_255_1_388
10
16.4186549
20
-0.6398
11
16.4186549
21
0.5330267
0
LINE
8
DEFAULT_255_1_388
10
16.4186549
20
0.5330267
11
15.9966903
21
0.5330267
0
LINE
8
DEFAULT_255_1_388
10
15.9966903
20
0.5330267
11
15.9966903
21
0.6757898
0
LINE
8
DEFAULT_255_1_388
10
15.9966903
20
0.6757898
11
17.0141039
21
0.6757898
0
LINE
8
DEFAULT_255_1_388
10
17.9773036
20
-0.6398
11
17.6917772
21
-0.1076005
0
LINE
8
DEFAULT_255_1_388
10
17.6917772
20
-0.1076005
11
17.3827582
21
-0.1076005
0
LINE
8
DEFAULT_255_1_388
10
17.3827582
20
-0.1076005
11
17.3827582
21
-0.6398
0
LINE
8
DEFAULT_255_1_388
10
17.3827582
20
-0.6398
11
17.2083703
21
-0.6398
0
LINE
8
DEFAULT_255_1_388
10
17.2083703
20
-0.6398
11
17.2083703
21
0.6757898
0
LINE
8
DEFAULT_255_1_388
10
17.2083703
20
0.6757898
11
17.6438883
21
0.6757898
0
LINE
8
DEFAULT_255_1_388
10
17.8544188
20
-0.0705544
11
18.1634379
21
-0.6289572
0
LINE
8
DEFAULT_255_1_388
10
18.1634379
20
-0.6289572
11
18.1634379
21
-0.6398
0
LINE
8
DEFAULT_255_1_388
10
18.1634379
20
-0.6398
11
17.9773036
21
-0.6398
0
LINE
8
DEFAULT_255_1_388
10
17.3827582
20
0.5330267
11
17.3827582
21
0.0342591
0
LINE
8
DEFAULT_255_1_388
10
17.3827582
20
0.0342591
11
17.6493097
21
0.0342591
0
LINE
8
DEFAULT_255_1_388
10
17.6484062
20
0.5330267
11
17.3827582
21
0.5330267
0
ARC
8
DEFAULT_255_1_388
10
17.6485729
20
-0.1073654
40
0.7831693
50
80.6535681
51
90.3427203
0
ARC
8
DEFAULT_255_1_388
10
17.695764
20
0.1696722
40
0.5021479
50
65.6987674
51
80.8330164
0
ARC
8
DEFAULT_255_1_388
10
17.7494933
20
0.2928479
40
0.3677787
50
50.0019152
51
65.4304412
0
ARC
8
DEFAULT_255_1_388
10
17.774075
20
0.3260603
40
0.3265454
50
11.6284215
51
49.5603681
0
ARC
8
DEFAULT_255_1_388
10
17.6013236
20
0.2838524
40
0.5043009
50
359.5655533
51
12.3693319
0
ARC
8
DEFAULT_255_1_388
10
17.7224572
20
0.2768038
40
0.3831661
50
341.998418
51
0.4822212
0
ARC
8
DEFAULT_255_1_388
10
17.7668759
20
0.2647479
40
0.3372036
50
323.8610842
51
341.6141514
0
ARC
8
DEFAULT_255_1_388
10
17.7329304
20
0.2909615
40
0.3800784
50
296.7019299
51
323.6876213
0
ARC
8
DEFAULT_255_1_388
10
17.6833263
20
0.3796532
40
0.4816219
50
290.808313
51
297.2325929
0
ARC
8
DEFAULT_255_1_388
10
17.6522056
20
0.4385377
40
0.404289
50
269.5895908
51
281.8058892
0
ARC
8
DEFAULT_255_1_388
10
17.6804322
20
0.309436
40
0.2721459
50
281.5499321
51
303.9358954
0
ARC
8
DEFAULT_255_1_388
10
17.6958857
20
0.2826588
40
0.2413121
50
304.4410786
51
311.211123
0
ARC
8
DEFAULT_255_1_388
10
17.7107262
20
0.2670152
40
0.2197678
50
310.9874923
51
356.2715203
0
ARC
8
DEFAULT_255_1_388
10
17.6257009
20
0.2796992
40
0.3055212
50
354.9346315
51
0.0617816
0
ARC
8
DEFAULT_255_1_388
10
17.604585
20
0.2827427
40
0.3266482
50
359.5239293
51
12.8808621
0
ARC
8
DEFAULT_255_1_388
10
17.7145612
20
0.3096638
40
0.2134449
50
12.417206
51
43.1023141
0
ARC
8
DEFAULT_255_1_388
10
17.7214942
20
0.3138253
40
0.2055463
50
43.575886
51
48.2047245
0
ARC
8
DEFAULT_255_1_388
10
17.7024203
20
0.2889151
40
0.2368418
50
48.7809155
51
72.6968768
0
ARC
8
DEFAULT_255_1_388
10
17.6625567
20
0.1679385
40
0.364206
50
72.3699892
51
84.8793749
0
ARC
8
DEFAULT_255_1_388
10
17.6459573
20
0.0169651
40
0.5160674
50
84.5398226
51
89.7281165
0
ARC
8
DEFAULT_255_2_778
10
20.2534188
20
72.9866525
40
0.3580657
50
89.9945037
51
180.0054963
0
ARC
8
DEFAULT_255_2_778
10
20.2534875
20
72.9866525
40
0.3580657
50
359.9945037
51
90.0054963
0
ARC
8
DEFAULT_255_2_778
10
20.2534875
20
72.9865838
40
0.3580657
50
269.9945037
51
0.0054963
0
ARC
8
DEFAULT_255_2_778
10
20.2534188
20
72.9865838
40
0.3580657
50
179.9945037
51
270.0054963
0
ARC
8
DEFAULT_255_2_778
10
22.9622406
20
72.718282
40
2.3282817
50
111.9150345
51
128.7655504
0
ARC
8
DEFAULT_255_2_778
10
22.8791007
20
72.850352
40
2.1733214
50
129.2366206
51
154.7721516
0
ARC
8
DEFAULT_255_2_778
10
23.480657
20
72.5545583
40
2.8435961
50
154.5467617
51
165.9285636
0
ARC
8
DEFAULT_255_2_778
10
23.9646902
20
72.4171212
40
3.3465569
50
165.6609748
51
166.525375
0
ARC
8
DEFAULT_255_2_778
10
21.5282291
20
73.6353171
40
1.414623
50
156.0627036
51
175.7189082
0
ARC
8
DEFAULT_255_2_778
10
22.1164502
20
73.381783
40
2.0551309
50
144.7505594
51
156.2560535
0
ARC
8
DEFAULT_255_2_778
10
22.8861799
20
72.8464863
40
2.9926766
50
137.345293
51
144.8863205
0
ARC
8
DEFAULT_255_2_778
10
23.8131446
20
71.9973407
40
4.2497776
50
131.6389266
51
137.393651
0
ARC
8
DEFAULT_255_2_778
10
24.5393492
20
71.2006248
40
5.3277326
50
130.1334351
51
131.7826198
0
LINE
8
DEFAULT_255_2_778
10
19.8953532
20
72.9866182
11
19.8953532
21
72.9866182
0
LINE
8
DEFAULT_255_2_778
10
21.1052532
20
75.2739182
11
22.0932532
21
74.8783182
0
LINE
8
DEFAULT_255_2_778
10
20.7102532
20
73.1969182
11
20.1175532
21
73.7409182
0
LINE
8
DEFAULT_255_2_778
10
21.1052532
20
75.2739182
11
21.1052532
21
75.2739182
0
ARC
8
DEFAULT_255_2_778
10
13.7594907
20
73.8101437
40
0.8717226
50
88.9281645
51
133.9885749
0
ARC
8
DEFAULT_255_2_778
10
13.7757454
20
73.5850604
40
1.0966534
50
88.9487005
51
89.9972984
0
ARC
8
DEFAULT_255_2_778
10
13.7953
20
73.8805011
40
0.8010283
50
72.1310318
51
89.9594908
0
ARC
8
DEFAULT_255_2_778
10
13.8705373
20
74.1375083
40
0.5333823
50
60.6505783
51
71.3519493
0
ARC
8
DEFAULT_255_2_778
10
13.9543387
20
74.2646349
40
0.3816498
50
20.3938858
51
62.2625554
0
ARC
8
DEFAULT_255_2_778
10
14.9704645
20
73.7766628
40
0.9050345
50
89.7568633
51
136.6758865
0
ARC
8
DEFAULT_255_2_778
10
14.9742773
20
73.6590709
40
1.0226182
50
88.9864436
51
89.9984426
0
ARC
8
DEFAULT_255_2_778
10
14.992248
20
73.898192
40
0.7833372
50
71.373585
51
89.9913488
0
ARC
8
DEFAULT_255_2_778
10
15.0841803
20
74.177042
40
0.489734
50
42.2193789
51
71.1458349
0
ARC
8
DEFAULT_255_2_778
10
15.0590908
20
74.1695658
40
0.5134635
50
8.5226311
51
40.9558105
0
ARC
8
DEFAULT_255_2_778
10
14.7367896
20
74.1043045
40
0.8420446
50
359.6942069
51
9.6641803
0
ARC
8
DEFAULT_255_2_778
10
14.4472507
20
74.1013277
40
1.1315727
50
355.5855084
51
359.923173
0
ARC
8
DEFAULT_255_2_778
10
14.2502845
20
74.0736289
40
0.7547163
50
352.4548626
51
359.7652122
0
ARC
8
DEFAULT_255_2_778
10
14.4078893
20
74.0707192
40
0.5971052
50
359.9824407
51
2.1700815
0
ARC
8
DEFAULT_255_2_778
10
14.8167551
20
74.0865752
40
0.1879327
50
2.0595693
51
88.944897
0
ARC
8
DEFAULT_255_2_778
10
14.7529878
20
73.7992725
40
0.4799353
50
81.9476992
51
88.9638763
0
ARC
8
DEFAULT_255_2_778
10
14.7641352
20
73.7931844
40
0.4859511
50
90.2910974
51
140.7094043
0
ARC
8
DEFAULT_255_2_778
10
14.950423
20
73.6003111
40
0.7529164
50
138.3264016
51
141.8088804
0
ARC
8
DEFAULT_255_2_778
10
13.0111845
20
74.0702289
40
0.7547163
50
352.4548626
51
359.7652122
0
ARC
8
DEFAULT_255_2_778
10
13.1687893
20
74.0673192
40
0.5971052
50
359.9824407
51
2.1700815
0
ARC
8
DEFAULT_255_2_778
10
13.5767327
20
74.0841775
40
0.1888212
50
1.7455696
51
88.6065628
0
ARC
8
DEFAULT_255_2_778
10
13.5151974
20
73.8078897
40
0.469731
50
81.9072271
51
88.8693446
0
ARC
8
DEFAULT_255_2_778
10
13.5126914
20
73.7678568
40
0.5098084
50
88.6765396
51
89.9981553
0
ARC
8
DEFAULT_255_2_778
10
13.5179114
20
73.7714569
40
0.5062351
50
90.5889431
51
134.9317856
0
ARC
8
DEFAULT_255_2_778
10
13.6708307
20
73.5810835
40
0.749469
50
132.9288129
51
135.7848647
0
LINE
8
DEFAULT_255_2_778
10
12.6682663
20
74.6474292
11
13.2005663
21
74.6490292
0
LINE
8
DEFAULT_255_2_778
10
13.2005663
20
74.6490292
11
13.1540663
21
74.4373292
0
LINE
8
DEFAULT_255_2_778
10
15.5754663
20
74.0142292
11
15.5715663
21
73.9714292
0
LINE
8
DEFAULT_255_2_778
10
15.5715663
20
73.9714292
11
15.3386663
21
72.7860292
0
LINE
8
DEFAULT_255_2_778
10
15.3386663
20
72.7860292
11
14.7655663
21
72.7860292
0
LINE
8
DEFAULT_255_2_778
10
14.7655663
20
72.7860292
11
14.9984663
21
73.9745292
0
LINE
8
DEFAULT_255_2_778
10
14.3586663
20
74.0658292
11
14.3525663
21
74.0264292
0
LINE
8
DEFAULT_255_2_778
10
14.3525663
20
74.0264292
11
14.0975663
21
72.7860292
0
LINE
8
DEFAULT_255_2_778
10
14.0975663
20
72.7860292
11
13.5265663
21
72.7860292
0
LINE
8
DEFAULT_255_2_778
10
13.5265663
20
72.7860292
11
13.7593663
21
73.9711292
0
LINE
8
DEFAULT_255_2_778
10
13.1336663
20
74.1037292
11
12.8603663
21
72.7860292
0
LINE
8
DEFAULT_255_2_778
10
12.8603663
20
72.7860292
11
12.2893663
21
72.7860292
0
LINE
8
DEFAULT_255_2_778
10
12.2893663
20
72.7860292
11
12.6679663
21
74.6471292
0
LINE
8
DEFAULT_255_2_778
10
12.6679663
20
74.6471292
11
12.6682663
21
74.6474292
0
ARC
8
DEFAULT_255_2_778
10
16.6200314
20
73.4968402
40
1.1831221
50
72.5008211
51
90.0103536
0
ARC
8
DEFAULT_255_2_778
10
16.6947546
20
73.7598399
40
0.9098586
50
60.3242318
51
72.0085714
0
ARC
8
DEFAULT_255_2_778
10
16.7751051
20
73.8803126
40
0.7654736
50
24.9543019
51
61.0852427
0
ARC
8
DEFAULT_255_2_778
10
16.6805787
20
73.8384465
40
0.8688408
50
359.4872778
51
24.8275177
0
ARC
8
DEFAULT_255_2_778
10
16.4736992
20
73.8320476
40
1.0756863
50
353.6171666
51
359.9267064
0
ARC
8
DEFAULT_255_2_778
10
16.4716416
20
73.8020267
40
1.0748142
50
309.833105
51
355.2199932
0
ARC
8
DEFAULT_255_2_778
10
16.4131023
20
73.8686469
40
1.1634726
50
274.0073872
51
309.9453537
0
ARC
8
DEFAULT_255_2_778
10
16.3618881
20
74.2371028
40
1.5348158
50
269.9462811
51
274.9533663
0
ARC
8
DEFAULT_255_2_778
10
16.3604833
20
74.3608871
40
1.6585995
50
269.1686307
51
269.9988202
0
ARC
8
DEFAULT_255_2_778
10
16.3366284
20
73.8733137
40
1.1708514
50
252.109196
51
269.9896888
0
ARC
8
DEFAULT_255_2_778
10
16.2647024
20
73.6239636
40
0.9114995
50
240.54759
51
251.5966758
0
ARC
8
DEFAULT_255_2_778
10
16.185195
20
73.5012089
40
0.7655666
50
205.2400495
51
241.211713
0
ARC
8
DEFAULT_255_2_778
10
16.2656131
20
73.5385634
40
0.8542357
50
179.5359208
51
205.2063167
0
ARC
8
DEFAULT_255_2_778
10
16.4526722
20
73.5441956
40
1.0412677
50
173.5392122
51
179.9291923
0
ARC
8
DEFAULT_255_2_778
10
16.6391822
20
73.5326758
40
1.2279263
50
153.4099026
51
173.9843619
0
ARC
8
DEFAULT_255_2_778
10
16.4795759
20
73.6004448
40
1.0549233
50
129.6863931
51
152.8211827
0
ARC
8
DEFAULT_255_2_778
10
16.5417015
20
73.5298495
40
1.1489256
50
92.7623759
51
129.8224215
0
ARC
8
DEFAULT_255_2_778
10
16.5842324
20
73.1864549
40
1.494196
50
89.9700369
51
93.7568045
0
ARC
8
DEFAULT_255_2_778
10
16.5849025
20
73.0848597
40
1.5957911
50
88.7355209
51
89.9960014
0
ARC
8
DEFAULT_255_2_778
10
16.440941
20
73.4768885
40
0.4286317
50
179.6425826
51
209.446387
0
ARC
8
DEFAULT_255_2_778
10
16.3397227
20
73.4297221
40
0.3174207
50
211.0145463
51
223.1431724
0
ARC
8
DEFAULT_255_2_778
10
16.3473644
20
73.4476914
40
0.3353769
50
224.4904912
51
268.822899
0
ARC
8
DEFAULT_255_2_778
10
16.3773318
20
73.6596578
40
0.5485121
50
266.1471365
51
268.8180779
0
ARC
8
DEFAULT_255_2_778
10
16.3834553
20
73.7892665
40
0.6782284
50
268.5267288
51
269.9955114
0
ARC
8
DEFAULT_255_2_778
10
16.3990244
20
73.5987446
40
0.4879566
50
268.1653241
51
325.4286401
0
ARC
8
DEFAULT_255_2_778
10
16.1704714
20
73.7653589
40
0.7707306
50
324.8706977
51
351.0886768
0
ARC
8
DEFAULT_255_2_778
10
15.7623203
20
73.844259
40
1.1862684
50
350.3775551
51
0.2885744
0
ARC
8
DEFAULT_255_2_778
10
15.4717207
20
73.8499545
40
1.4768528
50
0.0108339
51
1.7075744
0
ARC
8
DEFAULT_255_2_778
10
16.4937051
20
73.8848496
40
0.454304
50
1.1493477
51
31.2464652
0
ARC
8
DEFAULT_255_2_778
10
16.5878645
20
73.9315769
40
0.3496776
50
32.703807
51
41.7810929
0
ARC
8
DEFAULT_255_2_778
10
16.6096538
20
73.9409534
40
0.3272685
50
43.0987922
51
88.7571407
0
ARC
8
DEFAULT_255_2_778
10
16.5789566
20
73.7286359
40
0.5408314
50
85.992647
51
88.8704975
0
ARC
8
DEFAULT_255_2_778
10
16.5725658
20
73.6267668
40
0.6428217
50
88.4799611
51
89.9943311
0
ARC
8
DEFAULT_255_2_778
10
16.5615546
20
73.7800787
40
0.4896349
50
88.7039519
51
145.0513377
0
ARC
8
DEFAULT_255_2_778
10
16.7596375
20
73.6267936
40
0.7399051
50
144.1087108
51
170.2824956
0
ARC
8
DEFAULT_255_2_778
10
17.1861971
20
73.5396764
40
1.1751307
50
169.6063184
51
180.3528002
0
ARC
8
DEFAULT_255_2_778
10
17.5222698
20
73.5328441
40
1.5111813
50
180.0153016
51
182.009194
0
LINE
8
DEFAULT_255_2_778
10
16.6201176
20
74.6802623
11
16.6198176
21
74.6799623
0
LINE
8
DEFAULT_255_2_778
10
16.0120176
20
73.4798623
11
16.0123176
21
73.4795623
0
ARC
8
DEFAULT_255_2_778
10
18.587937
20
72.5580854
40
1.642039
50
81.2830361
51
86.628458
0
ARC
8
DEFAULT_255_2_778
10
18.6429757
20
73.3965313
40
0.8018272
50
87.0310432
51
89.8986713
0
ARC
8
DEFAULT_255_2_778
10
18.6242064
20
73.3078997
40
0.8906863
50
88.7012797
51
89.9954117
0
ARC
8
DEFAULT_255_2_778
10
18.6103452
20
73.5521623
40
0.6465738
50
88.765285
51
116.6201427
0
ARC
8
DEFAULT_255_2_778
10
18.5802548
20
73.6361694
40
0.5580924
50
117.7228833
51
138.7756782
0
ARC
8
DEFAULT_255_2_778
10
18.7590475
20
74.0023707
40
0.6980151
50
116.489914
51
143.0810972
0
ARC
8
DEFAULT_255_2_778
10
18.7053938
20
74.0824223
40
0.6025621
50
89.4580016
51
115.3188873
0
ARC
8
DEFAULT_255_2_778
10
18.6965205
20
73.7476885
40
0.9373821
50
77.9674605
51
89.1092017
0
ARC
8
DEFAULT_255_2_778
10
18.6028478
20
73.2171466
40
1.4759175
50
78.008513
51
78.7045202
0
LINE
8
DEFAULT_255_2_778
10
18.9094938
20
74.6611573
11
18.8367938
21
74.1811573
0
LINE
8
DEFAULT_255_2_778
10
18.1604938
20
74.0039573
11
17.9072938
21
72.7860573
0
LINE
8
DEFAULT_255_2_778
10
17.9072938
20
72.7860573
11
17.3362938
21
72.7860573
0
LINE
8
DEFAULT_255_2_778
10
17.3362938
20
72.7860573
11
17.7169938
21
74.6471573
0
LINE
8
DEFAULT_255_2_778
10
17.7169938
20
74.6471573
11
18.2535938
21
74.6487573
0
LINE
8
DEFAULT_255_2_778
10
18.2535938
20
74.6487573
11
18.2009938
21
74.4216573
0
LINE
8
DEFAULT_255_2_778
10
18.9094938
20
74.6608573
11
18.9094938
21
74.6611573
0
ARC
8
DEFAULT_255_2_778
10
19.1571667
20
73.872675
40
1.1701724
50
250.1393411
51
270.3226852
0
ARC
8
DEFAULT_255_2_778
10
19.1022051
20
73.6928343
40
0.9824012
50
242.0502734
51
249.5907868
0
ARC
8
DEFAULT_255_2_778
10
19.001531
20
73.5333015
40
0.794417
50
208.3292132
51
243.0715083
0
ARC
8
DEFAULT_255_2_778
10
18.9933547
20
73.5242013
40
0.7829125
50
179.569171
51
208.0269435
0
ARC
8
DEFAULT_255_2_778
10
19.1411392
20
73.5292824
40
0.9306752
50
174.3677827
51
179.9503835
0
ARC
8
DEFAULT_255_2_778
10
19.3222378
20
73.57118
40
1.1074063
50
145.2485417
51
173.7769976
0
ARC
8
DEFAULT_255_2_778
10
19.3043239
20
73.5956177
40
1.0788028
50
116.4826416
51
145.7726174
0
ARC
8
DEFAULT_255_2_778
10
19.3348976
20
73.5259316
40
1.1548163
50
89.3335424
51
116.2986099
0
ARC
8
DEFAULT_255_2_778
10
19.3482483
20
73.2835133
40
1.3971563
50
88.7200635
51
89.9966493
0
ARC
8
DEFAULT_255_2_778
10
19.3739264
20
73.5679187
40
1.1124162
50
73.6937809
51
89.7151452
0
ARC
8
DEFAULT_255_2_778
10
19.4851962
20
73.9398827
40
0.7241771
50
40.439997
51
73.880282
0
ARC
8
DEFAULT_255_2_778
10
19.4514712
20
73.9179387
40
0.7640962
50
0.3370816
51
40.0519836
0
ARC
8
DEFAULT_255_2_778
10
19.2137457
20
73.894313
40
1.0022031
50
359.994028
51
1.6078833
0
ARC
8
DEFAULT_255_2_778
10
19.0846833
20
73.8964808
40
1.1312679
50
353.167063
51
359.8849147
0
ARC
8
DEFAULT_255_2_778
10
18.9406155
20
73.9112227
40
1.2760687
50
352.3939633
51
353.279462
0
ARC
8
DEFAULT_255_2_778
10
19.1535012
20
73.4726798
40
0.3608489
50
171.5634883
51
179.9015639
0
ARC
8
DEFAULT_255_2_778
10
19.1262943
20
73.4768702
40
0.3336607
50
180.6131262
51
227.843893
0
ARC
8
DEFAULT_255_2_778
10
19.2043051
20
73.7385151
40
0.5918171
50
239.3225098
51
268.8255118
0
ARC
8
DEFAULT_255_2_778
10
19.2271512
20
73.9719017
40
0.8258202
50
267.5725716
51
270.0162941
0
ARC
8
DEFAULT_255_2_778
10
19.2268973
20
74.0556346
40
0.9095533
50
270.0307885
51
273.2244191
0
ARC
8
DEFAULT_255_2_778
10
19.2542379
20
73.3952649
40
0.2488861
50
275.4917641
51
302.3582203
0
ARC
8
DEFAULT_255_2_778
10
19.3200418
20
73.2793064
40
0.115896
50
305.561706
51
314.7657745
0
ARC
8
DEFAULT_255_2_778
10
19.3095773
20
73.3121064
40
0.1473882
50
308.6632861
51
359.3837416
0
ARC
8
DEFAULT_255_2_778
10
17.807225
20
75.0347828
40
2.962762
50
318.8021847
51
324.4102292
0
ARC
8
DEFAULT_255_2_778
10
18.7925821
20
74.1664506
40
1.6494092
50
310.4033061
51
318.953359
0
ARC
8
DEFAULT_255_2_778
10
19.3188808
20
73.5398187
40
0.831118
50
295.9312381
51
310.7744109
0
ARC
8
DEFAULT_255_2_778
10
19.4407027
20
73.3109772
40
0.5721233
50
294.3678437
51
294.9811966
0
ARC
8
DEFAULT_255_2_778
10
19.1940828
20
74.0779614
40
1.3756016
50
269.5724547
51
290.5412856
0
ARC
8
DEFAULT_255_2_778
10
19.1838577
20
74.2962488
40
1.5938505
50
269.2881822
51
269.9985732
0
ARC
8
DEFAULT_255_2_778
10
19.3390649
20
73.7096819
40
0.5598634
50
88.7931239
51
89.9984438
0
ARC
8
DEFAULT_255_2_778
10
19.3326983
20
73.8065553
40
0.463034
50
89.2102909
51
125.5845733
0
ARC
8
DEFAULT_255_2_778
10
19.4008068
20
73.7348825
40
0.5611219
50
126.9818839
51
147.669232
0
ARC
8
DEFAULT_255_2_778
10
19.876359
20
73.4151894
40
1.1340353
50
146.870707
51
156.2884785
0
ARC
8
DEFAULT_255_2_778
10
19.2333366
20
73.9933392
40
0.4293753
50
349.7481736
51
359.8266598
0
ARC
8
DEFAULT_255_2_778
10
19.2961469
20
73.9925983
40
0.3665636
50
359.9127606
51
9.1392387
0
ARC
8
DEFAULT_255_2_778
10
19.4131569
20
74.0070587
40
0.2487794
50
10.1315408
51
54.8294252
0
ARC
8
DEFAULT_255_2_778
10
19.3593417
20
73.9112414
40
0.3582778
50
56.6210187
51
91.3472693
0
LINE
8
DEFAULT_255_2_778
10
18.2149569
20
73.6206211
11
18.2213569
21
73.6912211
0
LINE
8
DEFAULT_255_2_778
10
20.2054569
20
73.7423211
11
20.1723569
21
73.5256211
0
LINE
8
DEFAULT_255_2_778
10
20.1723569
20
73.5256211
11
18.7965569
21
73.5256211
0
LINE
8
DEFAULT_255_2_778
10
19.4569569
20
73.3105211
11
20.2165569
21
73.3105211
0
LINE
8
DEFAULT_255_2_778
10
18.8380569
20
73.8712211
11
19.6434569
21
73.8712211
0
LINE
8
DEFAULT_255_2_778
10
19.6434569
20
73.8712211
11
19.6558569
21
73.9169211
0
LINE
8
DEFAULT_255_2_778
10
11.4252281
20
74.4580177
11
12.8081281
21
73.6420177
0
LINE
8
DEFAULT_255_2_778
10
12.8081281
20
73.6420177
11
11.2770281
21
73.0486177
0
LINE
8
DEFAULT_255_2_778
10
11.2770281
20
73.0486177
11
11.5979281
21
73.7656177
0
LINE
8
DEFAULT_255_2_778
10
11.5979281
20
73.7656177
11
11.4252281
21
74.4580177
0
ARC
8
DEFAULT_255_2_778
10
7.8633492
20
74.1776349
40
1.734445
50
345.0500681
51
0.450213
0
ARC
8
DEFAULT_255_2_778
10
8.1424128
20
74.1134315
40
1.4482985
50
339.8011311
51
344.6559926
0
ARC
8
DEFAULT_255_2_778
10
8.2241959
20
74.0679595
40
1.3559213
50
318.9869254
51
340.4112117
0
ARC
8
DEFAULT_255_2_778
10
8.3403786
20
73.9800223
40
1.2105876
50
317.7755753
51
318.5188915
0
ARC
8
DEFAULT_255_2_778
10
8.3677776
20
73.9541224
40
1.1728926
50
293.4453171
51
317.8130059
0
ARC
8
DEFAULT_255_2_778
10
8.3381728
20
74.0323502
40
1.2564472
50
269.4376299
51
293.2645473
0
ARC
8
DEFAULT_255_2_778
10
8.6390116
20
74.2404305
40
1.0182316
50
68.112945
51
90.7974227
0
ARC
8
DEFAULT_255_2_778
10
8.6827218
20
74.3757759
40
0.8764035
50
66.6600337
51
67.4660887
0
ARC
8
DEFAULT_255_2_778
10
8.6950616
20
74.3875129
40
0.860764
50
41.8199578
51
67.1046866
0
ARC
8
DEFAULT_255_2_778
10
8.5939144
20
74.3112866
40
0.9870277
50
18.4442061
51
41.2024761
0
ARC
8
DEFAULT_255_2_778
10
8.2913394
20
74.2076986
40
1.3068358
50
359.9236227
51
18.5554774
0
ARC
8
DEFAULT_255_2_778
10
7.9767371
20
74.1912824
40
1.6215036
50
359.9993331
51
0.5185192
0
ARC
8
DEFAULT_255_2_778
10
8.1161265
20
74.1974191
40
1.1556879
50
359.3527282
51
15.3461488
0
ARC
8
DEFAULT_255_2_778
10
8.3555709
20
74.2525091
40
0.9102591
50
15.9909101
51
17.2384514
0
ARC
8
DEFAULT_255_2_778
10
8.5215656
20
74.3159942
40
0.7329962
50
16.3441173
51
39.0583428
0
ARC
8
DEFAULT_255_2_778
10
8.6385861
20
74.4015513
40
0.5882641
50
39.7694118
51
66.0014919
0
ARC
8
DEFAULT_255_2_778
10
8.6052911
20
74.3085083
40
0.6868457
50
66.6208799
51
90.9301944
0
ARC
8
DEFAULT_255_2_778
10
8.3674619
20
73.9035777
40
0.865983
50
269.2774049
51
294.6427005
0
ARC
8
DEFAULT_255_2_778
10
8.3809787
20
73.8555801
40
0.8167574
50
295.184769
51
321.1699914
0
ARC
8
DEFAULT_255_2_778
10
8.188821
20
74.0020326
40
1.0582969
50
321.5163412
51
341.7776814
0
ARC
8
DEFAULT_255_2_778
10
7.8940618
20
74.1175931
40
1.374523
50
341.044332
51
342.4824039
0
ARC
8
DEFAULT_255_2_778
10
7.7898077
20
74.1392334
40
1.4804949
50
342.8981919
51
356.6952858
0
ARC
8
DEFAULT_255_2_778
10
7.2862441
20
74.1829849
40
1.9857973
50
356.2725814
51
0.0484329
0
LINE
8
DEFAULT_255_2_778
10
8.3258407
20
72.7759635
11
7.2765407
21
72.7516635
0
LINE
8
DEFAULT_255_2_778
10
7.2765407
20
72.7516635
11
7.7858407
21
75.2585635
0
LINE
8
DEFAULT_255_2_778
10
7.7858407
20
75.2585635
11
8.6248407
21
75.2585635
0
LINE
8
DEFAULT_255_2_778
10
9.5982407
20
74.1912635
11
9.5977407
21
74.1912635
0
LINE
8
DEFAULT_255_2_778
10
8.5941407
20
74.9952635
11
7.9962407
21
74.9772635
0
LINE
8
DEFAULT_255_2_778
10
7.9962407
20
74.9772635
11
7.6363407
21
72.9990635
0
LINE
8
DEFAULT_255_2_778
10
7.6363407
20
72.9990635
11
8.3565407
21
73.0376635
0
LINE
8
DEFAULT_255_2_778
10
9.2720407
20
74.1846635
11
9.2717407
21
74.1843635
0
ARC
8
DEFAULT_255_2_778
10
10.302374
20
73.579919
40
0.5777251
50
269.3131992
51
298.9193317
0
ARC
8
DEFAULT_255_2_778
10
10.2422898
20
73.6845114
40
0.6983333
50
299.0845099
51
323.1838183
0
ARC
8
DEFAULT_255_2_778
10
10.0730419
20
73.8084915
40
0.9081244
50
323.3206017
51
342.9705556
0
ARC
8
DEFAULT_255_2_778
10
9.9076255
20
73.8659416
40
1.0831324
50
342.6274164
51
0.2324268
0
ARC
8
DEFAULT_255_2_778
10
10.2433391
20
73.8830185
40
0.7475175
50
359.0278167
51
16.1300251
0
ARC
8
DEFAULT_255_2_778
10
10.5672449
20
73.9761392
40
0.4104922
50
16.2042834
51
41.9480466
0
ARC
8
DEFAULT_255_2_778
10
10.5796118
20
73.9679262
40
0.4070383
50
43.9719544
51
85.3997935
0
ARC
8
DEFAULT_255_2_778
10
10.5322186
20
73.6922297
40
0.686108
50
83.300847
51
90.1477804
0
ARC
8
DEFAULT_255_2_778
10
10.5219616
20
73.7969474
40
0.58145
50
89.163628
51
118.6648078
0
ARC
8
DEFAULT_255_2_778
10
10.581079
20
73.6999564
40
0.6949321
50
119.1056578
51
143.2104754
0
ARC
8
DEFAULT_255_2_778
10
10.7542438
20
73.5729766
40
0.9096571
50
143.3373192
51
162.9538381
0
ARC
8
DEFAULT_255_2_778
10
10.9180519
20
73.5159321
40
1.0830106
50
162.6089297
51
180.2167337
0
ARC
8
DEFAULT_255_2_778
10
10.590132
20
73.4991465
40
0.7551896
50
179.037255
51
196.0102976
0
ARC
8
DEFAULT_255_2_778
10
10.2623689
20
73.4056213
40
0.4143448
50
196.0798237
51
221.5429745
0
ARC
8
DEFAULT_255_2_778
10
10.2435386
20
73.4072741
40
0.4015819
50
223.501568
51
264.945498
0
ARC
8
DEFAULT_255_2_778
10
10.2934062
20
73.687423
40
0.6854906
50
262.8561454
51
270.170743
0
ARC
8
DEFAULT_255_2_778
10
10.2496801
20
73.7451733
40
0.993603
50
251.4783364
51
270.6555979
0
ARC
8
DEFAULT_255_2_778
10
10.1671823
20
73.4994369
40
0.7343883
50
228.2272369
51
251.4910714
0
ARC
8
DEFAULT_255_2_778
10
10.1298392
20
73.4487077
40
0.671704
50
202.6960886
51
227.720176
0
ARC
8
DEFAULT_255_2_778
10
10.2495562
20
73.4940656
40
0.7996635
50
179.6456167
51
202.3846702
0
ARC
8
DEFAULT_255_2_778
10
10.5173927
20
73.5102351
40
1.0675438
50
179.9999853
51
180.6023814
0
ARC
8
DEFAULT_255_2_778
10
10.5536721
20
73.517223
40
1.1038452
50
157.230675
51
180.3627006
0
ARC
8
DEFAULT_255_2_778
10
10.5843324
20
73.5076196
40
1.135837
50
135.6908415
51
157.3825693
0
ARC
8
DEFAULT_255_2_778
10
10.5546282
20
73.534315
40
1.0959349
50
113.1058727
51
135.604761
0
ARC
8
DEFAULT_255_2_778
10
10.5551078
20
73.5385049
40
1.0922713
50
89.5047522
51
113.2152626
0
ARC
8
DEFAULT_255_2_778
10
10.5759287
20
73.6354295
40
0.9953709
50
71.5130801
51
90.6550541
0
ARC
8
DEFAULT_255_2_778
10
10.6573575
20
73.8812115
40
0.7364524
50
48.2602918
51
71.4580165
0
ARC
8
DEFAULT_255_2_778
10
10.6956984
20
73.9346961
40
0.6710546
50
22.5497085
51
47.6627683
0
ARC
8
DEFAULT_255_2_778
10
10.5670556
20
73.8853328
40
0.8088011
50
359.0650515
51
22.2845409
0
ARC
8
DEFAULT_255_2_778
10
10.2767028
20
73.8660709
40
1.0990629
50
337.1812514
51
0.316152
0
ARC
8
DEFAULT_255_2_778
10
10.2412655
20
73.8766512
40
1.135837
50
315.6908415
51
337.3825693
0
ARC
8
DEFAULT_255_2_778
10
10.2631229
20
73.8586107
40
1.1075969
50
293.2336194
51
315.5688359
0
ARC
8
DEFAULT_255_2_778
10
10.268874
20
73.8379991
40
1.0863919
50
269.5873092
51
293.383724
0
LINE
8
DEFAULT_255_2_778
10
10.295449
20
73.0019354
11
10.295449
21
73.0022354
0
LINE
8
DEFAULT_255_2_778
10
10.261049
20
72.7516354
11
10.261049
21
72.7516354
0
LINE
8
DEFAULT_255_1_388
10
10.7129882
20
71.4518898
11
10.7129882
21
71.3091267
0
LINE
8
DEFAULT_255_1_388
10
10.7129882
20
71.3091267
11
10.2901201
21
71.3091267
0
LINE
8
DEFAULT_255_1_388
10
10.2901201
20
71.3091267
11
10.2901201
21
70.1363
0
LINE
8
DEFAULT_255_1_388
10
10.2901201
20
70.1363
11
10.1175393
21
70.1363
0
LINE
8
DEFAULT_255_1_388
10
10.1175393
20
70.1363
11
10.1175393
21
71.3091267
0
LINE
8
DEFAULT_255_1_388
10
10.1175393
20
71.3091267
11
9.6955747
21
71.3091267
0
LINE
8
DEFAULT_255_1_388
10
9.6955747
20
71.3091267
11
9.6955747
21
71.4518898
0
LINE
8
DEFAULT_255_1_388
10
9.6955747
20
71.4518898
11
10.7129882
21
71.4518898
0
LINE
8
DEFAULT_255_1_388
10
11.4141542
20
71.4582148
11
11.4141542
21
70.1363
0
LINE
8
DEFAULT_255_1_388
10
11.4141542
20
70.1363
11
11.2460913
21
70.1363
0
LINE
8
DEFAULT_255_1_388
10
11.2460913
20
70.1363
11
11.2460913
21
71.250395
0
LINE
8
DEFAULT_255_1_388
10
11.2460913
20
71.250395
11
10.9090617
21
71.1266066
0
LINE
8
DEFAULT_255_1_388
10
10.9090617
20
71.1266066
11
10.9090617
21
71.2784055
0
LINE
8
DEFAULT_255_1_388
10
10.9090617
20
71.2784055
11
11.3879509
21
71.4582148
0
LINE
8
DEFAULT_255_1_388
10
11.3879509
20
71.4582148
11
11.4141542
21
71.4582148
0
LINE
8
DEFAULT_255_1_388
10
12.9583459
20
71.4518898
11
12.9583459
21
70.1363
0
LINE
8
DEFAULT_255_1_388
10
12.9583459
20
70.1363
11
12.783958
21
70.1363
0
LINE
8
DEFAULT_255_1_388
10
12.783958
20
70.1363
11
12.783958
21
70.7443989
0
LINE
8
DEFAULT_255_1_388
10
12.783958
20
70.7443989
11
12.1207417
21
70.7443989
0
LINE
8
DEFAULT_255_1_388
10
12.1207417
20
70.7443989
11
12.1207417
21
70.1363
0
LINE
8
DEFAULT_255_1_388
10
12.1207417
20
70.1363
11
11.9472573
21
70.1363
0
LINE
8
DEFAULT_255_1_388
10
11.9472573
20
70.1363
11
11.9472573
21
71.4518898
0
LINE
8
DEFAULT_255_1_388
10
11.9472573
20
71.4518898
11
12.1207417
21
71.4518898
0
LINE
8
DEFAULT_255_1_388
10
12.1207417
20
71.4518898
11
12.1207417
21
70.8862585
0
LINE
8
DEFAULT_255_1_388
10
12.1207417
20
70.8862585
11
12.783958
21
70.8862585
0
LINE
8
DEFAULT_255_1_388
10
12.783958
20
70.8862585
11
12.783958
21
71.4518898
0
LINE
8
DEFAULT_255_1_388
10
12.783958
20
71.4518898
11
12.9583459
21
71.4518898
0
LINE
8
DEFAULT_255_1_388
10
14.5974118
20
71.0714892
11
14.4230239
21
71.0714892
0
LINE
8
DEFAULT_255_1_388
10
13.6441513
20
70.5176042
11
13.8185393
21
70.5176042
0
ARC
8
DEFAULT_255_1_388
10
14.4970966
20
72.0778821
40
1.4087688
50
248.9196578
51
254.1442424
0
ARC
8
DEFAULT_255_1_388
10
14.3080846
20
71.5912805
40
0.8867498
50
241.6337352
51
249.0064643
0
ARC
8
DEFAULT_255_1_388
10
14.1361159
20
71.2761764
40
0.5277799
50
230.4982261
51
241.8087583
0
ARC
8
DEFAULT_255_1_388
10
14.047893
20
71.1637686
40
0.3849419
50
227.4062979
51
229.9877433
0
ARC
8
DEFAULT_255_1_388
10
13.9930277
20
71.1102155
40
0.3084129
50
200.6782127
51
228.1765252
0
ARC
8
DEFAULT_255_1_388
10
14.0011646
20
71.1085277
40
0.315461
50
179.506278
51
199.8695278
0
ARC
8
DEFAULT_255_1_388
10
14.0001235
20
71.1168671
40
0.3144584
50
132.4834401
51
181.0242352
0
ARC
8
DEFAULT_255_1_388
10
14.0670439
20
71.0536788
40
0.4063094
50
129.2526113
51
133.4249077
0
ARC
8
DEFAULT_255_1_388
10
14.0836031
20
71.0288619
40
0.436014
50
101.9878945
51
128.8741833
0
ARC
8
DEFAULT_255_1_388
10
14.1284447
20
70.835236
40
0.6347415
50
89.5906376
51
102.3170567
0
ARC
8
DEFAULT_255_1_388
10
14.1363758
20
70.8710586
40
0.5989122
50
77.2359491
51
90.3248968
0
ARC
8
DEFAULT_255_1_388
10
14.1596689
20
70.9798554
40
0.4876594
50
63.8379856
51
77.0808925
0
ARC
8
DEFAULT_255_1_388
10
14.1909223
20
71.0380882
40
0.4216191
50
45.9863127
51
64.1608798
0
ARC
8
DEFAULT_255_1_388
10
14.2202616
20
71.071599
40
0.3771394
50
32.2747934
51
45.6544796
0
ARC
8
DEFAULT_255_1_388
10
14.2277423
20
71.0737426
40
0.3696765
50
359.6507495
51
32.6129943
0
ARC
8
DEFAULT_255_1_388
10
14.1216606
20
71.0742788
40
0.3013762
50
359.469654
51
14.983205
0
ARC
8
DEFAULT_255_1_388
10
14.2009858
20
71.0955288
40
0.2192542
50
14.9781954
51
48.2004799
0
ARC
8
DEFAULT_255_1_388
10
14.1824969
20
71.0722937
40
0.2489048
50
48.5926661
51
74.1242559
0
ARC
8
DEFAULT_255_1_388
10
14.1449771
20
70.9484607
40
0.3782845
50
73.7889321
51
86.6653996
0
ARC
8
DEFAULT_255_1_388
10
14.1334586
20
70.8126955
40
0.5145025
50
86.2642725
51
90.0533288
0
ARC
8
DEFAULT_255_1_388
10
14.1302678
20
70.8571376
40
0.4700681
50
89.669455
51
99.2313411
0
ARC
8
DEFAULT_255_1_388
10
14.1029838
20
71.0196401
40
0.3052945
50
99.0695987
51
113.7659242
0
ARC
8
DEFAULT_255_1_388
10
14.0721833
20
71.0922772
40
0.226407
50
114.0402885
51
127.9848946
0
ARC
8
DEFAULT_255_1_388
10
14.0451309
20
71.1255884
40
0.1835045
50
127.7287217
51
176.7106493
0
ARC
8
DEFAULT_255_1_388
10
14.1214974
20
71.114221
40
0.2604907
50
175.1780759
51
180.0581213
0
ARC
8
DEFAULT_255_1_388
10
14.0266317
20
71.1128411
40
0.1656287
50
179.6140658
51
228.124674
0
ARC
8
DEFAULT_255_1_388
10
14.0763675
20
71.158894
40
0.2332038
50
226.5785315
51
230.8792476
0
ARC
8
DEFAULT_255_1_388
10
14.1293161
20
71.2291908
40
0.3211664
50
231.4636401
51
241.9261664
0
ARC
8
DEFAULT_255_1_388
10
14.2639945
20
71.4770349
40
0.6032345
50
241.7177136
51
248.3259138
0
ARC
8
DEFAULT_255_1_388
10
14.419854
20
71.8631771
40
1.0196417
50
248.2007377
51
252.4527713
0
ARC
8
DEFAULT_255_1_388
10
14.5552066
20
72.2816092
40
1.4594143
50
252.3388938
51
254.347037
0
ARC
8
DEFAULT_255_1_388
10
13.7067367
20
69.2468095
40
1.6917621
50
71.0197462
51
74.4085467
0
ARC
8
DEFAULT_255_1_388
10
13.8974455
20
69.7973144
40
1.1091618
50
66.1845203
51
71.086519
0
ARC
8
DEFAULT_255_1_388
10
14.0725003
20
70.1914439
40
0.6779073
50
59.3537334
51
66.269255
0
ARC
8
DEFAULT_255_1_388
10
14.172473
20
70.3605777
40
0.4814366
50
49.1021732
51
59.3294421
0
ARC
8
DEFAULT_255_1_388
10
14.2645718
20
70.4655575
40
0.3417875
50
32.7924183
51
49.2503526
0
ARC
8
DEFAULT_255_1_388
10
14.2995332
20
70.4905311
40
0.2988789
50
31.121225
51
32.3977355
0
ARC
8
DEFAULT_255_1_388
10
14.290751
20
70.4872728
40
0.3080861
50
8.1116803
51
30.7958224
0
ARC
8
DEFAULT_255_1_388
10
14.1995856
20
70.4717437
40
0.4005385
50
359.8390945
51
8.4707348
0
ARC
8
DEFAULT_255_1_388
10
14.2699903
20
70.4662751
40
0.3301608
50
337.4732479
51
0.7538283
0
ARC
8
DEFAULT_255_1_388
10
14.2900928
20
70.4640554
40
0.3107929
50
307.5917028
51
336.4313755
0
ARC
8
DEFAULT_255_1_388
10
14.2389986
20
70.5208509
40
0.3870096
50
307.6560665
51
308.4561779
0
ARC
8
DEFAULT_255_1_388
10
14.2124203
20
70.5616832
40
0.435591
50
284.3733666
51
307.1426212
0
ARC
8
DEFAULT_255_1_388
10
14.1567097
20
70.7666391
40
0.6479685
50
272.4384566
51
284.6464689
0
ARC
8
DEFAULT_255_1_388
10
14.1424482
20
70.9690434
40
0.8508149
50
269.9708517
51
272.8180721
0
ARC
8
DEFAULT_255_1_388
10
14.1376164
20
70.7398283
40
0.6216151
50
248.2707343
51
270.4054609
0
ARC
8
DEFAULT_255_1_388
10
14.1315036
20
70.7183673
40
0.5994203
50
246.1380358
51
248.054058
0
ARC
8
DEFAULT_255_1_388
10
14.0844178
20
70.6194705
40
0.4899388
50
233.1671897
51
246.4951656
0
ARC
8
DEFAULT_255_1_388
10
14.0220814
20
70.5353137
40
0.3852115
50
215.3403381
51
233.084328
0
ARC
8
DEFAULT_255_1_388
10
13.9914178
20
70.5130093
40
0.3472969
50
179.2419235
51
215.2648426
0
ARC
8
DEFAULT_255_1_388
10
14.0777729
20
70.5145979
40
0.259251
50
179.3355796
51
199.1045873
0
ARC
8
DEFAULT_255_1_388
10
14.040387
20
70.5048223
40
0.2207454
50
199.8830064
51
232.7061328
0
ARC
8
DEFAULT_255_1_388
10
14.0935145
20
70.5716456
40
0.306101
50
232.3736206
51
255.5136621
0
ARC
8
DEFAULT_255_1_388
10
14.1318651
20
70.7116177
40
0.4512213
50
255.2447928
51
267.5318292
0
ARC
8
DEFAULT_255_1_388
10
14.1417118
20
70.8502709
40
0.5901825
50
267.1564563
51
270.0294721
0
ARC
8
DEFAULT_255_1_388
10
14.1448443
20
70.8003623
40
0.5402814
50
269.6999944
51
278.1662446
0
ARC
8
DEFAULT_255_1_388
10
14.173647
20
70.6056974
40
0.3435003
50
278.0229022
51
290.6255326
0
ARC
8
DEFAULT_255_1_388
10
14.2127637
20
70.5013547
40
0.2320666
50
290.6616368
51
307.0374127
0
ARC
8
DEFAULT_255_1_388
10
14.2465537
20
70.459904
40
0.1786372
50
306.3942078
51
355.303191
0
ARC
8
DEFAULT_255_1_388
10
14.188983
20
70.4685186
40
0.2367516
50
354.3662092
51
0.0709489
0
ARC
8
DEFAULT_255_1_388
10
14.2049699
20
70.4710561
40
0.2207761
50
359.4175379
51
16.1975911
0
ARC
8
DEFAULT_255_1_388
10
14.2561816
20
70.4850954
40
0.1676828
50
16.4721294
51
52.6261798
0
ARC
8
DEFAULT_255_1_388
10
14.1638324
20
70.3631606
40
0.3206412
50
52.7381828
51
62.4979144
0
ARC
8
DEFAULT_255_1_388
10
14.0080077
20
70.0699236
40
0.6527035
50
62.2517425
51
68.1219454
0
ARC
8
DEFAULT_255_1_388
10
13.8145565
20
69.5944951
40
1.1659797
50
68.006043
51
71.8055127
0
ARC
8
DEFAULT_255_1_388
10
13.6125473
20
68.9886723
40
1.8045908
50
71.718361
51
73.9260743
0
LINE
8
DEFAULT_255_1_388
10
14.7537285
20
70.5980214
11
14.7537285
21
70.6287426
0
LINE
8
DEFAULT_255_1_388
10
15.5832006
20
70.6468139
11
15.5832006
21
70.5772395
0
LINE
8
DEFAULT_255_1_388
10
15.5832006
20
70.5772395
11
14.9208879
21
70.5772395
0
LINE
8
DEFAULT_255_1_388
10
15.4684479
20
70.3865874
11
15.5705507
21
70.3070737
0
LINE
8
DEFAULT_255_1_388
10
14.9263093
20
70.7145813
11
15.4160412
21
70.7145813
0
LINE
8
DEFAULT_255_1_388
10
15.4160412
20
70.7145813
11
15.4160412
21
70.7272312
0
ARC
8
DEFAULT_255_1_388
10
15.1969046
20
70.610521
40
0.4923176
50
252.326534
51
270.5809615
0
ARC
8
DEFAULT_255_1_388
10
15.173851
20
70.527194
40
0.4059384
50
223.3000488
51
251.8562489
0
ARC
8
DEFAULT_255_1_388
10
15.197629
20
70.5502898
40
0.4390832
50
190.9374369
51
223.3654369
0
ARC
8
DEFAULT_255_1_388
10
15.3916968
20
70.5941598
40
0.63798
50
179.6531919
51
191.4988561
0
ARC
8
DEFAULT_255_1_388
10
15.4053995
20
70.6323571
40
0.6516811
50
167.4005523
51
180.3177836
0
ARC
8
DEFAULT_255_1_388
10
15.2870666
20
70.6573853
40
0.5307402
50
154.1835149
51
167.2508278
0
ARC
8
DEFAULT_255_1_388
10
15.2160257
20
70.6947925
40
0.4505076
50
134.3150225
51
154.5315008
0
ARC
8
DEFAULT_255_1_388
10
15.1915592
20
70.716255
40
0.4180662
50
122.8617482
51
133.9707159
0
ARC
8
DEFAULT_255_1_388
10
15.17992
20
70.7412882
40
0.3907416
50
89.8248474
51
123.4199325
0
ARC
8
DEFAULT_255_1_388
10
15.1855498
20
70.6685352
40
0.4635141
50
74.7874349
51
90.5482648
0
ARC
8
DEFAULT_255_1_388
10
15.2185961
20
70.7905987
40
0.3370565
50
39.8178888
51
74.7634383
0
ARC
8
DEFAULT_255_1_388
10
15.1609204
20
70.7456356
40
0.4101553
50
16.8990848
51
39.4830125
0
ARC
8
DEFAULT_255_1_388
10
14.9477818
20
70.6773711
40
0.6339427
50
4.9634768
51
17.2027767
0
ARC
8
DEFAULT_255_1_388
10
14.6757223
20
70.64866
40
0.9074803
50
359.8834402
51
5.2832409
0
ARC
8
DEFAULT_255_1_388
10
15.3549581
20
70.5846981
40
0.4341343
50
180.9844233
51
194.9402766
0
ARC
8
DEFAULT_255_1_388
10
15.2368746
20
70.552417
40
0.3117211
50
194.8030557
51
222.0412897
0
ARC
8
DEFAULT_255_1_388
10
15.2026619
20
70.5184715
40
0.2635903
50
221.541578
51
268.8616004
0
ARC
8
DEFAULT_255_1_388
10
15.2108739
20
70.594528
40
0.3398611
50
267.7321071
51
270.009808
0
ARC
8
DEFAULT_255_1_388
10
15.2128803
20
70.6172178
40
0.3625561
50
269.6921218
51
280.4122297
0
ARC
8
DEFAULT_255_1_388
10
15.2327214
20
70.5138767
40
0.2573323
50
280.2257165
51
298.633539
0
ARC
8
DEFAULT_255_1_388
10
15.2452628
20
70.4874578
40
0.2281403
50
299.0485543
51
300.4624141
0
ARC
8
DEFAULT_255_1_388
10
15.1693608
20
70.6139796
40
0.3756797
50
300.6578578
51
322.037749
0
ARC
8
DEFAULT_255_1_388
10
15.132313
20
70.6463266
40
0.4247956
50
321.671786
51
322.3059078
0
ARC
8
DEFAULT_255_1_388
10
15.2346693
20
70.5169267
40
0.3960488
50
276.9729088
51
328.0035579
0
ARC
8
DEFAULT_255_1_388
10
15.2035163
20
70.6834609
40
0.5652345
50
269.8358003
51
278.0581296
0
ARC
8
DEFAULT_255_1_388
10
15.1779462
20
70.767282
40
0.2274263
50
89.2017936
51
117.2852353
0
ARC
8
DEFAULT_255_1_388
10
15.1839213
20
70.7625637
40
0.2343798
50
118.0546404
51
137.4544511
0
ARC
8
DEFAULT_255_1_388
10
15.2260856
20
70.7242556
40
0.2913471
50
137.5109688
51
158.8516701
0
ARC
8
DEFAULT_255_1_388
10
15.3540957
20
70.6725902
40
0.4293804
50
158.5845496
51
170.1719753
0
ARC
8
DEFAULT_255_1_388
10
15.4857293
20
70.6464519
40
0.5635533
50
169.8378964
51
173.0563877
0
ARC
8
DEFAULT_255_1_388
10
14.9572576
20
70.7039187
40
0.4593755
50
2.9089079
51
12.88469
0
ARC
8
DEFAULT_255_1_388
10
15.1114496
20
70.7402082
40
0.3009753
50
12.6957404
51
28.6405841
0
ARC
8
DEFAULT_255_1_388
10
15.1723993
20
70.7717577
40
0.232366
50
29.016559
51
41.1492981
0
ARC
8
DEFAULT_255_1_388
10
15.1951972
20
70.791608
40
0.2021373
50
41.1646967
51
85.001362
0
ARC
8
DEFAULT_255_1_388
10
15.1815976
20
70.7089775
40
0.2857091
50
83.728216
51
90.0968824
0
LINE
8
DEFAULT_255_1_388
10
16.2491276
20
71.1193781
11
16.2491276
21
70.963965
0
LINE
8
DEFAULT_255_1_388
10
15.9437229
20
70.8302375
11
15.9437229
21
70.1363
0
LINE
8
DEFAULT_255_1_388
10
15.9437229
20
70.1363
11
15.7765634
21
70.1363
0
LINE
8
DEFAULT_255_1_388
10
15.7765634
20
70.1363
11
15.7765634
21
71.1139567
0
LINE
8
DEFAULT_255_1_388
10
15.7765634
20
71.1139567
11
15.939205
21
71.1139567
0
LINE
8
DEFAULT_255_1_388
10
15.939205
20
71.1139567
11
15.9419157
21
71.0010112
0
ARC
8
DEFAULT_255_1_388
10
16.1741436
20
70.5073068
40
0.4627735
50
80.6751522
51
86.893806
0
ARC
8
DEFAULT_255_1_388
10
16.1673266
20
70.3981103
40
0.5721798
50
86.8046851
51
90.0423898
0
ARC
8
DEFAULT_255_1_388
10
16.1631686
20
70.6748197
40
0.2954939
50
89.2758283
51
106.6212906
0
ARC
8
DEFAULT_255_1_388
10
16.140171
20
70.7584009
40
0.2088351
50
107.1347109
51
157.6456887
0
ARC
8
DEFAULT_255_1_388
10
16.2169773
20
70.7156908
40
0.296292
50
155.6557383
51
157.256838
0
ARC
8
DEFAULT_255_1_388
10
16.1949387
20
70.8467472
40
0.296341
50
127.8167201
51
148.6300223
0
ARC
8
DEFAULT_255_1_388
10
16.1664134
20
70.8760066
40
0.2557782
50
91.3329934
51
126.7875218
0
ARC
8
DEFAULT_255_1_388
10
16.1749521
20
70.7956718
40
0.3363561
50
89.9858247
51
92.4688453
0
ARC
8
DEFAULT_255_1_388
10
16.1759014
20
70.8265114
40
0.3055179
50
85.3587643
51
90.1624243
0
ARC
8
DEFAULT_255_1_388
10
16.185408
20
70.9394458
40
0.1921848
50
78.4019195
51
85.4592653
0
ARC
8
DEFAULT_255_1_388
10
16.201714
20
71.0172142
40
0.1127267
50
67.7849217
51
78.573798
0
ARC
8
DEFAULT_255_1_388
10
16.2138775
20
71.0487374
40
0.0789473
50
63.4805074
51
67.3074739
0
LINE
8
DEFAULT_255_1_388
10
16.58435
20
71.1139567
11
16.58435
21
70.1363
0
LINE
8
DEFAULT_255_1_388
10
16.58435
20
70.1363
11
16.4171906
21
70.1363
0
LINE
8
DEFAULT_255_1_388
10
16.4171906
20
70.1363
11
16.4171906
21
71.1139567
0
LINE
8
DEFAULT_255_1_388
10
16.4171906
20
71.1139567
11
16.58435
21
71.1139567
0
ARC
8
DEFAULT_255_1_388
10
16.5137269
20
71.3743428
40
0.1100948
50
161.4148232
51
180.5532607
0
ARC
8
DEFAULT_255_1_388
10
16.4997578
20
71.3781875
40
0.0956324
50
138.1830164
51
160.9307633
0
ARC
8
DEFAULT_255_1_388
10
16.4873766
20
71.3889313
40
0.0792417
50
104.6371663
51
138.0036136
0
ARC
8
DEFAULT_255_1_388
10
16.4994304
20
71.3476963
40
0.1221906
50
92.0601206
51
105.2198859
0
ARC
8
DEFAULT_255_1_388
10
16.5020668
20
71.3088583
40
0.161103
50
89.9790681
51
92.5006086
0
ARC
8
DEFAULT_255_1_388
10
16.5031844
20
71.3344998
40
0.1354654
50
78.0234649
51
90.4478111
0
ARC
8
DEFAULT_255_1_388
10
16.5135429
20
71.3810203
40
0.0878096
50
55.0521508
51
78.336297
0
ARC
8
DEFAULT_255_1_388
10
16.5191963
20
71.3905168
40
0.0767913
50
42.0506198
51
54.4508489
0
ARC
8
DEFAULT_255_1_388
10
16.5039996
20
71.3765821
40
0.0974091
50
1.7493657
51
42.1498724
0
ARC
8
DEFAULT_255_1_388
10
16.4753902
20
71.3733166
40
0.1261276
50
359.9832635
51
2.8353994
0
ARC
8
DEFAULT_255_1_388
10
16.4940312
20
71.3722412
40
0.1074916
50
342.1062453
51
0.5535864
0
ARC
8
DEFAULT_255_1_388
10
16.5100736
20
71.3678197
40
0.0908695
50
316.7110111
51
341.6513114
0
ARC
8
DEFAULT_255_1_388
10
16.5176168
20
71.3610607
40
0.0807447
50
285.4398289
51
316.5320129
0
ARC
8
DEFAULT_255_1_388
10
16.5052338
20
71.4022023
40
0.1237022
50
272.3543902
51
285.8951677
0
ARC
8
DEFAULT_255_1_388
10
16.5022048
20
71.4437742
40
0.1653687
50
269.9725761
51
272.8112722
0
ARC
8
DEFAULT_255_1_388
10
16.50111
20
71.4186727
40
0.1402709
50
258.8433431
51
270.4148607
0
ARC
8
DEFAULT_255_1_388
10
16.490988
20
71.3696739
40
0.0902407
50
238.54281
51
259.1289544
0
ARC
8
DEFAULT_255_1_388
10
16.4833202
20
71.3557694
40
0.0743817
50
222.5056676
51
237.9918132
0
ARC
8
DEFAULT_255_1_388
10
16.4976795
20
71.3688295
40
0.0937918
50
184.1070774
51
222.4604165
0
ARC
8
DEFAULT_255_1_388
10
16.5279209
20
71.3731538
40
0.1242838
50
179.9419581
51
185.0970785
0
LINE
8
DEFAULT_255_1_388
10
16.8093376
20
70.5980214
11
16.8093376
21
70.6287426
0
LINE
8
DEFAULT_255_1_388
10
17.6388098
20
70.6468139
11
17.6388098
21
70.5772395
0
LINE
8
DEFAULT_255_1_388
10
17.6388098
20
70.5772395
11
16.976497
21
70.5772395
0
LINE
8
DEFAULT_255_1_388
10
17.5240571
20
70.3865874
11
17.6261599
21
70.3070737
0
LINE
8
DEFAULT_255_1_388
10
16.9819184
20
70.7145813
11
17.4716503
21
70.7145813
0
LINE
8
DEFAULT_255_1_388
10
17.4716503
20
70.7145813
11
17.4716503
21
70.7272312
0
ARC
8
DEFAULT_255_1_388
10
17.2525137
20
70.610521
40
0.4923176
50
252.326534
51
270.5809615
0
ARC
8
DEFAULT_255_1_388
10
17.2294601
20
70.527194
40
0.4059384
50
223.3000488
51
251.8562489
0
ARC
8
DEFAULT_255_1_388
10
17.2532381
20
70.5502898
40
0.4390832
50
190.9374369
51
223.3654369
0
ARC
8
DEFAULT_255_1_388
10
17.4473059
20
70.5941598
40
0.63798
50
179.6531919
51
191.4988561
0
ARC
8
DEFAULT_255_1_388
10
17.4610086
20
70.6323571
40
0.6516811
50
167.4005523
51
180.3177836
0
ARC
8
DEFAULT_255_1_388
10
17.3426758
20
70.6573853
40
0.5307402
50
154.1835149
51
167.2508278
0
ARC
8
DEFAULT_255_1_388
10
17.2716349
20
70.6947925
40
0.4505076
50
134.3150225
51
154.5315008
0
ARC
8
DEFAULT_255_1_388
10
17.2471684
20
70.716255
40
0.4180662
50
122.8617482
51
133.9707159
0
ARC
8
DEFAULT_255_1_388
10
17.2355291
20
70.7412882
40
0.3907416
50
89.8248474
51
123.4199325
0
ARC
8
DEFAULT_255_1_388
10
17.2411589
20
70.6685352
40
0.4635141
50
74.7874349
51
90.5482648
0
ARC
8
DEFAULT_255_1_388
10
17.2742053
20
70.7905987
40
0.3370565
50
39.8178888
51
74.7634383
0
ARC
8
DEFAULT_255_1_388
10
17.2165295
20
70.7456356
40
0.4101553
50
16.8990848
51
39.4830125
0
ARC
8
DEFAULT_255_1_388
10
17.0033909
20
70.6773711
40
0.6339427
50
4.9634768
51
17.2027767
0
ARC
8
DEFAULT_255_1_388
10
16.7313314
20
70.64866
40
0.9074803
50
359.8834402
51
5.2832409
0
ARC
8
DEFAULT_255_1_388
10
17.4105672
20
70.5846981
40
0.4341343
50
180.9844233
51
194.9402766
0
ARC
8
DEFAULT_255_1_388
10
17.2924838
20
70.552417
40
0.3117211
50
194.8030557
51
222.0412897
0
ARC
8
DEFAULT_255_1_388
10
17.258271
20
70.5184715
40
0.2635903
50
221.541578
51
268.8616004
0
ARC
8
DEFAULT_255_1_388
10
17.266483
20
70.594528
40
0.3398611
50
267.7321071
51
270.009808
0
ARC
8
DEFAULT_255_1_388
10
17.2684894
20
70.6172178
40
0.3625561
50
269.6921218
51
280.4122297
0
ARC
8
DEFAULT_255_1_388
10
17.2883305
20
70.5138767
40
0.2573323
50
280.2257165
51
298.633539
0
ARC
8
DEFAULT_255_1_388
10
17.3008719
20
70.4874578
40
0.2281403
50
299.0485543
51
300.4624141
0
ARC
8
DEFAULT_255_1_388
10
17.2249699
20
70.6139796
40
0.3756797
50
300.6578578
51
322.037749
0
ARC
8
DEFAULT_255_1_388
10
17.1879221
20
70.6463266
40
0.4247956
50
321.671786
51
322.3059078
0
ARC
8
DEFAULT_255_1_388
10
17.2902784
20
70.5169267
40
0.3960488
50
276.9729088
51
328.0035579
0
ARC
8
DEFAULT_255_1_388
10
17.2591254
20
70.6834609
40
0.5652345
50
269.8358003
51
278.0581296
0
ARC
8
DEFAULT_255_1_388
10
17.2335553
20
70.767282
40
0.2274263
50
89.2017936
51
117.2852353
0
ARC
8
DEFAULT_255_1_388
10
17.2395304
20
70.7625637
40
0.2343798
50
118.0546404
51
137.4544511
0
ARC
8
DEFAULT_255_1_388
10
17.2816948
20
70.7242556
40
0.2913471
50
137.5109688
51
158.8516701
0
ARC
8
DEFAULT_255_1_388
10
17.4097048
20
70.6725902
40
0.4293804
50
158.5845496
51
170.1719753
0
ARC
8
DEFAULT_255_1_388
10
17.5413384
20
70.6464519
40
0.5635533
50
169.8378964
51
173.0563877
0
ARC
8
DEFAULT_255_1_388
10
17.0128668
20
70.7039187
40
0.4593755
50
2.9089079
51
12.88469
0
ARC
8
DEFAULT_255_1_388
10
17.1670587
20
70.7402082
40
0.3009753
50
12.6957404
51
28.6405841
0
ARC
8
DEFAULT_255_1_388
10
17.2280084
20
70.7717577
40
0.232366
50
29.016559
51
41.1492981
0
ARC
8
DEFAULT_255_1_388
10
17.2508063
20
70.791608
40
0.2021373
50
41.1646967
51
85.001362
0
ARC
8
DEFAULT_255_1_388
10
17.2372067
20
70.7089775
40
0.2857091
50
83.728216
51
90.0968824
0
LINE
8
DEFAULT_255_1_388
10
18.5595419
20
70.8266232
11
18.391479
21
70.8266232
0
LINE
8
DEFAULT_255_1_388
10
17.7915122
20
70.437187
11
17.9586716
21
70.437187
0
ARC
8
DEFAULT_255_1_388
10
18.257808
20
70.3972935
40
0.1436198
50
359.3335374
51
18.5869869
0
ARC
8
DEFAULT_255_1_388
10
18.281282
20
70.4035015
40
0.1194022
50
19.3538149
51
54.6486387
0
ARC
8
DEFAULT_255_1_388
10
18.2245807
20
70.3253077
40
0.2159877
50
54.3821575
51
65.0627557
0
ARC
8
DEFAULT_255_1_388
10
18.1381154
20
70.1434032
40
0.4173927
50
64.8282172
51
71.4204388
0
ARC
8
DEFAULT_255_1_388
10
18.036605
20
69.8455782
40
0.7320403
50
71.3166092
51
75.8005927
0
ARC
8
DEFAULT_255_1_388
10
17.9419935
20
69.4810881
40
1.108605
50
75.6810806
51
78.0063886
0
ARC
8
DEFAULT_255_1_388
10
18.4424524
20
71.841253
40
1.3040363
50
254.69024
51
258.0465557
0
ARC
8
DEFAULT_255_1_388
10
18.3256393
20
71.4182742
40
0.8652254
50
249.9010634
51
254.7555005
0
ARC
8
DEFAULT_255_1_388
10
18.2127445
20
71.111668
40
0.5384962
50
243.3097375
51
249.970939
0
ARC
8
DEFAULT_255_1_388
10
18.1419859
20
70.9705721
40
0.380652
50
234.4047808
51
243.2861752
0
ARC
8
DEFAULT_255_1_388
10
18.0719495
20
70.8738645
40
0.2612502
50
220.8665526
51
234.5497192
0
ARC
8
DEFAULT_255_1_388
10
18.0334494
20
70.8388203
40
0.2092097
50
214.3063391
51
220.5075055
0
ARC
8
DEFAULT_255_1_388
10
18.0305608
20
70.8353577
40
0.2048755
50
186.9131438
51
213.9617385
0
ARC
8
DEFAULT_255_1_388
10
18.0903998
20
70.8450431
40
0.2654563
50
179.8802037
51
187.4338578
0
ARC
8
DEFAULT_255_1_388
10
18.0729962
20
70.8473049
40
0.2480581
50
132.0053393
51
180.3942351
0
ARC
8
DEFAULT_255_1_388
10
18.1468875
20
70.7790997
40
0.3483116
50
129.2317021
51
133.5294826
0
ARC
8
DEFAULT_255_1_388
10
18.1528844
20
70.7685383
40
0.360291
50
100.440976
51
128.9081567
0
ARC
8
DEFAULT_255_1_388
10
18.1836962
20
70.6239357
40
0.5080996
50
89.6985063
51
100.9029043
0
ARC
8
DEFAULT_255_1_388
10
18.1901117
20
70.6058739
40
0.5261675
50
77.6967144
51
90.4074623
0
ARC
8
DEFAULT_255_1_388
10
18.2273469
20
70.7664503
40
0.3613511
50
50.7278431
51
78.0397473
0
ARC
8
DEFAULT_255_1_388
10
18.2773512
20
70.8247173
40
0.2845966
50
25.754382
51
51.0957456
0
ARC
8
DEFAULT_255_1_388
10
18.2774879
20
70.8303311
40
0.2820785
50
359.2468358
51
24.7393861
0
ARC
8
DEFAULT_255_1_388
10
18.2454766
20
70.8271204
40
0.1460032
50
359.8048924
51
45.1543866
0
ARC
8
DEFAULT_255_1_388
10
18.19965
20
70.7879291
40
0.2061641
50
43.8053172
51
49.625485
0
ARC
8
DEFAULT_255_1_388
10
18.2005943
20
70.7880849
40
0.2054344
50
49.7979696
51
82.121802
0
ARC
8
DEFAULT_255_1_388
10
18.1872025
20
70.7153473
40
0.2793404
50
81.4458692
51
90.1707936
0
ARC
8
DEFAULT_255_1_388
10
18.1844602
20
70.6561478
40
0.3385438
50
89.6768097
51
99.1267111
0
ARC
8
DEFAULT_255_1_388
10
18.1651584
20
70.7724405
40
0.2206627
50
98.9679878
51
113.4573418
0
ARC
8
DEFAULT_255_1_388
10
18.1431264
20
70.8251193
40
0.1635691
50
113.7230234
51
127.4758155
0
ARC
8
DEFAULT_255_1_388
10
18.1241847
20
70.8476433
40
0.1341757
50
126.9086647
51
150.3160891
0
ARC
8
DEFAULT_255_1_388
10
18.1188177
20
70.853368
40
0.1266992
50
151.363328
51
180.0701537
0
ARC
8
DEFAULT_255_1_388
10
18.1498398
20
70.851023
40
0.1577364
50
179.2045432
51
180.0012892
0
ARC
8
DEFAULT_255_1_388
10
18.112951
20
70.8495515
40
0.1208564
50
179.3040542
51
198.4225767
0
ARC
8
DEFAULT_255_1_388
10
18.0913651
20
70.8439337
40
0.0986126
50
199.2893055
51
238.6036855
0
ARC
8
DEFAULT_255_1_388
10
18.1591744
20
70.9503752
40
0.2248082
50
237.9844191
51
246.8751643
0
ARC
8
DEFAULT_255_1_388
10
18.2556604
20
71.1710861
40
0.4656832
50
246.6226408
51
251.8174794
0
ARC
8
DEFAULT_255_1_388
10
18.3717072
20
71.5195909
40
0.8329993
50
251.7140983
51
255.0775146
0
ARC
8
DEFAULT_255_1_388
10
18.5066596
20
72.0222708
40
1.3534786
50
255.0370864
51
257.4701577
0
ARC
8
DEFAULT_255_1_388
10
17.9319141
20
69.4328535
40
1.298957
50
73.6835762
51
77.5015749
0
ARC
8
DEFAULT_255_1_388
10
18.0544055
20
69.8490699
40
0.8650912
50
68.7042835
51
73.7249997
0
ARC
8
DEFAULT_255_1_388
10
18.1559619
20
70.1107853
40
0.584363
50
63.5907059
51
68.6622978
0
ARC
8
DEFAULT_255_1_388
10
18.242736
20
70.2838157
40
0.3907955
50
54.7106507
51
63.7018033
0
ARC
8
DEFAULT_255_1_388
10
18.3129748
20
70.3819287
40
0.2701345
50
41.0624597
51
54.8488532
0
ARC
8
DEFAULT_255_1_388
10
18.3513526
20
70.4171439
40
0.2180695
50
34.4952722
51
40.7097584
0
ARC
8
DEFAULT_255_1_388
10
18.3566491
20
70.4226204
40
0.2106083
50
9.3761233
51
34.0834046
0
ARC
8
DEFAULT_255_1_388
10
18.283162
20
70.4085174
40
0.2854177
50
359.7695264
51
9.7660556
0
ARC
8
DEFAULT_255_1_388
10
18.3053913
20
70.4036841
40
0.2632121
50
335.8653103
51
0.8022272
0
ARC
8
DEFAULT_255_1_388
10
18.3138318
20
70.4051951
40
0.2561728
50
307.7357819
51
334.7849324
0
ARC
8
DEFAULT_255_1_388
10
18.2692959
20
70.4551553
40
0.3229737
50
307.0217048
51
308.5596894
0
ARC
8
DEFAULT_255_1_388
10
18.2397544
20
70.4993063
40
0.3760237
50
282.9361285
51
306.5649033
0
ARC
8
DEFAULT_255_1_388
10
18.1990606
20
70.6643871
40
0.5460314
50
271.1026197
51
283.2199962
0
ARC
8
DEFAULT_255_1_388
10
18.1918794
20
70.8044744
40
0.6862456
50
269.9926344
51
271.4770056
0
ARC
8
DEFAULT_255_1_388
10
18.1889365
20
70.6827633
40
0.5645418
50
259.0723633
51
270.2897324
0
ARC
8
DEFAULT_255_1_388
10
18.1650589
20
70.5570887
40
0.4366198
50
245.4965026
51
259.0225745
0
ARC
8
DEFAULT_255_1_388
10
18.1337806
20
70.4916491
40
0.3641037
50
228.9686619
51
245.7042678
0
ARC
8
DEFAULT_255_1_388
10
18.103908
20
70.4548573
40
0.3167435
50
214.4015391
51
228.6759028
0
ARC
8
DEFAULT_255_1_388
10
18.0713578
20
70.4370429
40
0.2798456
50
179.9704983
51
215.1574389
0
ARC
8
DEFAULT_255_1_388
10
18.150179
20
70.4453148
40
0.1916798
50
182.430239
51
203.0329751
0
ARC
8
DEFAULT_255_1_388
10
18.1294386
20
70.4389675
40
0.1701248
50
203.7987464
51
232.5483345
0
ARC
8
DEFAULT_255_1_388
10
18.160547
20
70.4785049
40
0.2204299
50
232.3784541
51
256.3934343
0
ARC
8
DEFAULT_255_1_388
10
18.1864618
20
70.5786359
40
0.3238512
50
256.1048329
51
268.4627478
0
ARC
8
DEFAULT_255_1_388
10
18.1917037
20
70.6690297
40
0.4143627
50
268.0734924
51
270.0121004
0
ARC
8
DEFAULT_255_1_388
10
18.1937755
20
70.6376191
40
0.3829573
50
269.7031202
51
278.8338867
0
ARC
8
DEFAULT_255_1_388
10
18.2142619
20
70.5104553
40
0.2541568
50
278.6727378
51
292.82331
0
ARC
8
DEFAULT_255_1_388
10
18.2368166
20
70.4540546
40
0.1934264
50
293.1457581
51
303.6656964
0
ARC
8
DEFAULT_255_1_388
10
18.2666239
20
70.4117159
40
0.1416713
50
303.1245849
51
321.7434683
0
ARC
8
DEFAULT_255_1_388
10
18.2875321
20
70.393378
40
0.1139081
50
322.4747616
51
1.1293039
0
LINE
8
DEFAULT_255_2_778
10
19.9765417
20
60.7218492
11
18.6536417
21
60.7218492
0
LINE
8
DEFAULT_255_2_778
10
18.6536417
20
60.7218492
11
18.6536417
21
35.5864492
0
LINE
8
DEFAULT_255_2_778
10
18.6536417
20
30.2947492
11
18.6536417
21
5.1593492
0
LINE
8
DEFAULT_255_2_778
10
18.6536417
20
5.1593492
11
19.9765417
21
5.1593492
0
LINE
8
DEFAULT_255_2_778
10
17.3307834
20
35.5864333
11
19.9765834
21
35.5864333
0
LINE
8
DEFAULT_255_2_778
10
19.9765834
20
35.5864333
11
19.9765834
21
30.2947333
0
LINE
8
DEFAULT_255_2_778
10
19.9765834
20
30.2947333
11
17.3307834
21
30.2947333
0
LINE
8
DEFAULT_255_2_778
10
17.3307834
20
30.2947333
11
17.3307834
21
35.5864333
0
LINE
8
DEFAULT_255_2_778
10
18.1245
20
30.8239666
11
18.1245
21
35.0572666
0
LINE
8
DEFAULT_255_2_778
10
17.8599167
20
34.263575
11
18.1245167
21
35.057275
0
LINE
8
DEFAULT_255_2_778
10
18.1245167
20
35.057275
11
18.3891167
21
34.263575
0
LINE
8
DEFAULT_255_2_778
10
18.3891167
20
34.263575
11
17.8599167
21
34.263575
0
LINE
8
DEFAULT_255_2_778
10
19.1828
20
35.0572666
11
19.1828
21
30.8239666
0
LINE
8
DEFAULT_255_2_778
10
18.9182167
20
31.617675
11
19.1828167
21
30.823975
0
LINE
8
DEFAULT_255_2_778
10
19.1828167
20
30.823975
11
19.4474167
21
31.617675
0
LINE
8
DEFAULT_255_2_778
10
19.4474167
20
31.617675
11
18.9182167
21
31.617675
0
LINE
8
DEFAULT_255_1_388
10
4.1862448
20
69.4674898
11
4.5603205
21
68.3823089
0
LINE
8
DEFAULT_255_1_388
10
4.5603205
20
68.3823089
11
4.9362033
21
69.4674898
0
LINE
8
DEFAULT_255_1_388
10
4.9362033
20
69.4674898
11
5.1259518
21
69.4674898
0
LINE
8
DEFAULT_255_1_388
10
5.1259518
20
69.4674898
11
4.638027
21
68.1519
0
LINE
8
DEFAULT_255_1_388
10
4.638027
20
68.1519
11
4.484421
21
68.1519
0
LINE
8
DEFAULT_255_1_388
10
4.484421
20
68.1519
11
3.9973998
21
69.4674898
0
LINE
8
DEFAULT_255_1_388
10
3.9973998
20
69.4674898
11
4.1862448
21
69.4674898
0
LINE
8
DEFAULT_255_1_388
10
5.7548327
20
69.2415987
11
5.7548327
21
68.8575838
0
LINE
8
DEFAULT_255_1_388
10
5.7548327
20
68.8575838
11
6.1216798
21
68.8575838
0
LINE
8
DEFAULT_255_1_388
10
6.1216798
20
68.8575838
11
6.1216798
21
68.6994601
0
LINE
8
DEFAULT_255_1_388
10
6.1216798
20
68.6994601
11
5.7548327
21
68.6994601
0
LINE
8
DEFAULT_255_1_388
10
5.7548327
20
68.6994601
11
5.7548327
21
68.2838204
0
LINE
8
DEFAULT_255_1_388
10
5.7548327
20
68.2838204
11
5.5867697
21
68.2838204
0
LINE
8
DEFAULT_255_1_388
10
5.5867697
20
68.2838204
11
5.5867697
21
68.6994601
0
LINE
8
DEFAULT_255_1_388
10
5.5867697
20
68.6994601
11
5.2199225
21
68.6994601
0
LINE
8
DEFAULT_255_1_388
10
5.2199225
20
68.6994601
11
5.2199225
21
68.8575838
0
LINE
8
DEFAULT_255_1_388
10
5.2199225
20
68.8575838
11
5.5867697
21
68.8575838
0
LINE
8
DEFAULT_255_1_388
10
5.5867697
20
68.8575838
11
5.5867697
21
69.2415987
0
LINE
8
DEFAULT_255_1_388
10
5.5867697
20
69.2415987
11
5.7548327
21
69.2415987
0
LINE
8
DEFAULT_255_1_388
10
21.7506342
20
68.8069842
11
21.7506342
21
68.3244808
0
LINE
8
DEFAULT_255_1_388
10
20.7368349
20
68.7464454
11
20.7368349
21
68.8611981
0
LINE
8
DEFAULT_255_1_388
10
21.7506342
20
69.0816678
11
21.5771498
21
69.0816678
0
LINE
8
DEFAULT_255_1_388
10
20.9112228
20
68.8657159
11
20.9112228
21
68.7581917
0
LINE
8
DEFAULT_255_1_388
10
21.5780534
20
68.3705626
11
21.5780534
21
68.6660282
0
LINE
8
DEFAULT_255_1_388
10
21.5780534
20
68.6660282
11
21.2735521
21
68.6660282
0
LINE
8
DEFAULT_255_1_388
10
21.2735521
20
68.6660282
11
21.2735521
21
68.8069842
0
LINE
8
DEFAULT_255_1_388
10
21.2735521
20
68.8069842
11
21.7506342
21
68.8069842
0
ARC
8
DEFAULT_255_1_388
10
21.4320942
20
68.5487284
40
0.3895571
50
295.8437277
51
324.8549962
0
ARC
8
DEFAULT_255_1_388
10
21.3853325
20
68.6333619
40
0.4861381
50
291.5691164
51
296.4556269
0
ARC
8
DEFAULT_255_1_388
10
21.3278327
20
68.7869801
40
0.6501442
50
278.6622213
51
291.3047061
0
ARC
8
DEFAULT_255_1_388
10
21.2896359
20
69.0286557
40
0.8948168
50
270.0200506
51
278.7494673
0
ARC
8
DEFAULT_255_1_388
10
21.2852563
20
69.2132453
40
1.0794166
50
270.0022372
51
270.2490917
0
ARC
8
DEFAULT_255_1_388
10
21.2810456
20
68.7173827
40
0.5835695
50
253.5785313
51
270.4175629
0
ARC
8
DEFAULT_255_1_388
10
21.2615452
20
68.6418625
40
0.5056241
50
238.8203954
51
253.2788387
0
ARC
8
DEFAULT_255_1_388
10
21.2593367
20
68.6361224
40
0.4995712
50
206.7883476
51
238.696262
0
ARC
8
DEFAULT_255_1_388
10
21.3468763
20
68.6885847
40
0.6014056
50
206.1137778
51
207.4912776
0
ARC
8
DEFAULT_255_1_388
10
21.4135599
20
68.7169284
40
0.6737692
50
188.6922336
51
205.782076
0
ARC
8
DEFAULT_255_1_388
10
21.6223958
20
68.7524455
40
0.8855812
50
180.3881972
51
188.9218085
0
ARC
8
DEFAULT_255_1_388
10
21.7605116
20
68.8675622
40
1.0236965
50
170.2024645
51
180.3561986
0
ARC
8
DEFAULT_255_1_388
10
21.4046266
20
68.9312101
40
0.6621746
50
154.2856519
51
170.3893388
0
ARC
8
DEFAULT_255_1_388
10
21.260423
20
68.9972192
40
0.5036209
50
139.8400879
51
153.9334639
0
ARC
8
DEFAULT_255_1_388
10
21.2200133
20
69.0295716
40
0.4518751
50
98.4190017
51
139.6707015
0
ARC
8
DEFAULT_255_1_388
10
21.2627101
20
68.8219755
40
0.6635912
50
89.7660128
51
99.4415389
0
ARC
8
DEFAULT_255_1_388
10
21.2700497
20
68.8293517
40
0.6562258
50
78.0552044
51
90.4042252
0
ARC
8
DEFAULT_255_1_388
10
21.3155561
20
69.0339661
40
0.4466287
50
54.6380186
51
78.3338577
0
ARC
8
DEFAULT_255_1_388
10
21.3369859
20
69.0700444
40
0.4048184
50
50.0313964
51
54.1562739
0
ARC
8
DEFAULT_255_1_388
10
21.3248753
20
69.0591798
40
0.4209308
50
18.1092229
51
49.7179911
0
ARC
8
DEFAULT_255_1_388
10
21.1609833
20
68.9991399
40
0.5953982
50
7.967396
51
18.698492
0
ARC
8
DEFAULT_255_1_388
10
21.1779094
20
69.0130236
40
0.4050986
50
9.7558763
51
27.3214087
0
ARC
8
DEFAULT_255_1_388
10
21.3047559
20
69.0764087
40
0.2633168
50
27.736147
51
84.5257861
0
ARC
8
DEFAULT_255_1_388
10
21.2678968
20
68.8914988
40
0.4513019
50
82.1064239
51
90.1997295
0
ARC
8
DEFAULT_255_1_388
10
21.2622985
20
68.9486501
40
0.3941684
50
89.4148952
51
105.5824837
0
ARC
8
DEFAULT_255_1_388
10
21.2333865
20
69.0539043
40
0.2850167
50
105.6678541
51
144.2649156
0
ARC
8
DEFAULT_255_1_388
10
21.3338758
20
68.9824024
40
0.4083468
50
144.3560675
51
162.8564185
0
ARC
8
DEFAULT_255_1_388
10
21.56832
20
68.9071083
40
0.6545749
50
162.6076338
51
173.6779811
0
ARC
8
DEFAULT_255_1_388
10
21.9127315
20
68.8652422
40
1.0015089
50
173.4670996
51
179.9729015
0
ARC
8
DEFAULT_255_1_388
10
21.6980186
20
68.7534636
40
0.78681
50
179.6556955
51
190.007958
0
ARC
8
DEFAULT_255_1_388
10
21.4374468
20
68.705666
40
0.5218997
50
189.8117884
51
206.6795375
0
ARC
8
DEFAULT_255_1_388
10
21.3423914
20
68.6613514
40
0.4170788
50
207.1031171
51
217.7074698
0
ARC
8
DEFAULT_255_1_388
10
21.2710344
20
68.5992596
40
0.3226945
50
216.7345117
51
265.6812141
0
ARC
8
DEFAULT_255_1_388
10
21.2857486
20
68.701003
40
0.4253149
50
264.7367524
51
270.0610826
0
ARC
8
DEFAULT_255_1_388
10
21.2883672
20
69.0205173
40
0.7448321
50
269.8334494
51
276.0538364
0
ARC
8
DEFAULT_255_1_388
10
21.3116534
20
68.8065924
40
0.5296446
50
275.9894423
51
284.4615914
0
ARC
8
DEFAULT_255_1_388
10
21.3338047
20
68.713357
40
0.4338353
50
284.7038488
51
286.4938196
0
ARC
8
DEFAULT_255_1_388
10
21.3797196
20
68.5654371
40
0.2789738
50
286.0770429
51
304.2629628
0
ARC
8
DEFAULT_255_1_388
10
21.3947354
20
68.540868
40
0.2502188
50
304.5886247
51
317.1074126
0
LINE
8
DEFAULT_255_1_388
10
23.0508634
20
69.4674898
11
23.0508634
21
68.1519
0
LINE
8
DEFAULT_255_1_388
10
23.0508634
20
68.1519
11
22.8764755
21
68.1519
0
LINE
8
DEFAULT_255_1_388
10
22.8764755
20
68.1519
11
22.2141627
21
69.1656993
0
LINE
8
DEFAULT_255_1_388
10
22.2141627
20
69.1656993
11
22.2141627
21
68.1519
0
LINE
8
DEFAULT_255_1_388
10
22.2141627
20
68.1519
11
22.0397748
21
68.1519
0
LINE
8
DEFAULT_255_1_388
10
22.0397748
20
68.1519
11
22.0397748
21
69.4674898
0
LINE
8
DEFAULT_255_1_388
10
22.0397748
20
69.4674898
11
22.2141627
21
69.4674898
0
LINE
8
DEFAULT_255_1_388
10
22.2141627
20
69.4674898
11
22.8782826
21
68.4491727
0
LINE
8
DEFAULT_255_1_388
10
22.8782826
20
68.4491727
11
22.8782826
21
69.4674898
0
LINE
8
DEFAULT_255_1_388
10
22.8782826
20
69.4674898
11
23.0508634
21
69.4674898
0
LINE
8
DEFAULT_255_1_388
10
23.7231154
20
68.1519
11
23.3589789
21
68.1519
0
LINE
8
DEFAULT_255_1_388
10
23.3589789
20
68.1519
11
23.3589789
21
69.4674898
0
LINE
8
DEFAULT_255_1_388
10
23.3589789
20
69.4674898
11
23.7303439
21
69.4674898
0
LINE
8
DEFAULT_255_1_388
10
24.3104323
20
68.8539696
11
24.3104323
21
68.7699381
0
LINE
8
DEFAULT_255_1_388
10
23.7348617
20
69.3247267
11
23.5324633
21
69.3247267
0
LINE
8
DEFAULT_255_1_388
10
23.5324633
20
69.3247267
11
23.5324633
21
68.2937596
0
LINE
8
DEFAULT_255_1_388
10
23.5324633
20
68.2937596
11
23.7149833
21
68.2937596
0
LINE
8
DEFAULT_255_1_388
10
24.138755
20
68.7735523
11
24.138755
21
68.8503553
0
ARC
8
DEFAULT_255_1_388
10
23.7347234
20
68.8076436
40
0.6598608
50
75.4100343
51
90.3802731
0
ARC
8
DEFAULT_255_1_388
10
23.7605479
20
68.9152691
40
0.5492049
50
60.1455157
51
75.1889627
0
ARC
8
DEFAULT_255_1_388
10
23.7784071
20
68.9463914
40
0.5133226
50
26.525419
51
60.1451222
0
ARC
8
DEFAULT_255_1_388
10
23.6523857
20
68.8795642
40
0.6559324
50
7.4029944
51
26.832209
0
ARC
8
DEFAULT_255_1_388
10
23.4730254
20
68.8516229
40
0.8374103
50
0.1605597
51
7.7176135
0
ARC
8
DEFAULT_255_1_388
10
23.4914654
20
68.7656321
40
0.8189782
50
348.7289744
51
0.30125
0
ARC
8
DEFAULT_255_1_388
10
23.6778118
20
68.7286156
40
0.628991
50
333.0706936
51
348.7181455
0
ARC
8
DEFAULT_255_1_388
10
23.7865747
20
68.6695449
40
0.5052808
50
299.2531435
51
333.4571133
0
ARC
8
DEFAULT_255_1_388
10
23.7459777
20
68.7466629
40
0.5924066
50
278.1072193
51
299.0340218
0
ARC
8
DEFAULT_255_1_388
10
23.7171826
20
68.9162979
40
0.7644209
50
270.4446841
51
278.4508355
0
ARC
8
DEFAULT_255_1_388
10
23.719531
20
68.81173
40
0.5179903
50
269.4969684
51
284.0204874
0
ARC
8
DEFAULT_255_1_388
10
23.7595028
20
68.6581415
40
0.3592968
50
283.7699076
51
318.1557121
0
ARC
8
DEFAULT_255_1_388
10
23.7215573
20
68.6865399
40
0.4065308
50
318.7417595
51
343.687252
0
ARC
8
DEFAULT_255_1_388
10
23.5186152
20
68.7499275
40
0.6191194
50
343.3324891
51
355.8548594
0
ARC
8
DEFAULT_255_1_388
10
23.282519
20
68.7723719
40
0.856237
50
355.4988754
51
0.0789913
0
ARC
8
DEFAULT_255_1_388
10
23.3705989
20
68.855108
40
0.7681709
50
359.6455047
51
9.8607559
0
ARC
8
DEFAULT_255_1_388
10
23.6361712
20
68.9030664
40
0.498312
50
9.6573037
51
26.1931522
0
ARC
8
DEFAULT_255_1_388
10
23.7405787
20
68.9515587
40
0.3832303
50
26.5777895
51
40.1533752
0
ARC
8
DEFAULT_255_1_388
10
23.7693452
20
68.974002
40
0.3467742
50
40.3839958
51
80.1430923
0
ARC
8
DEFAULT_255_1_388
10
23.7325708
20
68.8109486
40
0.5137832
50
79.2153636
51
89.7445174
0
LINE
8
DEFAULT_255_1_388
10
24.3848819
20
5.9674898
11
24.3848819
21
5.8735191
0
LINE
8
DEFAULT_255_1_388
10
24.3848819
20
5.8735191
11
23.8400325
21
4.6519
0
LINE
8
DEFAULT_255_1_388
10
23.8400325
20
4.6519
11
23.664741
21
4.6519
0
LINE
8
DEFAULT_255_1_388
10
23.664741
20
4.6519
11
24.2077833
21
5.830148
0
LINE
8
DEFAULT_255_1_388
10
24.2077833
20
5.830148
11
23.4957745
21
5.830148
0
LINE
8
DEFAULT_255_1_388
10
23.4957745
20
5.830148
11
23.4957745
21
5.9674898
0
LINE
8
DEFAULT_255_1_388
10
23.4957745
20
5.9674898
11
24.3848819
21
5.9674898
0
LINE
8
DEFAULT_255_1_388
10
24.1617015
20
13.9058934
11
24.1915191
21
13.9058934
0
LINE
8
DEFAULT_255_1_388
10
24.1915191
20
13.9058934
11
24.1915191
21
13.7640338
0
LINE
8
DEFAULT_255_1_388
10
24.1915191
20
13.7640338
11
24.1607979
21
13.7640338
0
LINE
8
DEFAULT_255_1_388
10
23.5454705
20
13.0899747
11
23.5454705
21
13.1541278
0
LINE
8
DEFAULT_255_1_388
10
23.7135335
20
13.1324422
11
23.7135335
21
13.0709999
0
ARC
8
DEFAULT_255_1_388
10
24.1666871
20
13.2017826
40
0.562282
50
90.6001079
51
104.5146616
0
ARC
8
DEFAULT_255_1_388
10
24.122983
20
13.36431
40
0.3939917
50
104.2855758
51
133.8630124
0
ARC
8
DEFAULT_255_1_388
10
24.1414083
20
13.3521243
40
0.4155734
50
134.5304124
51
161.6210222
0
ARC
8
DEFAULT_255_1_388
10
24.3274015
20
13.2865421
40
0.6127682
50
161.2850533
51
174.2074364
0
ARC
8
DEFAULT_255_1_388
10
24.4863582
20
13.2646437
40
0.7731446
50
173.7817938
51
174.9251711
0
ARC
8
DEFAULT_255_1_388
10
23.9737775
20
13.109127
40
0.3412588
50
95.8332067
51
138.995412
0
ARC
8
DEFAULT_255_1_388
10
23.9989056
20
12.9652695
40
0.4870358
50
89.8755506
51
97.0540979
0
ARC
8
DEFAULT_255_1_388
10
24.0042445
20
13.0592841
40
0.3930432
50
71.6407016
51
90.6240821
0
ARC
8
DEFAULT_255_1_388
10
24.0211838
20
13.1216433
40
0.3285421
50
39.6368051
51
71.0190743
0
ARC
8
DEFAULT_255_1_388
10
23.9495746
20
13.0597586
40
0.4231706
50
10.6588054
51
39.9044509
0
ARC
8
DEFAULT_255_1_388
10
23.7754291
20
13.0219223
40
0.60133
50
359.6827842
51
11.1326896
0
ARC
8
DEFAULT_255_1_388
10
23.7709627
20
13.0139715
40
0.6058047
50
347.2485908
51
0.4371098
0
ARC
8
DEFAULT_255_1_388
10
23.9585413
20
12.9688379
40
0.4128987
50
318.1408565
51
347.6118497
0
ARC
8
DEFAULT_255_1_388
10
23.9951009
20
12.9387903
40
0.3656244
50
275.6342406
51
317.824739
0
ARC
8
DEFAULT_255_1_388
10
23.970253
20
13.0849827
40
0.513655
50
269.8872513
51
276.7916069
0
ARC
8
DEFAULT_255_1_388
10
23.9640723
20
12.9696181
40
0.398323
50
246.9139443
51
270.7436787
0
ARC
8
DEFAULT_255_1_388
10
23.9647919
20
12.9536044
40
0.3839368
50
218.1665534
51
245.8780431
0
ARC
8
DEFAULT_255_1_388
10
24.0637291
20
13.0363903
40
0.5128958
50
191.4115343
51
218.6077624
0
ARC
8
DEFAULT_255_1_388
10
24.2817607
20
13.0852777
40
0.7363054
50
179.6344971
51
191.7836758
0
ARC
8
DEFAULT_255_1_388
10
24.9097482
20
13.1616495
40
1.3642984
50
171.4523743
51
180.3158856
0
ARC
8
DEFAULT_255_1_388
10
24.4153209
20
13.2385895
40
0.8639311
50
157.9802296
51
171.6246761
0
ARC
8
DEFAULT_255_1_388
10
24.1662559
20
13.3379038
40
0.5958004
50
141.4299236
51
157.8541251
0
ARC
8
DEFAULT_255_1_388
10
24.0940643
20
13.3889746
40
0.5075416
50
102.871586
51
140.8564533
0
ARC
8
DEFAULT_255_1_388
10
24.1669195
20
13.1144943
40
0.7914163
50
90.377773
51
103.5868422
0
ARC
8
DEFAULT_255_1_388
10
23.9713717
20
13.0464543
40
0.2667015
50
89.8751238
51
126.2072139
0
ARC
8
DEFAULT_255_1_388
10
23.9765188
20
13.0290847
40
0.2838229
50
124.9742447
51
144.8960197
0
ARC
8
DEFAULT_255_1_388
10
23.9567433
20
13.0451981
40
0.2583845
50
145.2974778
51
160.2660922
0
ARC
8
DEFAULT_255_1_388
10
24.3023921
20
13.0674151
40
0.5888695
50
179.6512124
51
190.285571
0
ARC
8
DEFAULT_255_1_388
10
24.1118401
20
13.0314968
40
0.3949683
50
190.0944895
51
207.5099647
0
ARC
8
DEFAULT_255_1_388
10
24.0481982
20
13.0012177
40
0.3245464
50
207.9585471
51
216.325377
0
ARC
8
DEFAULT_255_1_388
10
24.0099619
20
12.9697712
40
0.2751259
50
215.7661336
51
232.5457193
0
ARC
8
DEFAULT_255_1_388
10
23.9668735
20
12.9150273
40
0.2054668
50
232.8005815
51
270.6605497
0
ARC
8
DEFAULT_255_1_388
10
23.972016
20
12.9559853
40
0.2464268
50
269.3550767
51
288.474612
0
ARC
8
DEFAULT_255_1_388
10
23.9824667
20
12.9166721
40
0.2058436
50
289.1831976
51
322.9685307
0
ARC
8
DEFAULT_255_1_388
10
23.9136768
20
12.9709279
40
0.2934408
50
322.6007085
51
346.5183319
0
ARC
8
DEFAULT_255_1_388
10
23.7834524
20
13.0041434
40
0.4278249
50
346.2584622
51
358.7739592
0
ARC
8
DEFAULT_255_1_388
10
23.66831
20
13.0103829
40
0.5430876
50
358.3757628
51
0.0082477
0
ARC
8
DEFAULT_255_1_388
10
23.7539918
20
13.0134856
40
0.4574157
50
359.6211417
51
11.28403
0
ARC
8
DEFAULT_255_1_388
10
23.8976524
20
13.0434535
40
0.3106708
50
11.0483152
51
31.8145585
0
ARC
8
DEFAULT_255_1_388
10
23.9324229
20
13.0623045
40
0.2711963
50
32.3028554
51
38.0820598
0
ARC
8
DEFAULT_255_1_388
10
23.9797462
20
13.1051717
40
0.2075566
50
36.8249851
51
85.741667
0
ARC
8
DEFAULT_255_1_388
10
23.9721875
20
13.0488065
40
0.2643487
50
85.0150021
51
90.050843
0
LINE
8
DEFAULT_255_1_388
10
23.7460618
20
21.1521666
11
23.6123343
21
21.1865021
0
LINE
8
DEFAULT_255_1_388
10
23.6123343
20
21.1865021
11
23.679198
21
21.8424898
0
LINE
8
DEFAULT_255_1_388
10
23.679198
20
21.8424898
11
24.3532571
21
21.8424898
0
LINE
8
DEFAULT_255_1_388
10
24.3532571
20
21.8424898
11
24.3532571
21
21.6879803
0
LINE
8
DEFAULT_255_1_388
10
24.3532571
20
21.6879803
11
23.8210577
21
21.6879803
0
LINE
8
DEFAULT_255_1_388
10
23.8210577
20
21.6879803
11
23.7813008
21
21.3292652
0
LINE
8
DEFAULT_255_1_388
10
23.5653489
20
20.8729652
11
23.7234727
21
20.8729652
0
LINE
8
DEFAULT_255_1_388
10
23.7903365
20
21.1883092
11
23.7460618
21
21.1521666
0
ARC
8
DEFAULT_255_1_388
10
23.9899622
20
20.9715241
40
0.4141476
50
93.7181681
51
120.253934
0
ARC
8
DEFAULT_255_1_388
10
24.0005674
20
20.8806284
40
0.5055616
50
89.9660471
51
94.2495185
0
ARC
8
DEFAULT_255_1_388
10
24.0051496
20
20.9469154
40
0.4392953
50
73.8045384
51
90.5585736
0
ARC
8
DEFAULT_255_1_388
10
24.0315754
20
21.043452
40
0.3392225
50
41.3071072
51
73.543002
0
ARC
8
DEFAULT_255_1_388
10
23.9847574
20
21.0031461
40
0.4009977
50
13.5075837
51
41.2174839
0
ARC
8
DEFAULT_255_1_388
10
23.8000671
20
20.9547907
40
0.5918864
50
1.1330171
51
13.8830737
0
ARC
8
DEFAULT_255_1_388
10
23.6404317
20
20.9462522
40
0.7516787
50
359.9925091
51
1.5431298
0
ARC
8
DEFAULT_255_1_388
10
23.7848932
20
20.9416027
40
0.6072343
50
347.8572712
51
0.4294349
0
ARC
8
DEFAULT_255_1_388
10
23.9818066
20
20.8969898
40
0.4053482
50
323.6727442
51
348.1674594
0
ARC
8
DEFAULT_255_1_388
10
24.0149031
20
20.8768175
40
0.3667495
50
316.8171818
51
323.1486802
0
ARC
8
DEFAULT_255_1_388
10
24.0218155
20
20.8726612
40
0.358869
50
281.839603
51
316.5458142
0
ARC
8
DEFAULT_255_1_388
10
23.9795442
20
21.0476363
40
0.5388223
50
269.5770964
51
282.4214641
0
ARC
8
DEFAULT_255_1_388
10
23.9715363
20
21.023593
40
0.5147801
50
256.2425863
51
270.4486481
0
ARC
8
DEFAULT_255_1_388
10
23.9378891
20
20.8886124
40
0.3756708
50
228.9024379
51
256.33135
0
ARC
8
DEFAULT_255_1_388
10
23.9295871
20
20.8755054
40
0.360344
50
193.7536029
51
228.5272638
0
ARC
8
DEFAULT_255_1_388
10
24.0688436
20
20.9163463
40
0.5053599
50
184.9244437
51
194.4976052
0
ARC
8
DEFAULT_255_1_388
10
24.0905077
20
20.9203722
40
0.3700839
50
187.3596909
51
198.6733728
0
ARC
8
DEFAULT_255_1_388
10
23.9724321
20
20.8794373
40
0.2451195
50
198.4453795
51
217.7945479
0
ARC
8
DEFAULT_255_1_388
10
23.9391493
20
20.8558563
40
0.2043754
50
218.2887146
51
228.5613203
0
ARC
8
DEFAULT_255_1_388
10
23.95015
20
20.8706902
40
0.2227819
50
228.9652423
51
258.1237049
0
ARC
8
DEFAULT_255_1_388
10
23.9732937
20
20.9697964
40
0.3245374
50
257.7260585
51
270.4013717
0
ARC
8
DEFAULT_255_1_388
10
23.9783435
20
20.9197255
40
0.2744726
50
269.4204315
51
286.420998
0
ARC
8
DEFAULT_255_1_388
10
23.9950491
20
20.8590705
40
0.2115721
50
286.7250065
51
320.6004665
0
ARC
8
DEFAULT_255_1_388
10
23.9519407
20
20.8940527
40
0.2670878
50
320.6712228
51
344.5440474
0
ARC
8
DEFAULT_255_1_388
10
23.821812
20
20.9322394
40
0.4026927
50
344.241448
51
356.735803
0
ARC
8
DEFAULT_255_1_388
10
23.6814428
20
20.9438656
40
0.5435085
50
356.3547471
51
0.0507222
0
ARC
8
DEFAULT_255_1_388
10
23.8316693
20
20.9473812
40
0.3932934
50
359.5579289
51
12.9534322
0
ARC
8
DEFAULT_255_1_388
10
23.9503533
20
20.9761586
40
0.2711827
50
12.6489751
51
41.608121
0
ARC
8
DEFAULT_255_1_388
10
23.9762693
20
20.9981946
40
0.2371737
50
41.7851122
51
85.9892156
0
ARC
8
DEFAULT_255_1_388
10
23.9624003
20
20.9066738
40
0.3295244
50
84.6965848
51
90.0672125
0
ARC
8
DEFAULT_255_1_388
10
23.959757
20
20.8315118
40
0.4046926
50
89.6804991
51
99.161352
0
ARC
8
DEFAULT_255_1_388
10
23.9366579
20
20.9695848
40
0.2647044
50
98.9836248
51
113.8905702
0
ARC
8
DEFAULT_255_1_388
10
23.9108254
20
21.0305118
40
0.1985386
50
114.195234
51
127.3641866
0
LINE
8
DEFAULT_255_1_388
10
23.9766151
20
29.7799898
11
23.9766151
21
28.906243
0
LINE
8
DEFAULT_255_1_388
10
23.9766151
20
28.906243
11
24.1591352
21
28.906243
0
LINE
8
DEFAULT_255_1_388
10
24.1591352
20
28.906243
11
24.1591352
21
28.7698048
0
LINE
8
DEFAULT_255_1_388
10
24.1591352
20
28.7698048
11
23.9766151
21
28.7698048
0
LINE
8
DEFAULT_255_1_388
10
23.9766151
20
28.7698048
11
23.9766151
21
28.4644
0
LINE
8
DEFAULT_255_1_388
10
23.9766151
20
28.4644
11
23.8085521
21
28.4644
0
LINE
8
DEFAULT_255_1_388
10
23.8085521
20
28.4644
11
23.8085521
21
28.7698048
0
LINE
8
DEFAULT_255_1_388
10
23.8085521
20
28.7698048
11
23.2094889
21
28.7698048
0
LINE
8
DEFAULT_255_1_388
10
23.2094889
20
28.7698048
11
23.2094889
21
28.8682933
0
LINE
8
DEFAULT_255_1_388
10
23.2094889
20
28.8682933
11
23.7986129
21
29.7799898
0
LINE
8
DEFAULT_255_1_388
10
23.7986129
20
29.7799898
11
23.9766151
21
29.7799898
0
LINE
8
DEFAULT_255_1_388
10
23.7886737
20
29.5152455
11
23.3992375
21
28.906243
0
LINE
8
DEFAULT_255_1_388
10
23.3992375
20
28.906243
11
23.8085521
21
28.906243
0
LINE
8
DEFAULT_255_1_388
10
23.8085521
20
28.906243
11
23.8085521
21
29.551388
0
LINE
8
DEFAULT_255_1_388
10
23.8085521
20
29.551388
11
23.7886737
21
29.5152455
0
LINE
8
DEFAULT_255_1_388
10
23.7785901
20
37.0045775
11
23.7785901
21
37.1410157
0
LINE
8
DEFAULT_255_1_388
10
23.7785901
20
37.1410157
11
23.9041856
21
37.1410157
0
LINE
8
DEFAULT_255_1_388
10
23.6900408
20
37.3723282
11
23.5228814
21
37.3723282
0
LINE
8
DEFAULT_255_1_388
10
23.5111351
20
36.7488688
11
23.679198
21
36.7488688
0
LINE
8
DEFAULT_255_1_388
10
23.9041856
20
37.0045775
11
23.7785901
21
37.0045775
0
ARC
8
DEFAULT_255_1_388
10
23.9009082
20
37.5226922
40
0.3816905
50
270.491971
51
281.8953028
0
ARC
8
DEFAULT_255_1_388
10
23.9280509
20
37.3987199
40
0.2547877
50
281.6690378
51
301.2943765
0
ARC
8
DEFAULT_255_1_388
10
23.9471961
20
37.3636926
40
0.2149197
50
301.7834992
51
311.754567
0
ARC
8
DEFAULT_255_1_388
10
23.9575002
20
37.352265
40
0.1995326
50
311.7325027
51
354.2803031
0
ARC
8
DEFAULT_255_1_388
10
23.8757418
20
37.366328
40
0.2823461
50
353.0941646
51
0.1174696
0
ARC
8
DEFAULT_255_1_388
10
23.8238976
20
37.3716874
40
0.3342238
50
359.1804452
51
15.0452323
0
ARC
8
DEFAULT_255_1_388
10
23.9753034
20
37.4158546
40
0.1765747
50
13.957816
51
77.6713812
0
ARC
8
DEFAULT_255_1_388
10
23.931827
20
37.2600464
40
0.3381982
50
76.111571
51
90.7028736
0
ARC
8
DEFAULT_255_1_388
10
23.9251682
20
37.290825
40
0.3074046
50
89.5321574
51
103.5319393
0
ARC
8
DEFAULT_255_1_388
10
23.9026066
20
37.3807443
40
0.2147041
50
103.2930114
51
133.5619756
0
ARC
8
DEFAULT_255_1_388
10
23.8976007
20
37.3874351
40
0.2064084
50
133.8349761
51
173.5343225
0
ARC
8
DEFAULT_255_1_388
10
23.9789665
20
37.3730144
40
0.2889266
50
172.5097183
51
180.1360699
0
ARC
8
DEFAULT_255_1_388
10
23.8719429
20
37.376888
40
0.3490913
50
155.3483706
51
180.7484035
0
ARC
8
DEFAULT_255_1_388
10
23.8664404
20
37.3736519
40
0.3454798
50
131.5745177
51
154.4799474
0
ARC
8
DEFAULT_255_1_388
10
23.9016687
20
37.3380422
40
0.3955058
50
96.9874487
51
131.9690874
0
ARC
8
DEFAULT_255_1_388
10
23.926358
20
37.1979407
40
0.537622
50
89.8592909
51
97.7827481
0
ARC
8
DEFAULT_255_1_388
10
23.9317689
20
37.168436
40
0.5671399
50
78.3654493
51
90.4132586
0
ARC
8
DEFAULT_255_1_388
10
23.972033
20
37.3550918
40
0.3762034
50
56.6229818
51
78.6387103
0
ARC
8
DEFAULT_255_1_388
10
23.9962159
20
37.3973846
40
0.3275964
50
47.0254604
51
56.085558
0
ARC
8
DEFAULT_255_1_388
10
23.998441
20
37.4018189
40
0.3228382
50
10.9207523
51
46.777927
0
ARC
8
DEFAULT_255_1_388
10
23.8450004
20
37.3663401
40
0.4802559
50
359.6364235
51
11.6087615
0
ARC
8
DEFAULT_255_1_388
10
24.051417
20
37.3646404
40
0.273833
50
332.3549969
51
359.7179765
0
ARC
8
DEFAULT_255_1_388
10
23.978257
20
37.3993285
40
0.3547505
50
325.2332381
51
332.8746682
0
ARC
8
DEFAULT_255_1_388
10
23.9954153
20
37.3873763
40
0.3338396
50
292.9803892
51
325.2391113
0
ARC
8
DEFAULT_255_1_388
10
23.9643349
20
37.4478679
40
0.4016959
50
292.542178
51
293.6931461
0
ARC
8
DEFAULT_255_1_388
10
24.0086921
20
36.7213036
40
0.372079
50
57.643292
51
72.8626085
0
ARC
8
DEFAULT_255_1_388
10
24.0485755
20
36.7859273
40
0.2961455
50
36.7246661
51
57.4701329
0
ARC
8
DEFAULT_255_1_388
10
24.0472912
20
36.787347
40
0.2963321
50
8.054535
51
36.3561529
0
ARC
8
DEFAULT_255_1_388
10
23.9502585
20
36.7699073
40
0.3948682
50
359.8316595
51
8.5873361
0
ARC
8
DEFAULT_255_1_388
10
23.9080059
20
36.764497
40
0.4371398
50
343.9831631
51
0.557075
0
ARC
8
DEFAULT_255_1_388
10
24.0077108
20
36.7371963
40
0.3337749
50
311.6358204
51
343.7652116
0
ARC
8
DEFAULT_255_1_388
10
23.9651362
20
36.7851955
40
0.3979351
50
279.7829743
51
311.625622
0
ARC
8
DEFAULT_255_1_388
10
23.9312497
20
36.9468642
40
0.5630417
50
269.7285092
51
280.3857694
0
ARC
8
DEFAULT_255_1_388
10
23.924281
20
36.9422241
40
0.5584119
50
256.6827433
51
270.4412869
0
ARC
8
DEFAULT_255_1_388
10
23.8861797
20
36.7864698
40
0.3980715
50
229.4223821
51
256.8554507
0
ARC
8
DEFAULT_255_1_388
10
23.839535
20
36.7339683
40
0.3278564
50
181.8183354
51
229.6455015
0
ARC
8
DEFAULT_255_1_388
10
23.956496
20
36.7486825
40
0.4453611
50
179.9760419
51
183.2330638
0
ARC
8
DEFAULT_255_1_388
10
23.9371512
20
36.7463781
40
0.2579652
50
179.4467996
51
196.2871626
0
ARC
8
DEFAULT_255_1_388
10
23.8822966
20
36.7313709
40
0.2011057
50
196.5661293
51
227.7059371
0
ARC
8
DEFAULT_255_1_388
10
23.9007573
20
36.7520155
40
0.2287994
50
227.7653015
51
257.8763321
0
ARC
8
DEFAULT_255_1_388
10
23.9260656
20
36.8580961
40
0.3378385
50
257.4583525
51
270.4267406
0
ARC
8
DEFAULT_255_1_388
10
23.9311906
20
36.890723
40
0.3704652
50
269.5965319
51
280.8788143
0
ARC
8
DEFAULT_255_1_388
10
23.9570134
20
36.7617529
40
0.2389415
50
280.6347277
51
299.8594068
0
ARC
8
DEFAULT_255_1_388
10
23.9784903
20
36.7209736
40
0.19289
50
300.3575552
51
314.5515667
0
ARC
8
DEFAULT_255_1_388
10
23.9691579
20
36.7278025
40
0.204312
50
315.0730962
51
345.0429362
0
ARC
8
DEFAULT_255_1_388
10
23.8653087
20
36.7580539
40
0.31246
50
344.598526
51
357.9270698
0
ARC
8
DEFAULT_255_1_388
10
23.7643391
20
36.7649705
40
0.4136265
50
357.4755098
51
0.0224936
0
ARC
8
DEFAULT_255_1_388
10
23.8796269
20
36.7677099
40
0.2983498
50
359.5051035
51
13.4236939
0
ARC
8
DEFAULT_255_1_388
10
23.9771359
20
36.7926637
40
0.1977186
50
12.9497905
51
48.7550905
0
ARC
8
DEFAULT_255_1_388
10
23.9566281
20
36.7646373
40
0.2323321
50
49.509109
51
72.1832965
0
ARC
8
DEFAULT_255_1_388
10
23.9163749
20
36.6451632
40
0.358397
50
71.9008458
51
84.3555134
0
ARC
8
DEFAULT_255_1_388
10
23.8982144
20
36.4919712
40
0.512641
50
84.019632
51
89.3326067
0
LINE
8
DEFAULT_255_1_388
10
24.3975318
20
44.4758382
11
24.3975318
21
44.3394
0
LINE
8
DEFAULT_255_1_388
10
24.3975318
20
44.3394
11
23.5355313
21
44.3394
0
LINE
8
DEFAULT_255_1_388
10
23.5355313
20
44.3394
11
23.5355313
21
44.4595741
0
LINE
8
DEFAULT_255_1_388
10
23.5355313
20
44.4595741
11
23.9909278
21
44.9655702
0
LINE
8
DEFAULT_255_1_388
10
23.6773909
20
45.2673607
11
23.5102315
21
45.2673607
0
LINE
8
DEFAULT_255_1_388
10
24.0894163
20
44.858046
11
23.7370262
21
44.4758382
0
LINE
8
DEFAULT_255_1_388
10
23.7370262
20
44.4758382
11
24.3975318
21
44.4758382
0
ARC
8
DEFAULT_255_1_388
10
22.4733337
20
46.3075983
40
2.0258655
50
318.5132526
51
320.7829045
0
ARC
8
DEFAULT_255_1_388
10
23.0681294
20
45.8234929
40
1.2589638
50
320.7372878
51
323.9739031
0
ARC
8
DEFAULT_255_1_388
10
23.5090226
20
45.5040554
40
0.7145141
50
323.8962701
51
328.64194
0
ARC
8
DEFAULT_255_1_388
10
23.7392484
20
45.3620545
40
0.4440242
50
328.8294576
51
331.7891185
0
ARC
8
DEFAULT_255_1_388
10
23.8514804
20
45.3041374
40
0.3177517
50
331.4254512
51
352.9365785
0
ARC
8
DEFAULT_255_1_388
10
23.8667804
20
45.300705
40
0.3021496
50
353.2257659
51
0.0166158
0
ARC
8
DEFAULT_255_1_388
10
23.8904564
20
45.3032894
40
0.2784847
50
359.486299
51
15.9343185
0
ARC
8
DEFAULT_255_1_388
10
23.9474831
20
45.3186269
40
0.2194403
50
16.1712913
51
43.5286088
0
ARC
8
DEFAULT_255_1_388
10
23.9561776
20
45.3273191
40
0.2071504
50
43.4417391
51
83.1661095
0
ARC
8
DEFAULT_255_1_388
10
23.9410937
20
45.2444316
40
0.2912888
50
82.160179
51
90.1505708
0
ARC
8
DEFAULT_255_1_388
10
23.9375418
20
45.1840279
40
0.3517025
50
89.5460741
51
102.5418361
0
ARC
8
DEFAULT_255_1_388
10
23.9102138
20
45.2999933
40
0.2325748
50
102.1738499
51
129.206123
0
ARC
8
DEFAULT_255_1_388
10
23.9013592
20
45.3139664
40
0.2161591
50
129.72865
51
135.753947
0
ARC
8
DEFAULT_255_1_388
10
23.9150074
20
45.3030728
40
0.2335433
50
136.1757367
51
166.3673339
0
ARC
8
DEFAULT_255_1_388
10
24.0282762
20
45.2727148
40
0.3507873
50
165.9090694
51
178.8684636
0
ARC
8
DEFAULT_255_1_388
10
24.1258534
20
45.2674263
40
0.4484624
50
178.4391136
51
180.0083808
0
ARC
8
DEFAULT_255_1_388
10
23.9679235
20
45.2718197
40
0.4577138
50
163.2878482
51
180.5581842
0
ARC
8
DEFAULT_255_1_388
10
23.8777276
20
45.2966393
40
0.3641968
50
133.4540601
51
162.947111
0
ARC
8
DEFAULT_255_1_388
10
23.8978158
20
45.2752789
40
0.3935189
50
100.7869829
51
133.4382499
0
ARC
8
DEFAULT_255_1_388
10
23.9369403
20
45.1010399
40
0.5720313
50
89.660664
51
101.3702276
0
ARC
8
DEFAULT_255_1_388
10
23.9444012
20
45.1079263
40
0.5651495
50
78.2172678
51
90.412935
0
ARC
8
DEFAULT_255_1_388
10
23.9843478
20
45.2906511
40
0.378122
50
55.9269121
51
78.4888449
0
ARC
8
DEFAULT_255_1_388
10
24.0064193
20
45.3287187
40
0.3342379
50
47.929771
51
55.4049217
0
ARC
8
DEFAULT_255_1_388
10
24.0178723
20
45.3403618
40
0.3179217
50
4.334829
51
48.0560205
0
ARC
8
DEFAULT_255_1_388
10
23.8946525
20
45.3212487
40
0.442341
50
359.9251713
51
5.5971671
0
ARC
8
DEFAULT_255_1_388
10
23.942868
20
45.3275728
40
0.3941854
50
337.8914027
51
358.9967534
0
ARC
8
DEFAULT_255_1_388
10
23.637625
20
45.4453295
40
0.7213271
50
326.9132501
51
338.3508308
0
ARC
8
DEFAULT_255_1_388
10
23.1892362
20
45.7327105
40
1.2538973
50
319.6471833
51
327.0959558
0
ARC
8
DEFAULT_255_1_388
10
22.757902
20
46.088505
40
1.8129975
50
317.2588228
51
319.9045804
0
LINE
8
DEFAULT_255_1_388
10
24.0931985
20
53.5988148
11
24.0931985
21
52.2769
0
LINE
8
DEFAULT_255_1_388
10
24.0931985
20
52.2769
11
23.9251355
21
52.2769
0
LINE
8
DEFAULT_255_1_388
10
23.9251355
20
52.2769
11
23.9251355
21
53.390995
0
LINE
8
DEFAULT_255_1_388
10
23.9251355
20
53.390995
11
23.588106
21
53.2672066
0
LINE
8
DEFAULT_255_1_388
10
23.588106
20
53.2672066
11
23.588106
21
53.4190055
0
LINE
8
DEFAULT_255_1_388
10
23.588106
20
53.4190055
11
24.0669951
21
53.5988148
0
LINE
8
DEFAULT_255_1_388
10
24.0669951
20
53.5988148
11
24.0931985
21
53.5988148
0
LINE
8
DEFAULT_255_1_388
10
24.3604856
20
60.992369
11
24.3604856
21
60.7755135
0
LINE
8
DEFAULT_255_1_388
10
23.5301099
20
60.7529244
11
23.5301099
21
60.9761048
0
LINE
8
DEFAULT_255_1_388
10
24.1933262
20
60.7303353
11
24.1933262
21
61.0041153
0
LINE
8
DEFAULT_255_1_388
10
23.6972693
20
61.0167652
11
23.6972693
21
60.7493102
0
ARC
8
DEFAULT_255_1_388
10
22.982719
20
60.7700118
40
1.3777776
50
353.8440855
51
0.2287917
0
ARC
8
DEFAULT_255_1_388
10
23.5046208
20
60.7117414
40
0.852639
50
344.4934746
51
353.9763743
0
ARC
8
DEFAULT_255_1_388
10
23.8413015
20
60.6160191
40
0.5026273
50
329.2803599
51
344.7473406
0
ARC
8
DEFAULT_255_1_388
10
23.9528511
20
60.5548038
40
0.3754848
50
324.9361395
51
328.6153007
0
ARC
8
DEFAULT_255_1_388
10
23.9954161
20
60.5250586
40
0.3235566
50
280.5801797
51
324.9173226
0
ARC
8
DEFAULT_255_1_388
10
23.9502789
20
60.7130236
40
0.5167077
50
269.5979457
51
281.6732777
0
ARC
8
DEFAULT_255_1_388
10
23.9421693
20
60.6995113
40
0.5032026
50
256.6228565
51
270.5105488
0
ARC
8
DEFAULT_255_1_388
10
23.8969435
20
60.5253345
40
0.3233092
50
215.8618351
51
257.2787793
0
ARC
8
DEFAULT_255_1_388
10
24.0118142
20
60.6024106
40
0.4615831
50
197.9695203
51
215.2622745
0
ARC
8
DEFAULT_255_1_388
10
24.2913818
20
60.6967641
40
0.7566307
50
187.8816486
51
198.2346584
0
ARC
8
DEFAULT_255_1_388
10
24.7367056
20
60.7610453
40
1.2065653
50
180.8977266
51
188.0054894
0
ARC
8
DEFAULT_255_1_388
10
25.041727
20
60.77254
40
1.5117443
50
180.7434591
51
181.152202
0
ARC
8
DEFAULT_255_1_388
10
24.8742266
20
60.9815371
40
1.3441277
50
173.7674302
51
180.2315596
0
ARC
8
DEFAULT_255_1_388
10
24.3660135
20
61.0389779
40
0.8326847
50
164.3058537
51
173.9000553
0
ARC
8
DEFAULT_255_1_388
10
24.0384135
20
61.1333652
40
0.4917711
50
148.7922028
51
164.5682288
0
ARC
8
DEFAULT_255_1_388
10
23.9314872
20
61.1930457
40
0.3694204
50
144.5883979
51
148.1161588
0
ARC
8
DEFAULT_255_1_388
10
23.8927618
20
61.2200667
40
0.322202
50
101.6440149
51
144.5142619
0
ARC
8
DEFAULT_255_1_388
10
23.940581
20
61.0300337
40
0.5180451
50
89.528284
51
102.5820197
0
ARC
8
DEFAULT_255_1_388
10
23.9494802
20
61.0256376
40
0.5224441
50
77.0437914
51
90.508231
0
ARC
8
DEFAULT_255_1_388
10
23.9947055
20
61.2104272
40
0.3322297
50
48.2777708
51
77.4996087
0
ARC
8
DEFAULT_255_1_388
10
24.0028795
20
61.2249557
40
0.315966
50
36.3141586
51
47.6307332
0
ARC
8
DEFAULT_255_1_388
10
23.9051518
20
61.1591159
40
0.4337313
50
18.2931065
51
35.6770203
0
ARC
8
DEFAULT_255_1_388
10
23.6190358
20
61.0609107
40
0.7362203
50
8.0246996
51
18.5605636
0
ARC
8
DEFAULT_255_1_388
10
23.1506714
20
60.9917432
40
1.2096583
50
1.127539
51
8.1718423
0
ARC
8
DEFAULT_255_1_388
10
22.7857847
20
60.9774374
40
1.5747719
50
0.5432713
51
1.38669
0
ARC
8
DEFAULT_255_1_388
10
22.9915226
20
61.0081163
40
1.2018103
50
359.8092569
51
4.9408001
0
ARC
8
DEFAULT_255_1_388
10
23.4651807
20
61.05039
40
0.7262727
50
4.8364937
51
12.2906017
0
ARC
8
DEFAULT_255_1_388
10
23.7751272
20
61.1194485
40
0.4087324
50
12.0806994
51
23.8171225
0
ARC
8
DEFAULT_255_1_388
10
23.9071668
20
61.1753508
40
0.2653719
50
24.2874621
51
31.3934353
0
ARC
8
DEFAULT_255_1_388
10
23.9662104
20
61.2139822
40
0.1948607
50
30.7407708
51
82.4658033
0
ARC
8
DEFAULT_255_1_388
10
23.9459765
20
61.1146017
40
0.2961198
50
81.1057101
51
90.2187368
0
ARC
8
DEFAULT_255_1_388
10
23.9419577
20
61.1436421
40
0.2670929
50
89.380395
51
105.6763916
0
ARC
8
DEFAULT_255_1_388
10
23.9213299
20
61.218632
40
0.1893189
50
105.7980655
51
149.7387869
0
ARC
8
DEFAULT_255_1_388
10
24.0410439
20
61.1466719
40
0.3289892
50
149.4208441
51
163.628295
0
ARC
8
DEFAULT_255_1_388
10
24.2762668
20
61.0749345
40
0.5749004
50
163.3764549
51
172.141138
0
ARC
8
DEFAULT_255_1_388
10
24.647539
20
61.0217582
40
0.9499585
50
172.0258462
51
178.0705453
0
ARC
8
DEFAULT_255_1_388
10
24.9896943
20
61.0055682
40
1.2924734
50
177.8639301
51
179.5036263
0
ARC
8
DEFAULT_255_1_388
10
24.8677961
20
60.7452151
40
1.170534
50
179.7995545
51
185.246089
0
ARC
8
DEFAULT_255_1_388
10
24.4129554
20
60.7021404
40
0.7136613
50
185.1411911
51
193.0082205
0
ARC
8
DEFAULT_255_1_388
10
24.1155815
20
60.6318441
40
0.4080987
50
192.7897338
51
205.2507384
0
ARC
8
DEFAULT_255_1_388
10
23.9978025
20
60.5792538
40
0.2791522
50
205.8001921
51
211.2545876
0
ARC
8
DEFAULT_255_1_388
10
23.9389564
20
60.5398132
40
0.2084074
50
210.3789935
51
238.4007996
0
ARC
8
DEFAULT_255_1_388
10
23.936765
20
60.5450786
40
0.2117943
50
239.6521916
51
265.9793852
0
ARC
8
DEFAULT_255_1_388
10
23.9463499
20
60.6207358
40
0.2879689
50
265.1324455
51
270.0603288
0
ARC
8
DEFAULT_255_1_388
10
23.9495876
20
60.5842418
40
0.2514919
50
269.3314378
51
287.2180039
0
ARC
8
DEFAULT_255_1_388
10
23.9650958
20
60.5276291
40
0.1928357
50
287.7957942
51
329.0808983
0
ARC
8
DEFAULT_255_1_388
10
23.8573715
20
60.5948651
40
0.319808
50
328.6635261
51
343.3325043
0
ARC
8
DEFAULT_255_1_388
10
23.6129174
20
60.6710195
40
0.5758408
50
343.0498092
51
351.9392499
0
ARC
8
DEFAULT_255_1_388
10
23.2228496
20
60.7285205
40
0.9701202
50
351.8071632
51
357.7957897
0
ARC
8
DEFAULT_255_1_388
10
22.8593973
20
60.7473724
40
1.3340376
50
357.5870923
51
359.2682493
0
ENDSEC
0
EOF