0
SECTION
2
HEADER
9
$MEASUREMENT
70
1
0
ENDSEC
0
SECTION
2
TABLES
0
TABLE
2
LTYPE
0
LTYPE
72
65
70
64
2
CONTINUOUS
3
______
73
0
40
0
0
ENDTAB
0
TABLE
2
LAYER
0
LAYER
2
DEFAULT_255_2_778
70
0
62
255
6
CONTINUOUS
0
ENDTAB
0
ENDSEC
0
SECTION
2
ENTITIES
0
ARC
8
DEFAULT_255_2_778
10
5.832054
20
7.6214592
40
1.5001434
50
0.0106396
51
60.0012481
0
ARC
8
DEFAULT_255_2_778
10
5.8322462
20
7.6223455
40
1.4992797
50
59.9906724
51
90.0106551
0
LINE
8
DEFAULT_255_2_778
10
5.8319673
20
9.1216253
11
5.8318244
21
9.1216253
0
ARC
8
DEFAULT_255_2_778
10
5.831684
20
7.6224147
40
1.4992106
50
89.9946337
51
119.9947607
0
ARC
8
DEFAULT_255_2_778
10
5.8307719
20
7.6241307
40
1.4972685
50
119.9973593
51
152.1381927
0
ARC
8
DEFAULT_255_2_778
10
5.8340595
20
7.6214456
40
1.5014303
50
152.1062385
51
179.9760691
0
ARC
8
DEFAULT_255_2_778
10
5.8279341
20
7.6221023
40
1.4953047
50
180.0011321
51
187.8434743
0
ARC
8
DEFAULT_255_2_778
10
5.8383034
20
7.623626
40
1.5057848
50
187.8470678
51
195.0103401
0
ARC
8
DEFAULT_255_2_778
10
5.8313995
20
7.6208175
40
1.4983893
50
194.9749831
51
234.8163138
0
ARC
8
DEFAULT_255_2_778
10
5.8320783
20
7.6191835
40
1.4974458
50
234.7590637
51
270.008383
0
ARC
8
DEFAULT_255_2_778
10
5.8342736
20
7.6152227
40
1.4934862
50
269.9241845
51
299.8597158
0
ARC
8
DEFAULT_255_2_778
10
5.8314269
20
7.6222409
40
1.5009904
50
299.8205742
51
352.1216719
0
ARC
8
DEFAULT_255_2_778
10
5.8185704
20
7.6215073
40
1.5136271
50
352.2158852
51
0.0087222
0
LINE
8
DEFAULT_255_2_778
10
7.3321974
20
7.6217378
11
7.3321974
21
7.6217378
0
ARC
8
DEFAULT_255_2_778
10
16.1320409
20
7.6214592
40
1.5001434
50
0.0106396
51
60.0012481
0
ARC
8
DEFAULT_255_2_778
10
16.132233
20
7.6223455
40
1.4992797
50
59.9906724
51
90.0106551
0
LINE
8
DEFAULT_255_2_778
10
16.1319542
20
9.1216253
11
16.1318113
21
9.1216253
0
ARC
8
DEFAULT_255_2_778
10
16.1316709
20
7.6224147
40
1.4992106
50
89.9946337
51
119.9947607
0
ARC
8
DEFAULT_255_2_778
10
16.1307588
20
7.6241307
40
1.4972685
50
119.9973593
51
152.1381927
0
ARC
8
DEFAULT_255_2_778
10
16.1340464
20
7.6214456
40
1.5014303
50
152.1062385
51
179.9760691
0
ARC
8
DEFAULT_255_2_778
10
16.127921
20
7.6221023
40
1.4953047
50
180.0011321
51
187.8434743
0
ARC
8
DEFAULT_255_2_778
10
16.1382903
20
7.623626
40
1.5057848
50
187.8470678
51
195.0103401
0
ARC
8
DEFAULT_255_2_778
10
16.1313864
20
7.6208175
40
1.4983893
50
194.9749831
51
234.8163138
0
ARC
8
DEFAULT_255_2_778
10
16.1320652
20
7.6191835
40
1.4974458
50
234.7590637
51
270.008383
0
ARC
8
DEFAULT_255_2_778
10
16.1342605
20
7.6152227
40
1.4934862
50
269.9241845
51
299.8597158
0
ARC
8
DEFAULT_255_2_778
10
16.1314137
20
7.6222409
40
1.5009904
50
299.8205742
51
352.1216719
0
ARC
8
DEFAULT_255_2_778
10
16.1185572
20
7.6215073
40
1.5136271
50
352.2158852
51
0.0087222
0
LINE
8
DEFAULT_255_2_778
10
17.6321842
20
7.6217378
11
17.6321842
21
7.6217378
0
ARC
8
DEFAULT_255_2_778
10
10.982254
20
7.6214592
40
1.5001434
50
0.0106396
51
60.0012481
0
ARC
8
DEFAULT_255_2_778
10
10.9824462
20
7.6223455
40
1.4992797
50
59.9906724
51
90.0106551
0
LINE
8
DEFAULT_255_2_778
10
10.9821673
20
9.1216253
11
10.9820244
21
9.1216253
0
ARC
8
DEFAULT_255_2_778
10
10.981884
20
7.6224147
40
1.4992106
50
89.9946337
51
119.9947607
0
ARC
8
DEFAULT_255_2_778
10
10.9809719
20
7.6241307
40
1.4972685
50
119.9973593
51
152.1381927
0
ARC
8
DEFAULT_255_2_778
10
10.9842595
20
7.6214456
40
1.5014303
50
152.1062385
51
179.9760691
0
ARC
8
DEFAULT_255_2_778
10
10.9781341
20
7.6221023
40
1.4953047
50
180.0011321
51
187.8434743
0
ARC
8
DEFAULT_255_2_778
10
10.9885034
20
7.623626
40
1.5057848
50
187.8470678
51
195.0103401
0
ARC
8
DEFAULT_255_2_778
10
10.9815995
20
7.6208175
40
1.4983893
50
194.9749831
51
234.8163138
0
ARC
8
DEFAULT_255_2_778
10
10.9822783
20
7.6191835
40
1.4974458
50
234.7590637
51
270.008383
0
ARC
8
DEFAULT_255_2_778
10
10.9844736
20
7.6152227
40
1.4934862
50
269.9241845
51
299.8597158
0
ARC
8
DEFAULT_255_2_778
10
10.9816269
20
7.6222409
40
1.5009904
50
299.8205742
51
352.1216719
0
ARC
8
DEFAULT_255_2_778
10
10.9687704
20
7.6215073
40
1.5136271
50
352.2158852
51
0.0087222
0
LINE
8
DEFAULT_255_2_778
10
12.4823974
20
7.6217378
11
12.4823974
21
7.6217378
0
ARC
8
DEFAULT_255_2_778
10
26.432054
20
7.6214592
40
1.5001434
50
0.0106396
51
60.0012481
0
ARC
8
DEFAULT_255_2_778
10
26.4322462
20
7.6223455
40
1.4992797
50
59.9906724
51
90.0106551
0
LINE
8
DEFAULT_255_2_778
10
26.4319673
20
9.1216253
11
26.4318244
21
9.1216253
0
ARC
8
DEFAULT_255_2_778
10
26.431684
20
7.6224147
40
1.4992106
50
89.9946337
51
119.9947607
0
ARC
8
DEFAULT_255_2_778
10
26.4307719
20
7.6241307
40
1.4972685
50
119.9973593
51
152.1381927
0
ARC
8
DEFAULT_255_2_778
10
26.4340595
20
7.6214456
40
1.5014303
50
152.1062385
51
179.9760691
0
ARC
8
DEFAULT_255_2_778
10
26.4279341
20
7.6221023
40
1.4953047
50
180.0011321
51
187.8434743
0
ARC
8
DEFAULT_255_2_778
10
26.4383034
20
7.623626
40
1.5057848
50
187.8470678
51
195.0103401
0
ARC
8
DEFAULT_255_2_778
10
26.4313995
20
7.6208175
40
1.4983893
50
194.9749831
51
234.8163138
0
ARC
8
DEFAULT_255_2_778
10
26.4320783
20
7.6191835
40
1.4974458
50
234.7590637
51
270.008383
0
ARC
8
DEFAULT_255_2_778
10
26.4342736
20
7.6152227
40
1.4934862
50
269.9241845
51
299.8597158
0
ARC
8
DEFAULT_255_2_778
10
26.4314269
20
7.6222409
40
1.5009904
50
299.8205742
51
352.1216719
0
ARC
8
DEFAULT_255_2_778
10
26.4185704
20
7.6215073
40
1.5136271
50
352.2158852
51
0.0087222
0
LINE
8
DEFAULT_255_2_778
10
27.9321974
20
7.6217378
11
27.9321974
21
7.6217378
0
ARC
8
DEFAULT_255_2_778
10
21.2820242
20
7.6214498
40
1.5002601
50
0.0109993
51
59.9942616
0
ARC
8
DEFAULT_255_2_778
10
21.2823202
20
7.6219255
40
1.4996998
50
59.9949649
51
90.0013742
0
LINE
8
DEFAULT_255_2_778
10
21.2822842
20
9.1216253
11
21.2820667
21
9.1216253
0
ARC
8
DEFAULT_255_2_778
10
21.2817747
20
7.6224005
40
1.4992248
50
89.9888404
51
119.9946176
0
ARC
8
DEFAULT_255_2_778
10
21.2808588
20
7.6241307
40
1.4972685
50
119.9973593
51
152.1381927
0
ARC
8
DEFAULT_255_2_778
10
21.2841464
20
7.6214456
40
1.5014303
50
152.1062385
51
179.9760691
0
ARC
8
DEFAULT_255_2_778
10
21.278021
20
7.6221023
40
1.4953047
50
180.0011321
51
187.8434743
0
ARC
8
DEFAULT_255_2_778
10
21.2883903
20
7.623626
40
1.5057848
50
187.8470678
51
195.0103401
0
ARC
8
DEFAULT_255_2_778
10
21.2814864
20
7.6208175
40
1.4983893
50
194.9749831
51
234.8163138
0
ARC
8
DEFAULT_255_2_778
10
21.2821652
20
7.6191835
40
1.4974458
50
234.7590637
51
270.008383
0
ARC
8
DEFAULT_255_2_778
10
21.2843605
20
7.6152227
40
1.4934862
50
269.9241845
51
299.8597158
0
ARC
8
DEFAULT_255_2_778
10
21.2815137
20
7.6222409
40
1.5009904
50
299.8205742
51
352.1216719
0
ARC
8
DEFAULT_255_2_778
10
21.2686572
20
7.6215073
40
1.5136271
50
352.2158852
51
0.0087222
0
LINE
8
DEFAULT_255_2_778
10
22.7822842
20
7.6217378
11
22.7822842
21
7.6217378
0
ARC
8
DEFAULT_255_2_778
10
36.7319242
20
7.6214498
40
1.5002601
50
0.0109993
51
59.9942616
0
ARC
8
DEFAULT_255_2_778
10
36.7322202
20
7.6219255
40
1.4996998
50
59.9949649
51
90.0013742
0
LINE
8
DEFAULT_255_2_778
10
36.7321842
20
9.1216253
11
36.7319667
21
9.1216253
0
ARC
8
DEFAULT_255_2_778
10
36.7316747
20
7.6224005
40
1.4992248
50
89.9888404
51
119.9946176
0
ARC
8
DEFAULT_255_2_778
10
36.7307588
20
7.6241307
40
1.4972685
50
119.9973593
51
152.1381927
0
ARC
8
DEFAULT_255_2_778
10
36.7340464
20
7.6214456
40
1.5014303
50
152.1062385
51
179.9760691
0
ARC
8
DEFAULT_255_2_778
10
36.727921
20
7.6221023
40
1.4953047
50
180.0011321
51
187.8434743
0
ARC
8
DEFAULT_255_2_778
10
36.7382903
20
7.623626
40
1.5057848
50
187.8470678
51
195.0103401
0
ARC
8
DEFAULT_255_2_778
10
36.7313864
20
7.6208175
40
1.4983893
50
194.9749831
51
234.8163138
0
ARC
8
DEFAULT_255_2_778
10
36.7320652
20
7.6191835
40
1.4974458
50
234.7590637
51
270.008383
0
ARC
8
DEFAULT_255_2_778
10
36.7342605
20
7.6152227
40
1.4934862
50
269.9241845
51
299.8597158
0
ARC
8
DEFAULT_255_2_778
10
36.7314137
20
7.6222409
40
1.5009904
50
299.8205742
51
352.1216719
0
ARC
8
DEFAULT_255_2_778
10
36.7185572
20
7.6215073
40
1.5136271
50
352.2158852
51
0.0087222
0
LINE
8
DEFAULT_255_2_778
10
38.2321842
20
7.6217378
11
38.2321842
21
7.6217378
0
ARC
8
DEFAULT_255_2_778
10
31.582154
20
7.6214592
40
1.5001434
50
0.0106396
51
60.0012481
0
ARC
8
DEFAULT_255_2_778
10
31.5823462
20
7.6223455
40
1.4992797
50
59.9906724
51
90.0106551
0
LINE
8
DEFAULT_255_2_778
10
31.5820673
20
9.1216253
11
31.5819244
21
9.1216253
0
ARC
8
DEFAULT_255_2_778
10
31.581784
20
7.6224147
40
1.4992106
50
89.9946337
51
119.9947607
0
ARC
8
DEFAULT_255_2_778
10
31.5808719
20
7.6241307
40
1.4972685
50
119.9973593
51
152.1381927
0
ARC
8
DEFAULT_255_2_778
10
31.5841595
20
7.6214456
40
1.5014303
50
152.1062385
51
179.9760691
0
ARC
8
DEFAULT_255_2_778
10
31.5780341
20
7.6221023
40
1.4953047
50
180.0011321
51
187.8434743
0
ARC
8
DEFAULT_255_2_778
10
31.5884034
20
7.623626
40
1.5057848
50
187.8470678
51
195.0103401
0
ARC
8
DEFAULT_255_2_778
10
31.5814995
20
7.6208175
40
1.4983893
50
194.9749831
51
234.8163138
0
ARC
8
DEFAULT_255_2_778
10
31.5821783
20
7.6191835
40
1.4974458
50
234.7590637
51
270.008383
0
ARC
8
DEFAULT_255_2_778
10
31.5843736
20
7.6152227
40
1.4934862
50
269.9241845
51
299.8597158
0
ARC
8
DEFAULT_255_2_778
10
31.5815269
20
7.6222409
40
1.5009904
50
299.8205742
51
352.1216719
0
ARC
8
DEFAULT_255_2_778
10
31.5686704
20
7.6215073
40
1.5136271
50
352.2158852
51
0.0087222
0
LINE
8
DEFAULT_255_2_778
10
33.0822974
20
7.6217378
11
33.0822974
21
7.6217378
0
ARC
8
DEFAULT_255_2_778
10
47.0319339
20
7.6214592
40
1.5001434
50
0.0106396
51
60.0012481
0
ARC
8
DEFAULT_255_2_778
10
47.0321261
20
7.6223455
40
1.4992797
50
59.9906724
51
90.0106551
0
LINE
8
DEFAULT_255_2_778
10
47.0318473
20
9.1216253
11
47.0317043
21
9.1216253
0
ARC
8
DEFAULT_255_2_778
10
47.0315639
20
7.6224147
40
1.4992106
50
89.9946337
51
119.9947607
0
ARC
8
DEFAULT_255_2_778
10
47.0306949
20
7.6240716
40
1.4973412
50
119.9976561
51
152.1409565
0
ARC
8
DEFAULT_255_2_778
10
47.0341354
20
7.6213006
40
1.5016781
50
152.1088285
51
179.9761631
0
ARC
8
DEFAULT_255_2_778
10
47.0279978
20
7.6219543
40
1.4955402
50
180.0011073
51
187.8365078
0
ARC
8
DEFAULT_255_2_778
10
47.0383695
20
7.6234784
40
1.5060229
50
187.8401489
51
195.0020947
0
ARC
8
DEFAULT_255_2_778
10
47.0314549
20
7.621102
40
1.4987289
50
194.9827691
51
234.816777
0
ARC
8
DEFAULT_255_2_778
10
47.0319656
20
7.6192394
40
1.4975017
50
234.7597433
51
270.0080987
0
ARC
8
DEFAULT_255_2_778
10
47.0341535
20
7.6152227
40
1.4934862
50
269.9241845
51
299.8597158
0
ARC
8
DEFAULT_255_2_778
10
47.0313068
20
7.6222409
40
1.5009904
50
299.8205742
51
352.1216719
0
ARC
8
DEFAULT_255_2_778
10
47.0184503
20
7.6215073
40
1.5136271
50
352.2158852
51
0.0087222
0
LINE
8
DEFAULT_255_2_778
10
48.5320773
20
7.6217378
11
48.5320773
21
7.6217378
0
ARC
8
DEFAULT_255_2_778
10
41.8821541
20
7.6214592
40
1.5001434
50
0.0106396
51
60.0012481
0
ARC
8
DEFAULT_255_2_778
10
41.8823463
20
7.6223455
40
1.4992797
50
59.9906724
51
90.0106551
0
LINE
8
DEFAULT_255_2_778
10
41.8820674
20
9.1216253
11
41.8819245
21
9.1216253
0
ARC
8
DEFAULT_255_2_778
10
41.8817841
20
7.6224147
40
1.4992106
50
89.9946337
51
119.9947607
0
ARC
8
DEFAULT_255_2_778
10
41.880872
20
7.6241307
40
1.4972685
50
119.9973593
51
152.1381927
0
ARC
8
DEFAULT_255_2_778
10
41.8841596
20
7.6214456
40
1.5014303
50
152.1062385
51
179.9760691
0
ARC
8
DEFAULT_255_2_778
10
41.8780342
20
7.6221023
40
1.4953047
50
180.0011321
51
187.8434743
0
ARC
8
DEFAULT_255_2_778
10
41.8884035
20
7.623626
40
1.5057848
50
187.8470678
51
195.0103401
0
ARC
8
DEFAULT_255_2_778
10
41.8814996
20
7.6208175
40
1.4983893
50
194.9749831
51
234.8163138
0
ARC
8
DEFAULT_255_2_778
10
41.8821784
20
7.6191835
40
1.4974458
50
234.7590637
51
270.008383
0
ARC
8
DEFAULT_255_2_778
10
41.8843737
20
7.6152227
40
1.4934862
50
269.9241845
51
299.8597158
0
ARC
8
DEFAULT_255_2_778
10
41.881527
20
7.6222409
40
1.5009904
50
299.8205742
51
352.1216719
0
ARC
8
DEFAULT_255_2_778
10
41.8686705
20
7.6215073
40
1.5136271
50
352.2158852
51
0.0087222
0
LINE
8
DEFAULT_255_2_778
10
43.3822975
20
7.6217378
11
43.3822975
21
7.6217378
0
ARC
8
DEFAULT_255_2_778
10
57.3320172
20
7.6214498
40
1.5002601
50
0.0109993
51
59.9942616
0
ARC
8
DEFAULT_255_2_778
10
57.3323133
20
7.6219255
40
1.4996998
50
59.9949649
51
90.0013742
0
LINE
8
DEFAULT_255_2_778
10
57.3322773
20
9.1216253
11
57.3320597
21
9.1216253
0
ARC
8
DEFAULT_255_2_778
10
57.3317677
20
7.6224005
40
1.4992248
50
89.9888404
51
119.9946176
0
ARC
8
DEFAULT_255_2_778
10
57.3308949
20
7.6240716
40
1.4973412
50
119.9976561
51
152.1409565
0
ARC
8
DEFAULT_255_2_778
10
57.3343354
20
7.6213006
40
1.5016781
50
152.1088285
51
179.9761631
0
ARC
8
DEFAULT_255_2_778
10
57.3281978
20
7.6219543
40
1.4955402
50
180.0011073
51
187.8365078
0
ARC
8
DEFAULT_255_2_778
10
57.3385695
20
7.6234784
40
1.5060229
50
187.8401489
51
195.0020947
0
ARC
8
DEFAULT_255_2_778
10
57.3316549
20
7.621102
40
1.4987289
50
194.9827691
51
234.816777
0
ARC
8
DEFAULT_255_2_778
10
57.3321656
20
7.6192394
40
1.4975017
50
234.7597433
51
270.0080987
0
ARC
8
DEFAULT_255_2_778
10
57.3343535
20
7.6152227
40
1.4934862
50
269.9241845
51
299.8597158
0
ARC
8
DEFAULT_255_2_778
10
57.3315068
20
7.6222409
40
1.5009904
50
299.8205742
51
352.1216719
0
ARC
8
DEFAULT_255_2_778
10
57.3186503
20
7.6215073
40
1.5136271
50
352.2158852
51
0.0087222
0
LINE
8
DEFAULT_255_2_778
10
58.8322773
20
7.6217378
11
58.8322773
21
7.6217378
0
ARC
8
DEFAULT_255_2_778
10
52.1820541
20
7.6214592
40
1.5001434
50
0.0106396
51
60.0012481
0
ARC
8
DEFAULT_255_2_778
10
52.1822463
20
7.6223455
40
1.4992797
50
59.9906724
51
90.0106551
0
LINE
8
DEFAULT_255_2_778
10
52.1819674
20
9.1216253
11
52.1818245
21
9.1216253
0
ARC
8
DEFAULT_255_2_778
10
52.1816841
20
7.6224147
40
1.4992106
50
89.9946337
51
119.9947607
0
ARC
8
DEFAULT_255_2_778
10
52.180772
20
7.6241307
40
1.4972685
50
119.9973593
51
152.1381927
0
ARC
8
DEFAULT_255_2_778
10
52.1840596
20
7.6214456
40
1.5014303
50
152.1062385
51
179.9760691
0
ARC
8
DEFAULT_255_2_778
10
52.1779342
20
7.6221023
40
1.4953047
50
180.0011321
51
187.8434743
0
ARC
8
DEFAULT_255_2_778
10
52.1883035
20
7.623626
40
1.5057848
50
187.8470678
51
195.0103401
0
ARC
8
DEFAULT_255_2_778
10
52.1813996
20
7.6208175
40
1.4983893
50
194.9749831
51
234.8163138
0
ARC
8
DEFAULT_255_2_778
10
52.1820784
20
7.6191835
40
1.4974458
50
234.7590637
51
270.008383
0
ARC
8
DEFAULT_255_2_778
10
52.1842737
20
7.6152227
40
1.4934862
50
269.9241845
51
299.8597158
0
ARC
8
DEFAULT_255_2_778
10
52.181427
20
7.6222409
40
1.5009904
50
299.8205742
51
352.1216719
0
ARC
8
DEFAULT_255_2_778
10
52.1685705
20
7.6215073
40
1.5136271
50
352.2158852
51
0.0087222
0
LINE
8
DEFAULT_255_2_778
10
53.6821975
20
7.6217378
11
53.6821975
21
7.6217378
0
ARC
8
DEFAULT_255_2_778
10
67.6321553
20
7.6214592
40
1.5001434
50
0.0106396
51
60.0012481
0
ARC
8
DEFAULT_255_2_778
10
67.6323475
20
7.6223455
40
1.4992797
50
59.9906724
51
90.0106551
0
LINE
8
DEFAULT_255_2_778
10
67.6320687
20
9.1216253
11
67.6319257
21
9.1216253
0
ARC
8
DEFAULT_255_2_778
10
67.6317853
20
7.6224147
40
1.4992106
50
89.9946337
51
119.9947607
0
ARC
8
DEFAULT_255_2_778
10
67.6308732
20
7.6241307
40
1.4972685
50
119.9973593
51
152.1381927
0
ARC
8
DEFAULT_255_2_778
10
67.6341609
20
7.6214456
40
1.5014303
50
152.1062385
51
179.9760691
0
ARC
8
DEFAULT_255_2_778
10
67.6280355
20
7.6221023
40
1.4953047
50
180.0011321
51
187.8434743
0
ARC
8
DEFAULT_255_2_778
10
67.6384048
20
7.623626
40
1.5057848
50
187.8470678
51
195.0103401
0
ARC
8
DEFAULT_255_2_778
10
67.6315008
20
7.6208175
40
1.4983893
50
194.9749831
51
234.8163138
0
ARC
8
DEFAULT_255_2_778
10
67.6321796
20
7.6191835
40
1.4974458
50
234.7590637
51
270.008383
0
ARC
8
DEFAULT_255_2_778
10
67.6343749
20
7.6152227
40
1.4934862
50
269.9241845
51
299.8597158
0
ARC
8
DEFAULT_255_2_778
10
67.6315282
20
7.6222409
40
1.5009904
50
299.8205742
51
352.1216719
0
ARC
8
DEFAULT_255_2_778
10
67.6186717
20
7.6215073
40
1.5136271
50
352.2158852
51
0.0087222
0
LINE
8
DEFAULT_255_2_778
10
69.1322987
20
7.6217378
11
69.1322987
21
7.6217378
0
ARC
8
DEFAULT_255_2_778
10
62.482054
20
7.6214592
40
1.5001434
50
0.0106396
51
60.0012481
0
ARC
8
DEFAULT_255_2_778
10
62.4822462
20
7.6223455
40
1.4992797
50
59.9906724
51
90.0106551
0
LINE
8
DEFAULT_255_2_778
10
62.4819673
20
9.1216253
11
62.4818244
21
9.1216253
0
ARC
8
DEFAULT_255_2_778
10
62.481684
20
7.6224147
40
1.4992106
50
89.9946337
51
119.9947607
0
ARC
8
DEFAULT_255_2_778
10
62.4807719
20
7.6241307
40
1.4972685
50
119.9973593
51
152.1381927
0
ARC
8
DEFAULT_255_2_778
10
62.4840595
20
7.6214456
40
1.5014303
50
152.1062385
51
179.9760691
0
ARC
8
DEFAULT_255_2_778
10
62.4779341
20
7.6221023
40
1.4953047
50
180.0011321
51
187.8434743
0
ARC
8
DEFAULT_255_2_778
10
62.4883034
20
7.623626
40
1.5057848
50
187.8470678
51
195.0103401
0
ARC
8
DEFAULT_255_2_778
10
62.4813995
20
7.6208175
40
1.4983893
50
194.9749831
51
234.8163138
0
ARC
8
DEFAULT_255_2_778
10
62.4820783
20
7.6191835
40
1.4974458
50
234.7590637
51
270.008383
0
ARC
8
DEFAULT_255_2_778
10
62.4842736
20
7.6152227
40
1.4934862
50
269.9241845
51
299.8597158
0
ARC
8
DEFAULT_255_2_778
10
62.4814269
20
7.6222409
40
1.5009904
50
299.8205742
51
352.1216719
0
ARC
8
DEFAULT_255_2_778
10
62.4685704
20
7.6215073
40
1.5136271
50
352.2158852
51
0.0087222
0
LINE
8
DEFAULT_255_2_778
10
63.9821974
20
7.6217378
11
63.9821974
21
7.6217378
0
ARC
8
DEFAULT_255_2_778
10
77.9321541
20
7.6214592
40
1.5001434
50
0.0106396
51
60.0012481
0
ARC
8
DEFAULT_255_2_778
10
77.9323463
20
7.6223455
40
1.4992797
50
59.9906724
51
90.0106551
0
LINE
8
DEFAULT_255_2_778
10
77.9320674
20
9.1216253
11
77.9319245
21
9.1216253
0
ARC
8
DEFAULT_255_2_778
10
77.9317841
20
7.6224147
40
1.4992106
50
89.9946337
51
119.9947607
0
ARC
8
DEFAULT_255_2_778
10
77.930872
20
7.6241307
40
1.4972685
50
119.9973593
51
152.1381927
0
ARC
8
DEFAULT_255_2_778
10
77.9341596
20
7.6214456
40
1.5014303
50
152.1062385
51
179.9760691
0
ARC
8
DEFAULT_255_2_778
10
77.9280342
20
7.6221023
40
1.4953047
50
180.0011321
51
187.8434743
0
ARC
8
DEFAULT_255_2_778
10
77.9384035
20
7.623626
40
1.5057848
50
187.8470678
51
195.0103401
0
ARC
8
DEFAULT_255_2_778
10
77.9314996
20
7.6208175
40
1.4983893
50
194.9749831
51
234.8163138
0
ARC
8
DEFAULT_255_2_778
10
77.9321784
20
7.6191835
40
1.4974458
50
234.7590637
51
270.008383
0
ARC
8
DEFAULT_255_2_778
10
77.9343737
20
7.6152227
40
1.4934862
50
269.9241845
51
299.8597158
0
ARC
8
DEFAULT_255_2_778
10
77.931527
20
7.6222409
40
1.5009904
50
299.8205742
51
352.1216719
0
ARC
8
DEFAULT_255_2_778
10
77.9186705
20
7.6215073
40
1.5136271
50
352.2158852
51
0.0087222
0
LINE
8
DEFAULT_255_2_778
10
79.4322975
20
7.6217378
11
79.4322975
21
7.6217378
0
ARC
8
DEFAULT_255_2_778
10
72.7819339
20
7.6214592
40
1.5001434
50
0.0106396
51
60.0012481
0
ARC
8
DEFAULT_255_2_778
10
72.7821261
20
7.6223455
40
1.4992797
50
59.9906724
51
90.0106551
0
LINE
8
DEFAULT_255_2_778
10
72.7818473
20
9.1216253
11
72.7817043
21
9.1216253
0
ARC
8
DEFAULT_255_2_778
10
72.7815639
20
7.6224147
40
1.4992106
50
89.9946337
51
119.9947607
0
ARC
8
DEFAULT_255_2_778
10
72.7806949
20
7.6240716
40
1.4973412
50
119.9976561
51
152.1409565
0
ARC
8
DEFAULT_255_2_778
10
72.7841354
20
7.6213006
40
1.5016781
50
152.1088285
51
179.9761631
0
ARC
8
DEFAULT_255_2_778
10
72.7779978
20
7.6219543
40
1.4955402
50
180.0011073
51
187.8365078
0
ARC
8
DEFAULT_255_2_778
10
72.7883695
20
7.6234784
40
1.5060229
50
187.8401489
51
195.0020947
0
ARC
8
DEFAULT_255_2_778
10
72.7814549
20
7.621102
40
1.4987289
50
194.9827691
51
234.816777
0
ARC
8
DEFAULT_255_2_778
10
72.7819656
20
7.6192394
40
1.4975017
50
234.7597433
51
270.0080987
0
ARC
8
DEFAULT_255_2_778
10
72.7841535
20
7.6152227
40
1.4934862
50
269.9241845
51
299.8597158
0
ARC
8
DEFAULT_255_2_778
10
72.7813068
20
7.6222409
40
1.5009904
50
299.8205742
51
352.1216719
0
ARC
8
DEFAULT_255_2_778
10
72.7684503
20
7.6215073
40
1.5136271
50
352.2158852
51
0.0087222
0
LINE
8
DEFAULT_255_2_778
10
74.2820773
20
7.6217378
11
74.2820773
21
7.6217378
0
ARC
8
DEFAULT_255_2_778
10
83.0819541
20
7.6214592
40
1.5001434
50
0.0106396
51
60.0012481
0
ARC
8
DEFAULT_255_2_778
10
83.0821463
20
7.6223455
40
1.4992797
50
59.9906724
51
90.0106551
0
LINE
8
DEFAULT_255_2_778
10
83.0818674
20
9.1216253
11
83.0817245
21
9.1216253
0
ARC
8
DEFAULT_255_2_778
10
83.0815841
20
7.6224147
40
1.4992106
50
89.9946337
51
119.9947607
0
ARC
8
DEFAULT_255_2_778
10
83.080672
20
7.6241307
40
1.4972685
50
119.9973593
51
152.1381927
0
ARC
8
DEFAULT_255_2_778
10
83.0839596
20
7.6214456
40
1.5014303
50
152.1062385
51
179.9760691
0
ARC
8
DEFAULT_255_2_778
10
83.0778342
20
7.6221023
40
1.4953047
50
180.0011321
51
187.8434743
0
ARC
8
DEFAULT_255_2_778
10
83.0882035
20
7.623626
40
1.5057848
50
187.8470678
51
195.0103401
0
ARC
8
DEFAULT_255_2_778
10
83.0812996
20
7.6208175
40
1.4983893
50
194.9749831
51
234.8163138
0
ARC
8
DEFAULT_255_2_778
10
83.0819784
20
7.6191835
40
1.4974458
50
234.7590637
51
270.008383
0
ARC
8
DEFAULT_255_2_778
10
83.0841737
20
7.6152227
40
1.4934862
50
269.9241845
51
299.8597158
0
ARC
8
DEFAULT_255_2_778
10
83.081327
20
7.6222409
40
1.5009904
50
299.8205742
51
352.1216719
0
ARC
8
DEFAULT_255_2_778
10
83.0684705
20
7.6215073
40
1.5136271
50
352.2158852
51
0.0087222
0
LINE
8
DEFAULT_255_2_778
10
84.5820975
20
7.6217378
11
84.5820975
21
7.6217378
0
LINE
8
DEFAULT_255_2_778
10
48.6570199
20
61.8689656
11
48.6570199
21
62.4190656
0
LINE
8
DEFAULT_255_2_778
10
48.6570199
20
62.4190656
11
40.5070199
21
62.4190656
0
LINE
8
DEFAULT_255_2_778
10
40.5070199
20
62.4190656
11
40.5070199
21
61.8689656
0
LINE
8
DEFAULT_255_2_778
10
40.5070199
20
61.6189656
11
40.5070199
21
61.8689656
0
LINE
8
DEFAULT_255_2_778
10
40.5070199
20
61.8689656
11
48.6570199
21
61.8689656
0
LINE
8
DEFAULT_255_2_778
10
48.6570199
20
61.8689656
11
48.6570199
21
61.6189656
0
LINE
8
DEFAULT_255_2_778
10
40.5070199
20
60.0914656
11
40.5070199
21
61.6189656
0
LINE
8
DEFAULT_255_2_778
10
40.5070199
20
61.6189656
11
48.6570199
21
61.6189656
0
LINE
8
DEFAULT_255_2_778
10
48.6570199
20
61.6189656
11
48.6570199
21
60.0914656
0
LINE
8
DEFAULT_255_2_778
10
48.6570199
20
59.8414656
11
48.6570199
21
60.0914656
0
LINE
8
DEFAULT_255_2_778
10
48.6570199
20
60.0914656
11
40.5070199
21
60.0914656
0
LINE
8
DEFAULT_255_2_778
10
40.5070199
20
60.0914656
11
40.5070199
21
59.5414656
0
LINE
8
DEFAULT_255_2_778
10
40.5070199
20
59.5414656
11
48.6570199
21
59.5414656
0
LINE
8
DEFAULT_255_2_778
10
48.6570199
20
59.5414656
11
48.6570199
21
59.8414656
0
LINE
8
DEFAULT_255_2_778
10
40.5070199
20
62.4190656
11
40.5070199
21
63.9189656
0
LINE
8
DEFAULT_255_2_778
10
40.5070199
20
63.9189656
11
48.6570199
21
63.9189656
0
LINE
8
DEFAULT_255_2_778
10
48.6570199
20
63.9189656
11
48.6570199
21
62.4190656
0
LINE
8
DEFAULT_255_2_778
10
40.5070199
20
62.1689656
11
48.6570199
21
62.1689656
0
LINE
8
DEFAULT_255_2_778
10
48.6570199
20
63.3416656
11
40.5070199
21
63.3416656
0
LINE
8
DEFAULT_255_2_778
10
40.5070199
20
62.8415656
11
48.6570199
21
62.8415656
0
ARC
8
DEFAULT_255_2_778
10
36.1791712
20
49.3391767
40
3.4961323
50
206.574066
51
230.9622102
0
ARC
8
DEFAULT_255_2_778
10
36.1824594
20
49.341754
40
3.5002055
50
230.946974
51
265.630722
0
ARC
8
DEFAULT_255_2_778
10
36.1826276
20
49.3524752
40
3.5109084
50
265.6413158
51
269.9976155
0
ARC
8
DEFAULT_255_2_778
10
52.9828567
20
49.3382137
40
3.4966469
50
269.9922118
51
294.3752901
0
ARC
8
DEFAULT_255_2_778
10
52.9823342
20
49.3416514
40
3.499994
50
294.359856
51
329.0425847
0
ARC
8
DEFAULT_255_2_778
10
52.9729965
20
49.3464766
40
3.5104838
50
329.0534458
51
333.4098789
0
ARC
8
DEFAULT_255_2_778
10
88.8649316
20
49.3095143
40
0.0686417
50
11.5575741
51
70.5264964
0
ARC
8
DEFAULT_255_2_778
10
88.6601373
20
48.9309857
40
0.4982991
50
62.8121563
51
75.9270877
0
ARC
8
DEFAULT_255_2_778
10
88.3702108
20
47.8630663
40
1.6048091
50
75.1575527
51
81.4895718
0
ARC
8
DEFAULT_255_2_778
10
88.1003903
20
46.1389207
40
3.3499211
50
81.2895573
51
85.4847887
0
ARC
8
DEFAULT_255_2_778
10
87.9487178
20
44.2832099
40
5.2118152
50
85.4285764
51
89.3925889
0
ARC
8
DEFAULT_255_2_778
10
87.9321124
20
43.5518999
40
5.9432668
50
89.3072547
51
90.0012629
0
ARC
8
DEFAULT_255_2_778
10
1.2255457
20
44.0297691
40
5.4654018
50
89.9293863
51
93.902712
0
ARC
8
DEFAULT_255_2_778
10
1.0991727
20
45.8229514
40
3.6677788
50
93.8397353
51
98.0053443
0
ARC
8
DEFAULT_255_2_778
10
0.8428074
20
47.6155259
40
1.8569748
50
97.8750388
51
103.5049297
0
ARC
8
DEFAULT_255_2_778
10
0.5519534
20
48.7973035
40
0.6399871
50
102.8932263
51
114.0832949
0
ARC
8
DEFAULT_255_2_778
10
0.3265586
20
49.2808951
40
0.1068487
50
109.5536431
51
149.4722852
0
ARC
8
DEFAULT_255_2_778
10
0.2644056
20
49.3231145
40
0.0322244
50
158.0317797
51
179.7292859
0
LINE
8
DEFAULT_255_2_778
10
34.6822814
20
49.3414668
11
34.6822814
21
49.3414668
0
LINE
8
DEFAULT_255_2_778
10
54.4823814
20
49.3414668
11
54.4823814
21
49.3414668
0
LINE
8
DEFAULT_255_2_778
10
36.1824814
20
45.8415668
11
52.9823814
21
45.8415668
0
LINE
8
DEFAULT_255_2_778
10
54.4823814
20
59.8417668
11
56.4823814
21
59.8417668
0
LINE
8
DEFAULT_255_2_778
10
56.4823814
20
59.8417668
11
56.4823814
21
52.9416668
0
LINE
8
DEFAULT_255_2_778
10
56.4823814
20
52.9416668
11
32.6822814
21
52.9416668
0
LINE
8
DEFAULT_255_2_778
10
32.6822814
20
52.9416668
11
32.6822814
21
59.8414668
0
LINE
8
DEFAULT_255_2_778
10
32.6822814
20
59.8414668
11
34.6822814
21
59.8414668
0
LINE
8
DEFAULT_255_2_778
10
34.6822814
20
59.8414668
11
54.4823814
21
59.8417668
0
LINE
8
DEFAULT_255_2_778
10
50.6445814
20
62.8415668
11
50.6011814
21
63.3416668
0
LINE
8
DEFAULT_255_2_778
10
48.9821814
20
62.8415668
11
48.9821814
21
63.3416668
0
LINE
8
DEFAULT_255_2_778
10
49.6322814
20
63.3416668
11
49.1321814
21
62.8415668
0
LINE
8
DEFAULT_255_2_778
10
11.3983814
20
62.8415668
11
11.0985814
21
62.8415668
0
LINE
8
DEFAULT_255_2_778
10
11.0985814
20
62.8415668
11
11.0985814
21
64.8415668
0
LINE
8
DEFAULT_255_2_778
10
15.3411814
20
62.8415668
11
15.3411814
21
64.8415668
0
LINE
8
DEFAULT_255_2_778
10
15.3189814
20
62.8415668
11
15.3189814
21
64.8415668
0
LINE
8
DEFAULT_255_2_778
10
12.7027814
20
62.8415668
11
12.7027814
21
64.8415668
0
LINE
8
DEFAULT_255_2_778
10
8.4821814
20
64.8415668
11
8.4821814
21
62.8415668
0
LINE
8
DEFAULT_255_2_778
10
8.4821814
20
62.8415668
11
8.7821814
21
62.8415668
0
LINE
8
DEFAULT_255_2_778
10
25.1162814
20
62.8415668
11
24.8161814
21
62.8415668
0
LINE
8
DEFAULT_255_2_778
10
24.8161814
20
62.8415668
11
24.8161814
21
64.8415668
0
LINE
8
DEFAULT_255_2_778
10
18.2571814
20
62.8415668
11
17.9571814
21
62.8415668
0
LINE
8
DEFAULT_255_2_778
10
17.9571814
20
62.8415668
11
17.9571814
21
64.8415668
0
LINE
8
DEFAULT_255_2_778
10
22.1997814
20
62.8415668
11
22.1997814
21
64.8415668
0
LINE
8
DEFAULT_255_2_778
10
22.1774814
20
62.8415668
11
22.1774814
21
64.8415668
0
LINE
8
DEFAULT_255_2_778
10
19.5612814
20
62.8415668
11
19.5612814
21
64.8415668
0
LINE
8
DEFAULT_255_2_778
10
31.9750814
20
62.8415668
11
31.6749814
21
62.8415668
0
LINE
8
DEFAULT_255_2_778
10
31.6749814
20
62.8415668
11
31.6749814
21
64.8415668
0
LINE
8
DEFAULT_255_2_778
10
29.0587814
20
62.8415668
11
29.0587814
21
64.8415668
0
LINE
8
DEFAULT_255_2_778
10
29.0365814
20
62.8415668
11
29.0365814
21
64.8415668
0
LINE
8
DEFAULT_255_2_778
10
26.4206814
20
62.8415668
11
26.4206814
21
64.8415668
0
LINE
8
DEFAULT_255_2_778
10
42.2837814
20
63.8998668
11
42.2837814
21
64.8415668
0
LINE
8
DEFAULT_255_2_778
10
49.6137814
20
62.8415668
11
49.6137814
21
64.8415668
0
LINE
8
DEFAULT_255_2_778
10
42.7546814
20
63.8998668
11
42.7546814
21
64.8415668
0
LINE
8
DEFAULT_255_2_778
10
46.9972814
20
63.8998668
11
46.9972814
21
64.8415668
0
LINE
8
DEFAULT_255_2_778
10
49.1424814
20
62.8415668
11
49.1424814
21
64.8415668
0
LINE
8
DEFAULT_255_2_778
10
44.8999814
20
63.8998668
11
44.8999814
21
64.8415668
0
LINE
8
DEFAULT_255_2_778
10
38.8343814
20
62.8415668
11
38.5342814
21
62.8415668
0
LINE
8
DEFAULT_255_2_778
10
38.5342814
20
62.8415668
11
38.5342814
21
64.8415668
0
LINE
8
DEFAULT_255_2_778
10
35.9180814
20
62.8415668
11
35.9180814
21
64.8415668
0
LINE
8
DEFAULT_255_2_778
10
33.2796814
20
62.8415668
11
33.2796814
21
64.8415668
0
LINE
8
DEFAULT_255_2_778
10
35.8958814
20
62.8415668
11
35.8958814
21
64.8415668
0
LINE
8
DEFAULT_255_2_778
10
40.1384814
20
62.8415668
11
40.1384814
21
64.8415668
0
LINE
8
DEFAULT_255_2_778
10
58.9177814
20
62.8415668
11
58.6177814
21
62.8415668
0
LINE
8
DEFAULT_255_2_778
10
58.6177814
20
62.8415668
11
58.6177814
21
64.8415668
0
LINE
8
DEFAULT_255_2_778
10
52.0587814
20
62.8415668
11
51.7586814
21
62.8415668
0
LINE
8
DEFAULT_255_2_778
10
51.7586814
20
62.8415668
11
51.7586814
21
64.8415668
0
LINE
8
DEFAULT_255_2_778
10
56.0012814
20
62.8415668
11
56.0012814
21
64.8415668
0
LINE
8
DEFAULT_255_2_778
10
56.4722814
20
62.8415668
11
56.4722814
21
64.8415668
0
LINE
8
DEFAULT_255_2_778
10
53.8560814
20
62.8415668
11
53.8560814
21
64.8415668
0
LINE
8
DEFAULT_255_2_778
10
65.7765814
20
62.8415668
11
65.4765814
21
62.8415668
0
LINE
8
DEFAULT_255_2_778
10
65.4765814
20
62.8415668
11
65.4765814
21
64.8415668
0
LINE
8
DEFAULT_255_2_778
10
62.8603814
20
62.8415668
11
62.8603814
21
64.8415668
0
LINE
8
DEFAULT_255_2_778
10
63.3313814
20
62.8415668
11
63.3313814
21
64.8415668
0
LINE
8
DEFAULT_255_2_778
10
60.7151814
20
62.8415668
11
60.7151814
21
64.8415668
0
LINE
8
DEFAULT_255_2_778
10
76.5781814
20
62.8415668
11
76.5781814
21
64.8415668
0
LINE
8
DEFAULT_255_2_778
10
73.9397814
20
62.8415668
11
73.9397814
21
64.8415668
0
LINE
8
DEFAULT_255_2_778
10
79.4944814
20
62.8415668
11
79.1943814
21
62.8415668
0
LINE
8
DEFAULT_255_2_778
10
79.1943814
20
62.8415668
11
79.1943814
21
64.8415668
0
LINE
8
DEFAULT_255_2_778
10
76.5559814
20
62.8415668
11
76.5559814
21
64.8415668
0
LINE
8
DEFAULT_255_2_778
10
80.3821814
20
62.8415668
11
80.6821814
21
62.8415668
0
LINE
8
DEFAULT_255_2_778
10
80.6821814
20
62.8415668
11
80.6821814
21
64.8415668
0
LINE
8
DEFAULT_255_2_778
10
72.6356814
20
62.8415668
11
72.3356814
21
62.8415668
0
LINE
8
DEFAULT_255_2_778
10
72.3356814
20
62.8415668
11
72.3356814
21
64.8415668
0
LINE
8
DEFAULT_255_2_778
10
69.7194814
20
62.8415668
11
69.7194814
21
64.8415668
0
LINE
8
DEFAULT_255_2_778
10
70.1903814
20
62.8415668
11
70.1903814
21
64.8415668
0
LINE
8
DEFAULT_255_2_778
10
67.5741814
20
62.8415668
11
67.5741814
21
64.8415668
0
LINE
8
DEFAULT_255_2_778
10
21.4321814
20
41.9415668
11
21.4321814
21
47.3914668
0
LINE
8
DEFAULT_255_2_778
10
21.4321814
20
41.4415668
11
67.7321814
21
41.4415668
0
LINE
8
DEFAULT_255_2_778
10
67.7321814
20
41.4415668
11
67.7321814
21
47.3914668
0
LINE
8
DEFAULT_255_2_778
10
67.7321814
20
47.3914668
11
21.4321814
21
47.3914668
0
LINE
8
DEFAULT_255_2_778
10
21.4321814
20
47.3914668
11
21.4321814
21
47.8915668
0
LINE
8
DEFAULT_255_2_778
10
21.4321814
20
47.8915668
11
67.7321814
21
47.8915668
0
LINE
8
DEFAULT_255_2_778
10
67.7321814
20
47.8915668
11
67.7321814
21
47.3914668
0
LINE
8
DEFAULT_255_2_778
10
24.9320814
20
46.1415668
11
64.2322814
21
46.1415668
0
LINE
8
DEFAULT_255_2_778
10
64.2322814
20
46.1415668
11
64.2322814
21
43.1914668
0
LINE
8
DEFAULT_255_2_778
10
64.2322814
20
43.1914668
11
24.9320814
21
43.1914668
0
LINE
8
DEFAULT_255_2_778
10
24.9320814
20
43.1914668
11
24.9320814
21
46.1415668
0
LINE
8
DEFAULT_255_2_778
10
82.3820814
20
54.9416668
11
82.3820814
21
64.8415668
0
LINE
8
DEFAULT_255_2_778
10
82.3820814
20
64.8415668
11
6.7821814
21
64.8415668
0
LINE
8
DEFAULT_255_2_778
10
6.7821814
20
64.8415668
11
6.7821814
21
54.9416668
0
LINE
8
DEFAULT_255_2_778
10
2.2321814
20
16.1526668
11
86.9321814
21
16.1526668
0
LINE
8
DEFAULT_255_2_778
10
85.1422814
20
25.4614668
11
4.0220814
21
25.4614668
0
LINE
8
DEFAULT_255_2_778
10
4.0220814
20
25.4614668
11
4.0220814
21
14.2415668
0
LINE
8
DEFAULT_255_2_778
10
4.0220814
20
14.2415668
11
85.1422814
21
14.2415668
0
LINE
8
DEFAULT_255_2_778
10
85.1422814
20
14.2415668
11
85.1422814
21
25.4614668
0
LINE
8
DEFAULT_255_2_778
10
86.9321814
20
27.4614668
11
2.2321814
21
27.4614668
0
LINE
8
DEFAULT_255_2_778
10
54.4820814
20
49.4949668
11
54.4820814
21
54.9416668
0
LINE
8
DEFAULT_255_2_778
10
54.4820814
20
54.9416668
11
88.9321814
21
54.9416668
0
LINE
8
DEFAULT_255_2_778
10
88.9321814
20
54.9416668
11
88.9321814
21
3.1068668
0
LINE
8
DEFAULT_255_2_778
10
88.9321814
20
3.1068668
11
0.2321814
21
3.1068668
0
LINE
8
DEFAULT_255_2_778
10
0.2321814
20
3.1068668
11
0.2321814
21
54.9416668
0
LINE
8
DEFAULT_255_2_778
10
0.2321814
20
54.9416668
11
1.2322814
21
54.9416668
0
LINE
8
DEFAULT_255_2_778
10
0.2321814
20
11.9016668
11
3.3722814
21
11.9016668
0
LINE
8
DEFAULT_255_2_778
10
3.3722814
20
11.9016668
11
3.3722814
21
4.8917668
0
LINE
8
DEFAULT_255_2_778
10
3.3722814
20
4.8917668
11
85.7923814
21
4.8917668
0
LINE
8
DEFAULT_255_2_778
10
85.7923814
20
4.8917668
11
85.7923814
21
11.9016668
0
LINE
8
DEFAULT_255_2_778
10
85.7923814
20
11.9016668
11
88.9323814
21
11.9016668
0
LINE
8
DEFAULT_255_2_778
10
2.2321814
20
12.2415668
11
86.9321814
21
12.2415668
0
LINE
8
DEFAULT_255_2_778
10
67.7321814
20
41.9415668
11
21.4321814
21
41.9415668
0
LINE
8
DEFAULT_255_2_778
10
21.4321814
20
41.9415668
11
21.4321814
21
37.4415668
0
LINE
8
DEFAULT_255_2_778
10
21.4321814
20
37.4415668
11
6.7321814
21
37.4415668
0
LINE
8
DEFAULT_255_2_778
10
6.7321814
20
37.4415668
11
6.7321814
21
21.4416668
0
LINE
8
DEFAULT_255_2_778
10
6.7321814
20
21.4416668
11
2.2321814
21
21.4416668
0
LINE
8
DEFAULT_255_2_778
10
86.9321814
20
21.4416668
11
82.4321814
21
21.4416668
0
LINE
8
DEFAULT_255_2_778
10
82.4321814
20
21.4416668
11
82.4321814
21
37.4415668
0
LINE
8
DEFAULT_255_2_778
10
82.4321814
20
37.4415668
11
67.7321814
21
37.4415668
0
LINE
8
DEFAULT_255_2_778
10
67.7321814
20
37.4415668
11
67.7321814
21
41.4415668
0
LINE
8
DEFAULT_255_2_778
10
88.9321814
20
37.4415668
11
84.4320814
21
37.4415668
0
LINE
8
DEFAULT_255_2_778
10
84.4320814
20
37.4415668
11
84.4320814
21
23.4416668
0
LINE
8
DEFAULT_255_2_778
10
84.4320814
20
23.4416668
11
88.9321814
21
23.4416668
0
LINE
8
DEFAULT_255_2_778
10
8.7821814
20
62.7415668
11
8.7821814
21
49.3414668
0
LINE
8
DEFAULT_255_2_778
10
8.7821814
20
49.3414668
11
32.6822814
21
49.3414668
0
LINE
8
DEFAULT_255_2_778
10
86.9321814
20
47.7751668
11
56.1121814
21
47.7751668
0
LINE
8
DEFAULT_255_2_778
10
56.1121814
20
47.7751668
11
56.2121814
21
47.9931668
0
LINE
8
DEFAULT_255_2_778
10
56.2121814
20
47.9931668
11
56.2970814
21
48.2183668
0
LINE
8
DEFAULT_255_2_778
10
56.2970814
20
48.2183668
11
56.3664814
21
48.4484668
0
LINE
8
DEFAULT_255_2_778
10
56.3664814
20
48.4484668
11
56.4193814
21
48.6810668
0
LINE
8
DEFAULT_255_2_778
10
56.4193814
20
48.6810668
11
56.4561814
21
48.9152668
0
LINE
8
DEFAULT_255_2_778
10
56.4561814
20
48.9152668
11
56.4770814
21
49.1509668
0
LINE
8
DEFAULT_255_2_778
10
56.4770814
20
49.1509668
11
86.9321814
21
49.1509668
0
LINE
8
DEFAULT_255_2_778
10
2.2321814
20
47.7751668
11
33.0521814
21
47.7751668
0
LINE
8
DEFAULT_255_2_778
10
33.0521814
20
47.7751668
11
32.9526814
21
47.9920668
0
LINE
8
DEFAULT_255_2_778
10
32.9526814
20
47.9920668
11
32.8682814
21
48.2151668
0
LINE
8
DEFAULT_255_2_778
10
32.8682814
20
48.2151668
11
32.7989814
21
48.4445668
0
LINE
8
DEFAULT_255_2_778
10
32.7989814
20
48.4445668
11
32.7454814
21
48.6784668
0
LINE
8
DEFAULT_255_2_778
10
32.7454814
20
48.6784668
11
32.7081814
21
48.9144668
0
LINE
8
DEFAULT_255_2_778
10
32.7081814
20
48.9144668
11
32.6872814
21
49.1514668
0
LINE
8
DEFAULT_255_2_778
10
32.6872814
20
49.1514668
11
2.2321814
21
49.1514668
0
LINE
8
DEFAULT_255_2_778
10
56.4770814
20
49.0771668
11
56.4796814
21
49.1327668
0
LINE
8
DEFAULT_255_2_778
10
56.4796814
20
49.1327668
11
56.4823814
21
52.9421668
0
LINE
8
DEFAULT_255_2_778
10
56.4823814
20
52.9421668
11
86.9324814
21
52.9421668
0
LINE
8
DEFAULT_255_2_778
10
86.9324814
20
52.9421668
11
86.9324814
21
5.5748668
0
LINE
8
DEFAULT_255_2_778
10
80.3821814
20
62.7415668
11
80.3821814
21
49.3414668
0
LINE
8
DEFAULT_255_2_778
10
80.3821814
20
49.3414668
11
56.4820814
21
49.3414668
0
LINE
8
DEFAULT_255_2_778
10
56.4820814
20
49.3414668
11
56.4820814
21
49.3414668
0
LINE
8
DEFAULT_255_2_778
10
32.6872814
20
49.0766668
11
32.6846814
21
49.1321668
0
LINE
8
DEFAULT_255_2_778
10
32.6846814
20
49.1321668
11
32.6819814
21
49.2430668
0
LINE
8
DEFAULT_255_2_778
10
32.6819814
20
49.2430668
11
32.6819814
21
52.9416668
0
LINE
8
DEFAULT_255_2_778
10
32.6819814
20
52.9416668
11
2.2321814
21
52.9416668
0
LINE
8
DEFAULT_255_2_778
10
2.2321814
20
52.9416668
11
2.2321814
21
5.5748668
0
LINE
8
DEFAULT_255_2_778
10
0.2321814
20
37.4415668
11
4.7321814
21
37.4415668
0
LINE
8
DEFAULT_255_2_778
10
4.7321814
20
37.4415668
11
4.7321814
21
23.4416668
0
LINE
8
DEFAULT_255_2_778
10
4.7321814
20
23.4416668
11
0.2321814
21
23.4416668
0
LINE
8
DEFAULT_255_2_778
10
0.2353814
20
4.5670668
11
1.2320814
21
5.5637668
0
LINE
8
DEFAULT_255_2_778
10
1.2320814
20
5.5637668
11
87.9319814
21
5.5637668
0
LINE
8
DEFAULT_255_2_778
10
87.9319814
20
5.5637668
11
87.9319814
21
47.7751668
0
LINE
8
DEFAULT_255_2_778
10
87.9319814
20
47.7751668
11
1.2322814
21
47.7751668
0
LINE
8
DEFAULT_255_2_778
10
1.2322814
20
47.7751668
11
1.2322814
21
5.5637668
0
LINE
8
DEFAULT_255_2_778
10
40.5072814
20
63.3416668
11
6.7821814
21
63.3416668
0
LINE
8
DEFAULT_255_2_778
10
82.3820814
20
63.3416668
11
48.6572814
21
63.3416668
0
LINE
8
DEFAULT_255_2_778
10
48.6572814
20
62.8415668
11
80.3823814
21
62.8415668
0
LINE
8
DEFAULT_255_2_778
10
80.3823814
20
62.8415668
11
80.3823814
21
62.7415668
0
LINE
8
DEFAULT_255_2_778
10
80.3823814
20
62.7415668
11
54.4823814
21
62.7415668
0
LINE
8
DEFAULT_255_2_778
10
54.4823814
20
62.7415668
11
54.4823814
21
54.9416668
0
LINE
8
DEFAULT_255_2_778
10
54.4823814
20
54.9416668
11
34.6822814
21
54.9416668
0
LINE
8
DEFAULT_255_2_778
10
34.6822814
20
54.9416668
11
34.6822814
21
62.7415668
0
LINE
8
DEFAULT_255_2_778
10
34.6822814
20
62.7415668
11
8.7821814
21
62.7415668
0
LINE
8
DEFAULT_255_2_778
10
8.7821814
20
62.7415668
11
8.7821814
21
62.8415668
0
LINE
8
DEFAULT_255_2_778
10
8.7821814
20
62.8415668
11
40.5070814
21
62.8415668
0
LINE
8
DEFAULT_255_2_778
10
88.9321814
20
3.1068668
11
88.9321814
21
-0.2583332
0
LINE
8
DEFAULT_255_2_778
10
88.9321814
20
-0.2583332
11
86.3320814
21
-0.2583332
0
LINE
8
DEFAULT_255_2_778
10
86.3320814
20
-0.2583332
11
86.3320814
21
0.6417668
0
LINE
8
DEFAULT_255_2_778
10
86.3320814
20
0.6417668
11
87.7520814
21
0.6417668
0
LINE
8
DEFAULT_255_2_778
10
87.7520814
20
0.6417668
11
87.7520814
21
3.0417668
0
LINE
8
DEFAULT_255_2_778
10
87.9319814
20
49.4951668
11
87.9319814
21
49.4951668
0
LINE
8
DEFAULT_255_2_778
10
87.9319814
20
49.4951668
11
87.9319814
21
54.9416668
0
LINE
8
DEFAULT_255_2_778
10
34.6819814
20
49.4951668
11
34.6819814
21
49.3417668
0
LINE
8
DEFAULT_255_2_778
10
34.6819814
20
49.3417668
11
34.7195814
21
49.0086668
0
LINE
8
DEFAULT_255_2_778
10
34.7195814
20
49.0086668
11
34.8295814
21
48.6929668
0
LINE
8
DEFAULT_255_2_778
10
34.8295814
20
48.6929668
11
35.0079814
21
48.4082668
0
LINE
8
DEFAULT_255_2_778
10
35.0079814
20
48.4082668
11
35.2455814
21
48.1698668
0
LINE
8
DEFAULT_255_2_778
10
35.2455814
20
48.1698668
11
35.5296814
21
47.9907668
0
LINE
8
DEFAULT_255_2_778
10
35.5296814
20
47.9907668
11
35.8479814
21
47.8791668
0
LINE
8
DEFAULT_255_2_778
10
35.8479814
20
47.8791668
11
36.1821814
21
47.8415668
0
LINE
8
DEFAULT_255_2_778
10
36.1821814
20
47.8415668
11
52.9821814
21
47.8415668
0
LINE
8
DEFAULT_255_2_778
10
52.9821814
20
47.8415668
11
53.3184814
21
47.8799668
0
LINE
8
DEFAULT_255_2_778
10
53.3184814
20
47.8799668
11
53.6353814
21
47.9912668
0
LINE
8
DEFAULT_255_2_778
10
53.6353814
20
47.9912668
11
53.9200814
21
48.1709668
0
LINE
8
DEFAULT_255_2_778
10
53.9200814
20
48.1709668
11
54.1574814
21
48.4093668
0
LINE
8
DEFAULT_255_2_778
10
54.1574814
20
48.4093668
11
54.3352814
21
48.6937668
0
LINE
8
DEFAULT_255_2_778
10
54.3352814
20
48.6937668
11
54.4452814
21
49.0104668
0
LINE
8
DEFAULT_255_2_778
10
54.4452814
20
49.0104668
11
54.4823814
21
49.3414668
0
LINE
8
DEFAULT_255_2_778
10
54.4823814
20
49.3414668
11
54.4823814
21
49.4949668
0
LINE
8
DEFAULT_255_2_778
10
54.4823814
20
49.4949668
11
87.9322814
21
49.4949668
0
LINE
8
DEFAULT_255_2_778
10
87.9322814
20
49.4949668
11
87.9322814
21
47.7748668
0
LINE
8
DEFAULT_255_2_778
10
87.9322814
20
47.7748668
11
88.9323814
21
47.7748668
0
LINE
8
DEFAULT_255_2_778
10
0.2321814
20
47.7751668
11
1.2322814
21
47.7751668
0
LINE
8
DEFAULT_255_2_778
10
1.2322814
20
47.7751668
11
1.2322814
21
49.4951668
0
LINE
8
DEFAULT_255_2_778
10
1.2322814
20
49.4951668
11
34.6822814
21
49.4951668
0
LINE
8
DEFAULT_255_2_778
10
34.6822814
20
49.4951668
11
34.6822814
21
54.9416668
0
LINE
8
DEFAULT_255_2_778
10
34.6822814
20
54.9416668
11
1.2322814
21
54.9416668
0
LINE
8
DEFAULT_255_2_778
10
1.2322814
20
54.9416668
11
1.2322814
21
49.4951668
0
LINE
8
DEFAULT_255_2_778
10
0.2321814
20
49.3232668
11
0.2321814
21
49.3232668
0
LINE
8
DEFAULT_255_2_778
10
0.2321814
20
3.1068668
11
0.2321814
21
-0.2583332
0
LINE
8
DEFAULT_255_2_778
10
0.2321814
20
-0.2583332
11
2.8322814
21
-0.2583332
0
LINE
8
DEFAULT_255_2_778
10
2.8322814
20
-0.2583332
11
2.8322814
21
0.6417668
0
LINE
8
DEFAULT_255_2_778
10
2.8322814
20
0.6417668
11
1.4121814
21
0.6417668
0
LINE
8
DEFAULT_255_2_778
10
1.4121814
20
0.6417668
11
1.4121814
21
3.0417668
0
LINE
8
DEFAULT_255_2_778
10
5.9169813
20
46.4836427
11
5.9169813
21
46.3204427
0
LINE
8
DEFAULT_255_2_778
10
5.9169813
20
46.3204427
11
5.4333813
21
46.3204427
0
LINE
8
DEFAULT_255_2_778
10
5.4333813
20
46.3204427
11
5.4333813
21
44.9789427
0
LINE
8
DEFAULT_255_2_778
10
5.4333813
20
44.9789427
11
5.2359813
21
44.9789427
0
LINE
8
DEFAULT_255_2_778
10
5.2359813
20
44.9789427
11
5.2359813
21
46.3204427
0
LINE
8
DEFAULT_255_2_778
10
5.2359813
20
46.3204427
11
4.7533813
21
46.3204427
0
LINE
8
DEFAULT_255_2_778
10
4.7533813
20
46.3204427
11
4.7533813
21
46.4836427
0
LINE
8
DEFAULT_255_2_778
10
4.7533813
20
46.4836427
11
5.9169813
21
46.4836427
0
LINE
8
DEFAULT_255_2_778
10
5.9169813
20
46.4836427
11
5.9169813
21
46.4836427
0
LINE
8
DEFAULT_255_2_778
10
6.719175
20
46.4908469
11
6.719175
21
44.9787469
0
LINE
8
DEFAULT_255_2_778
10
6.719175
20
44.9787469
11
6.526875
21
44.9787469
0
LINE
8
DEFAULT_255_2_778
10
6.526875
20
44.9787469
11
6.526875
21
46.2529469
0
LINE
8
DEFAULT_255_2_778
10
6.526875
20
46.2529469
11
6.141375
21
46.1114469
0
LINE
8
DEFAULT_255_2_778
10
6.141375
20
46.1114469
11
6.141375
21
46.2850469
0
LINE
8
DEFAULT_255_2_778
10
6.141375
20
46.2850469
11
6.689075
21
46.4905469
0
LINE
8
DEFAULT_255_2_778
10
6.689075
20
46.4905469
11
6.718975
21
46.4905469
0
LINE
8
DEFAULT_255_2_778
10
6.718975
20
46.4905469
11
6.719175
21
46.4908469
0
LINE
8
DEFAULT_255_2_778
10
8.1587886
20
45.8055427
11
8.1587886
21
45.6433427
0
LINE
8
DEFAULT_255_2_778
10
8.1587886
20
45.6433427
11
7.5271886
21
45.6433427
0
LINE
8
DEFAULT_255_2_778
10
7.5271886
20
45.6433427
11
7.5271886
21
44.9787427
0
LINE
8
DEFAULT_255_2_778
10
7.5271886
20
44.9787427
11
7.3287886
21
44.9787427
0
LINE
8
DEFAULT_255_2_778
10
7.3287886
20
44.9787427
11
7.3287886
21
46.4834427
0
LINE
8
DEFAULT_255_2_778
10
7.3287886
20
46.4834427
11
8.2608886
21
46.4834427
0
LINE
8
DEFAULT_255_2_778
10
8.2608886
20
46.4834427
11
8.2608886
21
46.3202427
0
LINE
8
DEFAULT_255_2_778
10
8.2608886
20
46.3202427
11
7.5271886
21
46.3202427
0
LINE
8
DEFAULT_255_2_778
10
7.5271886
20
46.3202427
11
7.5271886
21
45.8055427
0
LINE
8
DEFAULT_255_2_778
10
7.5271886
20
45.8055427
11
8.1587886
21
45.8055427
0
LINE
8
DEFAULT_255_2_778
10
8.1587886
20
45.8055427
11
8.1587886
21
45.8055427
0
LINE
8
DEFAULT_255_2_778
10
8.8667886
20
45.6960427
11
8.8667886
21
45.5399427
0
LINE
8
DEFAULT_255_2_778
10
8.8667886
20
45.5399427
11
8.3624886
21
45.5399427
0
LINE
8
DEFAULT_255_2_778
10
8.3624886
20
45.5399427
11
8.3624886
21
45.6960427
0
LINE
8
DEFAULT_255_2_778
10
8.3624886
20
45.6960427
11
8.8667886
21
45.6960427
0
LINE
8
DEFAULT_255_2_778
10
8.8667886
20
45.6960427
11
8.8667886
21
45.6960427
0
LINE
8
DEFAULT_255_2_778
10
9.661575
20
46.4908469
11
9.661575
21
44.9787469
0
LINE
8
DEFAULT_255_2_778
10
9.661575
20
44.9787469
11
9.469275
21
44.9787469
0
LINE
8
DEFAULT_255_2_778
10
9.469275
20
44.9787469
11
9.469275
21
46.2529469
0
LINE
8
DEFAULT_255_2_778
10
9.469275
20
46.2529469
11
9.083775
21
46.1114469
0
LINE
8
DEFAULT_255_2_778
10
9.083775
20
46.1114469
11
9.083775
21
46.2850469
0
LINE
8
DEFAULT_255_2_778
10
9.083775
20
46.2850469
11
9.631475
21
46.4905469
0
LINE
8
DEFAULT_255_2_778
10
9.631475
20
46.4905469
11
9.661375
21
46.4905469
0
LINE
8
DEFAULT_255_2_778
10
9.661375
20
46.4905469
11
9.661575
21
46.4908469
0
ARC
8
DEFAULT_255_2_778
10
10.933776
20
45.7597885
40
0.5627359
50
89.6787299
51
116.7499198
0
ARC
8
DEFAULT_255_2_778
10
10.8843223
20
45.8776676
40
0.4353042
50
117.9209065
51
134.1104813
0
ARC
8
DEFAULT_255_2_778
10
10.9407528
20
45.8328424
40
0.5068525
50
135.1637301
51
170.1256906
0
ARC
8
DEFAULT_255_2_778
10
11.2271265
20
45.7606403
40
0.8016681
50
168.551488
51
175.064184
0
ARC
8
DEFAULT_255_2_778
10
10.7328552
20
45.5594305
40
0.4070306
50
87.611112
51
138.4100084
0
ARC
8
DEFAULT_255_2_778
10
10.7529906
20
45.3536396
40
0.6124759
50
89.9961927
51
90.296512
0
ARC
8
DEFAULT_255_2_778
10
10.7682044
20
45.5755723
40
0.390838
50
40.1758132
51
92.2248871
0
ARC
8
DEFAULT_255_2_778
10
10.670388
20
45.5033822
40
0.5122103
50
2.2595199
51
39.2868694
0
ARC
8
DEFAULT_255_2_778
10
10.4173082
20
45.4706137
40
0.7667233
50
359.9553018
51
3.9609635
0
ARC
8
DEFAULT_255_2_778
10
10.5742681
20
45.4566809
40
0.609909
50
336.7243125
51
1.2527843
0
ARC
8
DEFAULT_255_2_778
10
10.723423
20
45.4012919
40
0.4510779
50
317.7523175
51
335.7006919
0
ARC
8
DEFAULT_255_2_778
10
10.7371467
20
45.3946899
40
0.4365018
50
267.4638173
51
317.1826646
0
ARC
8
DEFAULT_255_2_778
10
10.7067522
20
45.3880034
40
0.4295308
50
217.838064
51
271.4780215
0
ARC
8
DEFAULT_255_2_778
10
10.8520983
20
45.5050143
40
0.6161042
50
184.4559014
51
218.1402207
0
ARC
8
DEFAULT_255_2_778
10
11.1527508
20
45.5502635
40
0.9196208
50
179.9032974
51
185.8113973
0
ARC
8
DEFAULT_255_2_778
10
11.7171523
20
45.6376956
40
1.4840743
50
169.2519056
51
180.485684
0
ARC
8
DEFAULT_255_2_778
10
11.0951481
20
45.7611659
40
0.8499725
50
149.8804645
51
169.6095683
0
ARC
8
DEFAULT_255_2_778
10
10.9062384
20
45.8606571
40
0.6367039
50
141.1425347
51
149.094115
0
ARC
8
DEFAULT_255_2_778
10
10.8699033
20
45.8821489
40
0.5949566
50
98.3759949
51
140.5589122
0
ARC
8
DEFAULT_255_2_778
10
10.9482986
20
45.5260951
40
0.9589765
50
90.6194248
51
99.9112678
0
ARC
8
DEFAULT_255_2_778
10
10.7204307
20
45.5013227
40
0.3052935
50
89.887271
51
126.2212321
0
ARC
8
DEFAULT_255_2_778
10
10.7155743
20
45.4928552
40
0.3093836
50
124.5688379
51
159.7939236
0
ARC
8
DEFAULT_255_2_778
10
10.9932216
20
45.5162501
40
0.5681405
50
178.6822509
51
201.5362532
0
ARC
8
DEFAULT_255_2_778
10
10.8173408
20
45.4550133
40
0.3821351
50
202.6762157
51
216.1640533
0
ARC
8
DEFAULT_255_2_778
10
10.7188176
20
45.3663452
40
0.2506324
50
213.0887393
51
269.7288
0
ARC
8
DEFAULT_255_2_778
10
10.7276304
20
45.3591453
40
0.2436349
50
267.6478607
51
322.4661681
0
ARC
8
DEFAULT_255_2_778
10
10.6154312
20
45.4343389
40
0.378519
50
323.7872706
51
359.3735076
0
ARC
8
DEFAULT_255_2_778
10
10.3865887
20
45.4594484
40
0.6080427
50
357.2428783
51
0.0251798
0
ARC
8
DEFAULT_255_2_778
10
10.5700461
20
45.4731874
40
0.4247989
50
358.1826582
51
27.7082468
0
ARC
8
DEFAULT_255_2_778
10
10.6739065
20
45.5178661
40
0.3121966
50
29.3118436
51
38.0564106
0
ARC
8
DEFAULT_255_2_778
10
10.7278944
20
45.5656568
40
0.2402656
50
37.0189172
51
91.7084316
0
ARC
8
DEFAULT_255_2_778
10
11.8980834
20
45.7986546
40
0.6848931
50
60.8176109
51
91.1254253
0
ARC
8
DEFAULT_255_2_778
10
11.9391431
20
45.886825
40
0.587937
50
26.5385939
51
60.1214904
0
ARC
8
DEFAULT_255_2_778
10
11.7533734
20
45.7959674
40
0.7947299
50
359.8847479
51
26.4147528
0
ARC
8
DEFAULT_255_2_778
10
11.5002827
20
45.7774242
40
1.047956
50
0.2182251
51
0.9264674
0
ARC
8
DEFAULT_255_2_778
10
11.7109574
20
45.6716467
40
0.8373871
50
338.4187151
51
0.9421376
0
ARC
8
DEFAULT_255_2_778
10
11.864755
20
45.6211766
40
0.6758759
50
332.8076663
51
337.6016544
0
ARC
8
DEFAULT_255_2_778
10
11.947581
20
45.571896
40
0.5797146
50
299.2941256
51
333.3991262
0
ARC
8
DEFAULT_255_2_778
10
11.8864773
20
45.7001653
40
0.7215406
50
270.1879992
51
298.541991
0
ARC
8
DEFAULT_255_2_778
10
11.8663158
20
45.9391663
40
0.9608019
50
270.591304
51
271.3435998
0
ARC
8
DEFAULT_255_2_778
10
11.8809575
20
45.65579
40
0.5150573
50
268.4729001
51
296.9382406
0
ARC
8
DEFAULT_255_2_778
10
11.9234204
20
45.551786
40
0.4032078
50
298.2544041
51
318.2915706
0
ARC
8
DEFAULT_255_2_778
10
11.8441798
20
45.6089222
40
0.5004804
50
319.4441823
51
351.5030831
0
ARC
8
DEFAULT_255_2_778
10
11.4736779
20
45.6842586
40
0.8782696
50
350.2135292
51
0.349476
0
ARC
8
DEFAULT_255_2_778
10
11.5755554
20
45.7902711
40
0.7764807
50
359.0587379
51
16.7877921
0
ARC
8
DEFAULT_255_2_778
10
11.872658
20
45.8771631
40
0.4669509
50
17.1096142
51
39.7764798
0
ARC
8
DEFAULT_255_2_778
10
11.9177248
20
45.9028465
40
0.4159823
50
41.0292327
51
88.6940272
0
ARC
8
DEFAULT_255_2_778
10
11.8840571
20
45.6644773
40
0.6556648
50
86.2267036
51
89.4866688
0
ARC
8
DEFAULT_255_2_778
10
13.8993203
20
46.9148471
40
1.8292162
50
318.1706035
51
323.5099663
0
ARC
8
DEFAULT_255_2_778
10
14.7997028
20
46.2502289
40
0.7101082
50
323.4199637
51
331.2261412
0
ARC
8
DEFAULT_255_2_778
10
15.1088073
20
46.0799934
40
0.3572266
50
331.2946586
51
359.7790074
0
ARC
8
DEFAULT_255_2_778
10
15.1967409
20
46.088794
40
0.2694828
50
357.8354195
51
42.7489932
0
ARC
8
DEFAULT_255_2_778
10
15.2156125
20
46.0977265
40
0.2496396
50
44.1836961
51
92.5670973
0
ARC
8
DEFAULT_255_2_778
10
15.190562
20
46.0337532
40
0.3136692
50
87.4657507
51
124.7657425
0
ARC
8
DEFAULT_255_2_778
10
15.1591019
20
46.0941692
40
0.2462492
50
126.7686494
51
135.7772786
0
ARC
8
DEFAULT_255_2_778
10
15.2038059
20
46.0635326
40
0.2997951
50
137.5403279
51
180.2665324
0
ARC
8
DEFAULT_255_2_778
10
15.406586
20
46.0401073
40
0.5030545
50
177.4899888
51
180.0218302
0
ARC
8
DEFAULT_255_2_778
10
15.1560251
20
46.0577389
40
0.4441515
50
134.2444288
51
182.2998303
0
ARC
8
DEFAULT_255_2_778
10
15.1689694
20
46.027164
40
0.475239
50
92.3183173
51
132.7903135
0
ARC
8
DEFAULT_255_2_778
10
15.2037645
20
45.7741956
40
0.7298203
50
89.9476467
51
94.2447405
0
ARC
8
DEFAULT_255_2_778
10
15.2176698
20
45.9498759
40
0.5542978
50
66.8076554
51
91.3685422
0
ARC
8
DEFAULT_255_2_778
10
15.2757137
20
46.1048124
40
0.3890988
50
47.9881895
51
65.6790852
0
ARC
8
DEFAULT_255_2_778
10
15.2833288
20
46.1167592
40
0.375133
50
357.5947027
51
47.6311366
0
ARC
8
DEFAULT_255_2_778
10
15.1736876
20
46.1140122
40
0.4846181
50
333.65666
51
358.4632472
0
ARC
8
DEFAULT_255_2_778
10
14.6691853
20
46.3481156
40
1.0407068
50
322.2954777
51
334.4318791
0
ARC
8
DEFAULT_255_2_778
10
14.0151745
20
46.835194
40
1.8560935
50
317.1085583
51
322.7468394
0
LINE
8
DEFAULT_255_2_778
10
10.9379313
20
46.4847156
11
10.9721313
21
46.4847156
0
LINE
8
DEFAULT_255_2_778
10
10.9721313
20
46.4847156
11
10.9721313
21
46.3225156
0
LINE
8
DEFAULT_255_2_778
10
10.9721313
20
46.3225156
11
10.9369313
21
46.3225156
0
LINE
8
DEFAULT_255_2_778
10
10.2331313
20
45.5518156
11
10.2331313
21
45.6251156
0
LINE
8
DEFAULT_255_2_778
10
10.9379313
20
46.4850156
11
10.9379313
21
46.4847156
0
LINE
8
DEFAULT_255_2_778
10
10.4252313
20
45.5997156
11
10.4252313
21
45.5293156
0
LINE
8
DEFAULT_255_2_778
10
10.7207313
20
45.8058156
11
10.7210313
21
45.8066156
0
LINE
8
DEFAULT_255_2_778
10
11.8764313
20
44.9787156
11
11.4600313
21
44.9787156
0
LINE
8
DEFAULT_255_2_778
10
11.4600313
20
44.9787156
11
11.4600313
21
46.4834156
0
LINE
8
DEFAULT_255_2_778
10
11.4600313
20
46.4834156
11
11.8846313
21
46.4834156
0
LINE
8
DEFAULT_255_2_778
10
12.5482313
20
45.7814156
11
12.5482313
21
45.6854156
0
LINE
8
DEFAULT_255_2_778
10
11.8762313
20
44.9784156
11
11.8764313
21
44.9787156
0
LINE
8
DEFAULT_255_2_778
10
11.8899313
20
46.3201156
11
11.6584313
21
46.3201156
0
LINE
8
DEFAULT_255_2_778
10
11.6584313
20
46.3201156
11
11.6584313
21
45.1409156
0
LINE
8
DEFAULT_255_2_778
10
11.6584313
20
45.1409156
11
11.8672313
21
45.1409156
0
LINE
8
DEFAULT_255_2_778
10
12.3519313
20
45.6896156
11
12.3519313
21
45.7775156
0
LINE
8
DEFAULT_255_2_778
10
11.8899313
20
46.3201156
11
11.8899313
21
46.3201156
0
LINE
8
DEFAULT_255_2_778
10
13.8007313
20
44.9787156
11
13.6571313
21
45.3713156
0
LINE
8
DEFAULT_255_2_778
10
13.6571313
20
45.3713156
11
13.0266313
21
45.3713156
0
LINE
8
DEFAULT_255_2_778
10
13.0266313
20
45.3713156
11
12.8850313
21
44.9787156
0
LINE
8
DEFAULT_255_2_778
10
12.8850313
20
44.9787156
11
12.6805313
21
44.9787156
0
LINE
8
DEFAULT_255_2_778
10
12.6805313
20
44.9787156
11
13.2552313
21
46.4834156
0
LINE
8
DEFAULT_255_2_778
10
13.2552313
20
46.4834156
11
13.4287313
21
46.4834156
0
LINE
8
DEFAULT_255_2_778
10
13.4287313
20
46.4834156
11
14.0045313
21
44.9784156
0
LINE
8
DEFAULT_255_2_778
10
14.0045313
20
44.9784156
11
13.8007313
21
44.9784156
0
LINE
8
DEFAULT_255_2_778
10
13.8007313
20
44.9784156
11
13.8007313
21
44.9787156
0
LINE
8
DEFAULT_255_2_778
10
13.3420313
20
46.2386156
11
13.0866313
21
45.5348156
0
LINE
8
DEFAULT_255_2_778
10
13.0866313
20
45.5348156
11
13.5983313
21
45.5348156
0
LINE
8
DEFAULT_255_2_778
10
13.5983313
20
45.5348156
11
13.3420313
21
46.2386156
0
LINE
8
DEFAULT_255_2_778
10
13.3420313
20
46.2386156
11
13.3420313
21
46.2386156
0
LINE
8
DEFAULT_255_2_778
10
14.5749313
20
45.6960156
11
14.5749313
21
45.5399156
0
LINE
8
DEFAULT_255_2_778
10
14.5749313
20
45.5399156
11
14.0706313
21
45.5399156
0
LINE
8
DEFAULT_255_2_778
10
14.0706313
20
45.5399156
11
14.0706313
21
45.6960156
0
LINE
8
DEFAULT_255_2_778
10
14.0706313
20
45.6960156
11
14.5749313
21
45.6960156
0
LINE
8
DEFAULT_255_2_778
10
14.5749313
20
45.6960156
11
14.5749313
21
45.6960156
0
LINE
8
DEFAULT_255_2_778
10
15.7274313
20
45.1348156
11
15.7274313
21
44.9787156
0
LINE
8
DEFAULT_255_2_778
10
15.7274313
20
44.9787156
11
14.7413313
21
44.9787156
0
LINE
8
DEFAULT_255_2_778
10
14.7413313
20
44.9787156
11
14.7413313
21
45.1163156
0
LINE
8
DEFAULT_255_2_778
10
14.7413313
20
45.1163156
11
15.2623313
21
45.6949156
0
LINE
8
DEFAULT_255_2_778
10
14.9035313
20
46.0399156
11
14.7122313
21
46.0399156
0
LINE
8
DEFAULT_255_2_778
10
15.3750313
20
45.5719156
11
14.9721313
21
45.1348156
0
LINE
8
DEFAULT_255_2_778
10
14.9721313
20
45.1348156
11
15.7274313
21
45.1348156
0
LINE
8
DEFAULT_255_2_778
10
15.7274313
20
45.1348156
11
15.7274313
21
45.1348156
0
ENDSEC
0
EOF