0
SECTION
2
HEADER
9
$MEASUREMENT
70
1
0
ENDSEC
0
SECTION
2
TABLES
0
TABLE
2
LTYPE
0
LTYPE
72
65
70
64
2
CONTINUOUS
3
______
73
0
40
0
0
ENDTAB
0
TABLE
2
LAYER
0
LAYER
2
DEFAULT_255_2_778
70
0
62
255
6
CONTINUOUS
0
ENDTAB
0
ENDSEC
0
SECTION
2
ENTITIES
0
LINE
8
DEFAULT_255_2_778
10
43.7645
20
7.6547
11
43.7645
21
7.6547
0
ARC
8
DEFAULT_255_2_778
10
42.2645421
20
7.6544592
40
1.5001434
50
0.0106396
51
60.0012481
0
ARC
8
DEFAULT_255_2_778
10
42.2647343
20
7.6553455
40
1.4992797
50
59.9906724
51
90.0106551
0
LINE
8
DEFAULT_255_2_778
10
42.2644554
20
9.1546253
11
42.2643125
21
9.1546253
0
ARC
8
DEFAULT_255_2_778
10
42.2641721
20
7.6554147
40
1.4992106
50
89.9946337
51
119.9947607
0
ARC
8
DEFAULT_255_2_778
10
42.26326
20
7.6571307
40
1.4972685
50
119.9973593
51
152.1381927
0
ARC
8
DEFAULT_255_2_778
10
42.2665476
20
7.6544456
40
1.5014303
50
152.1062385
51
179.9760691
0
ARC
8
DEFAULT_255_2_778
10
42.2604222
20
7.6551023
40
1.4953047
50
180.0011321
51
187.8434743
0
ARC
8
DEFAULT_255_2_778
10
42.2707915
20
7.656626
40
1.5057848
50
187.8470678
51
195.0103401
0
ARC
8
DEFAULT_255_2_778
10
42.2638876
20
7.6538175
40
1.4983893
50
194.9749831
51
234.8163138
0
ARC
8
DEFAULT_255_2_778
10
42.2645664
20
7.6521835
40
1.4974458
50
234.7590637
51
270.008383
0
ARC
8
DEFAULT_255_2_778
10
42.2667617
20
7.6482227
40
1.4934862
50
269.9241845
51
299.8597158
0
ARC
8
DEFAULT_255_2_778
10
42.263915
20
7.6552409
40
1.5009904
50
299.8205742
51
352.1216719
0
ARC
8
DEFAULT_255_2_778
10
42.2510585
20
7.6545073
40
1.5136271
50
352.2158852
51
0.0087222
0
LINE
8
DEFAULT_255_2_778
10
43.7646855
20
7.6547378
11
43.7646855
21
7.6547378
0
ARC
8
DEFAULT_255_2_778
10
37.0644472
20
7.6544592
40
1.5001434
50
0.0106396
51
60.0012481
0
ARC
8
DEFAULT_255_2_778
10
37.0646393
20
7.6553455
40
1.4992797
50
59.9906724
51
90.0106551
0
LINE
8
DEFAULT_255_2_778
10
37.0643605
20
9.1546253
11
37.0642175
21
9.1546253
0
ARC
8
DEFAULT_255_2_778
10
37.0640771
20
7.6554147
40
1.4992106
50
89.9946337
51
119.9947607
0
ARC
8
DEFAULT_255_2_778
10
37.0632081
20
7.6570716
40
1.4973412
50
119.9976561
51
152.1409565
0
ARC
8
DEFAULT_255_2_778
10
37.0666486
20
7.6543006
40
1.5016781
50
152.1088285
51
179.9761631
0
ARC
8
DEFAULT_255_2_778
10
37.060511
20
7.6549543
40
1.4955402
50
180.0011073
51
187.8365078
0
ARC
8
DEFAULT_255_2_778
10
37.0708827
20
7.6564784
40
1.5060229
50
187.8401489
51
195.0020947
0
ARC
8
DEFAULT_255_2_778
10
37.063643
20
7.6538391
40
1.4983469
50
194.9762723
51
234.8200515
0
ARC
8
DEFAULT_255_2_778
10
37.0644881
20
7.6523789
40
1.4976412
50
234.7614377
51
270.0077431
0
ARC
8
DEFAULT_255_2_778
10
37.0666667
20
7.6482227
40
1.4934862
50
269.9241845
51
299.8597158
0
ARC
8
DEFAULT_255_2_778
10
37.06382
20
7.6552409
40
1.5009904
50
299.8205742
51
352.1216719
0
ARC
8
DEFAULT_255_2_778
10
37.0509635
20
7.6545073
40
1.5136271
50
352.2158852
51
0.0087222
0
ARC
8
DEFAULT_255_2_778
10
31.8645339
20
7.6544592
40
1.5001434
50
0.0106396
51
60.0012481
0
ARC
8
DEFAULT_255_2_778
10
31.8647261
20
7.6553455
40
1.4992797
50
59.9906724
51
90.0106551
0
LINE
8
DEFAULT_255_2_778
10
31.8644473
20
9.1546253
11
31.8643043
21
9.1546253
0
ARC
8
DEFAULT_255_2_778
10
31.8641639
20
7.6554147
40
1.4992106
50
89.9946337
51
119.9947607
0
ARC
8
DEFAULT_255_2_778
10
31.8632949
20
7.6570716
40
1.4973412
50
119.9976561
51
152.1409565
0
ARC
8
DEFAULT_255_2_778
10
31.8667354
20
7.6543006
40
1.5016781
50
152.1088285
51
179.9761631
0
ARC
8
DEFAULT_255_2_778
10
31.8605978
20
7.6549543
40
1.4955402
50
180.0011073
51
187.8365078
0
ARC
8
DEFAULT_255_2_778
10
31.8709695
20
7.6564784
40
1.5060229
50
187.8401489
51
195.0020947
0
ARC
8
DEFAULT_255_2_778
10
31.8640549
20
7.654102
40
1.4987289
50
194.9827691
51
234.816777
0
ARC
8
DEFAULT_255_2_778
10
31.8645656
20
7.6522394
40
1.4975017
50
234.7597433
51
270.0080987
0
ARC
8
DEFAULT_255_2_778
10
31.8667535
20
7.6482227
40
1.4934862
50
269.9241845
51
299.8597158
0
ARC
8
DEFAULT_255_2_778
10
31.8639068
20
7.6552409
40
1.5009904
50
299.8205742
51
352.1216719
0
ARC
8
DEFAULT_255_2_778
10
31.8510503
20
7.6545073
40
1.5136271
50
352.2158852
51
0.0087222
0
LINE
8
DEFAULT_255_2_778
10
33.3646773
20
7.6547378
11
33.3646773
21
7.6547378
0
ARC
8
DEFAULT_255_2_778
10
26.6644472
20
7.6544592
40
1.5001434
50
0.0106396
51
60.0012481
0
ARC
8
DEFAULT_255_2_778
10
26.6646393
20
7.6553455
40
1.4992797
50
59.9906724
51
90.0106551
0
LINE
8
DEFAULT_255_2_778
10
26.6643605
20
9.1546253
11
26.6642175
21
9.1546253
0
ARC
8
DEFAULT_255_2_778
10
26.6640771
20
7.6554147
40
1.4992106
50
89.9946337
51
119.9947607
0
ARC
8
DEFAULT_255_2_778
10
26.6632081
20
7.6570716
40
1.4973412
50
119.9976561
51
152.1409565
0
ARC
8
DEFAULT_255_2_778
10
26.6666486
20
7.6543006
40
1.5016781
50
152.1088285
51
179.9761631
0
ARC
8
DEFAULT_255_2_778
10
26.660511
20
7.6549543
40
1.4955402
50
180.0011073
51
187.8365078
0
ARC
8
DEFAULT_255_2_778
10
26.6708827
20
7.6564784
40
1.5060229
50
187.8401489
51
195.0020947
0
ARC
8
DEFAULT_255_2_778
10
26.6639681
20
7.654102
40
1.4987289
50
194.9827691
51
234.816777
0
ARC
8
DEFAULT_255_2_778
10
26.6644788
20
7.6522394
40
1.4975017
50
234.7597433
51
270.0080987
0
ARC
8
DEFAULT_255_2_778
10
26.6666667
20
7.6482227
40
1.4934862
50
269.9241845
51
299.8597158
0
ARC
8
DEFAULT_255_2_778
10
26.66382
20
7.6552409
40
1.5009904
50
299.8205742
51
352.1216719
0
ARC
8
DEFAULT_255_2_778
10
26.6509635
20
7.6545073
40
1.5136271
50
352.2158852
51
0.0087222
0
ARC
8
DEFAULT_255_2_778
10
21.4646339
20
7.6544592
40
1.5001434
50
0.0106396
51
60.0012481
0
ARC
8
DEFAULT_255_2_778
10
21.4648261
20
7.6553455
40
1.4992797
50
59.9906724
51
90.0106551
0
LINE
8
DEFAULT_255_2_778
10
21.4645473
20
9.1546253
11
21.4644043
21
9.1546253
0
ARC
8
DEFAULT_255_2_778
10
21.4642639
20
7.6554147
40
1.4992106
50
89.9946337
51
119.9947607
0
ARC
8
DEFAULT_255_2_778
10
21.4633949
20
7.6570716
40
1.4973412
50
119.9976561
51
152.1409565
0
ARC
8
DEFAULT_255_2_778
10
21.4668354
20
7.6543006
40
1.5016781
50
152.1088285
51
179.9761631
0
ARC
8
DEFAULT_255_2_778
10
21.4606978
20
7.6549543
40
1.4955402
50
180.0011073
51
187.8365078
0
ARC
8
DEFAULT_255_2_778
10
21.4710695
20
7.6564784
40
1.5060229
50
187.8401489
51
195.0020947
0
ARC
8
DEFAULT_255_2_778
10
21.4641549
20
7.654102
40
1.4987289
50
194.9827691
51
234.816777
0
ARC
8
DEFAULT_255_2_778
10
21.4646656
20
7.6522394
40
1.4975017
50
234.7597433
51
270.0080987
0
ARC
8
DEFAULT_255_2_778
10
21.4668535
20
7.6482227
40
1.4934862
50
269.9241845
51
299.8597158
0
ARC
8
DEFAULT_255_2_778
10
21.4640068
20
7.6552409
40
1.5009904
50
299.8205742
51
352.1216719
0
ARC
8
DEFAULT_255_2_778
10
21.4511503
20
7.6545073
40
1.5136271
50
352.2158852
51
0.0087222
0
LINE
8
DEFAULT_255_2_778
10
22.9647773
20
7.6547378
11
22.9647773
21
7.6547378
0
ARC
8
DEFAULT_255_2_778
10
16.2644472
20
7.6544592
40
1.5001434
50
0.0106396
51
60.0012481
0
ARC
8
DEFAULT_255_2_778
10
16.2646393
20
7.6553455
40
1.4992797
50
59.9906724
51
90.0106551
0
LINE
8
DEFAULT_255_2_778
10
16.2643605
20
9.1546253
11
16.2642175
21
9.1546253
0
ARC
8
DEFAULT_255_2_778
10
16.2640771
20
7.6554147
40
1.4992106
50
89.9946337
51
119.9947607
0
ARC
8
DEFAULT_255_2_778
10
16.2632081
20
7.6570716
40
1.4973412
50
119.9976561
51
152.1409565
0
ARC
8
DEFAULT_255_2_778
10
16.2666486
20
7.6543006
40
1.5016781
50
152.1088285
51
179.9761631
0
ARC
8
DEFAULT_255_2_778
10
16.260511
20
7.6549543
40
1.4955402
50
180.0011073
51
187.8365078
0
ARC
8
DEFAULT_255_2_778
10
16.2708827
20
7.6564784
40
1.5060229
50
187.8401489
51
195.0020947
0
ARC
8
DEFAULT_255_2_778
10
16.2639681
20
7.654102
40
1.4987289
50
194.9827691
51
234.816777
0
ARC
8
DEFAULT_255_2_778
10
16.2644788
20
7.6522394
40
1.4975017
50
234.7597433
51
270.0080987
0
ARC
8
DEFAULT_255_2_778
10
16.2666667
20
7.6482227
40
1.4934862
50
269.9241845
51
299.8597158
0
ARC
8
DEFAULT_255_2_778
10
16.26382
20
7.6552409
40
1.5009904
50
299.8205742
51
352.1216719
0
ARC
8
DEFAULT_255_2_778
10
16.2509635
20
7.6545073
40
1.5136271
50
352.2158852
51
0.0087222
0
ARC
8
DEFAULT_255_2_778
10
11.0646409
20
7.6544592
40
1.5001434
50
0.0106396
51
60.0012481
0
ARC
8
DEFAULT_255_2_778
10
11.064833
20
7.6553455
40
1.4992797
50
59.9906724
51
90.0106551
0
LINE
8
DEFAULT_255_2_778
10
11.0645542
20
9.1546253
11
11.0644113
21
9.1546253
0
ARC
8
DEFAULT_255_2_778
10
11.0642709
20
7.6554147
40
1.4992106
50
89.9946337
51
119.9947607
0
ARC
8
DEFAULT_255_2_778
10
11.0633588
20
7.6571307
40
1.4972685
50
119.9973593
51
152.1381927
0
ARC
8
DEFAULT_255_2_778
10
11.0666464
20
7.6544456
40
1.5014303
50
152.1062385
51
179.9760691
0
ARC
8
DEFAULT_255_2_778
10
11.060521
20
7.6551023
40
1.4953047
50
180.0011321
51
187.8434743
0
ARC
8
DEFAULT_255_2_778
10
11.0708903
20
7.656626
40
1.5057848
50
187.8470678
51
195.0103401
0
ARC
8
DEFAULT_255_2_778
10
11.0639864
20
7.6538175
40
1.4983893
50
194.9749831
51
234.8163138
0
ARC
8
DEFAULT_255_2_778
10
11.0646652
20
7.6521835
40
1.4974458
50
234.7590637
51
270.008383
0
ARC
8
DEFAULT_255_2_778
10
11.0668605
20
7.6482227
40
1.4934862
50
269.9241845
51
299.8597158
0
ARC
8
DEFAULT_255_2_778
10
11.0640137
20
7.6552409
40
1.5009904
50
299.8205742
51
352.1216719
0
ARC
8
DEFAULT_255_2_778
10
11.0511572
20
7.6545073
40
1.5136271
50
352.2158852
51
0.0087222
0
LINE
8
DEFAULT_255_2_778
10
12.5647842
20
7.6547378
11
12.5647842
21
7.6547378
0
LINE
8
DEFAULT_255_2_778
10
4.3646
20
7.6547
11
4.3646
21
7.6547
0
ARC
8
DEFAULT_255_2_778
10
5.864554
20
7.6544592
40
1.5001434
50
0.0106396
51
60.0012481
0
ARC
8
DEFAULT_255_2_778
10
5.8647462
20
7.6553455
40
1.4992797
50
59.9906724
51
90.0106551
0
LINE
8
DEFAULT_255_2_778
10
5.8644673
20
9.1546253
11
5.8643244
21
9.1546253
0
ARC
8
DEFAULT_255_2_778
10
5.864184
20
7.6554147
40
1.4992106
50
89.9946337
51
119.9947607
0
ARC
8
DEFAULT_255_2_778
10
5.8632719
20
7.6571307
40
1.4972685
50
119.9973593
51
152.1381927
0
ARC
8
DEFAULT_255_2_778
10
5.8665595
20
7.6544456
40
1.5014303
50
152.1062385
51
179.9760691
0
ARC
8
DEFAULT_255_2_778
10
5.8604341
20
7.6551023
40
1.4953047
50
180.0011321
51
187.8434743
0
ARC
8
DEFAULT_255_2_778
10
5.8708034
20
7.656626
40
1.5057848
50
187.8470678
51
195.0103401
0
ARC
8
DEFAULT_255_2_778
10
5.8638995
20
7.6538175
40
1.4983893
50
194.9749831
51
234.8163138
0
ARC
8
DEFAULT_255_2_778
10
5.8645783
20
7.6521835
40
1.4974458
50
234.7590637
51
270.008383
0
ARC
8
DEFAULT_255_2_778
10
5.8667736
20
7.6482227
40
1.4934862
50
269.9241845
51
299.8597158
0
ARC
8
DEFAULT_255_2_778
10
5.8639269
20
7.6552409
40
1.5009904
50
299.8205742
51
352.1216719
0
ARC
8
DEFAULT_255_2_778
10
5.8510704
20
7.6545073
40
1.5136271
50
352.2158852
51
0.0087222
0
ARC
8
DEFAULT_255_2_778
10
1.2579649
20
44.0627493
40
5.4654018
50
89.9293863
51
93.902712
0
ARC
8
DEFAULT_255_2_778
10
1.1315919
20
45.8559317
40
3.6677788
50
93.8397353
51
98.0053443
0
ARC
8
DEFAULT_255_2_778
10
0.8752267
20
47.6485061
40
1.8569748
50
97.8750388
51
103.5049297
0
ARC
8
DEFAULT_255_2_778
10
0.5843726
20
48.8302837
40
0.6399871
50
102.8932263
51
114.0832949
0
ARC
8
DEFAULT_255_2_778
10
0.3589778
20
49.3138753
40
0.1068487
50
109.5536431
51
149.4722852
0
ARC
8
DEFAULT_255_2_778
10
0.2968248
20
49.3560948
40
0.0322244
50
158.0317797
51
179.7292859
0
ARC
8
DEFAULT_255_2_778
10
47.7977329
20
49.3421908
40
0.06866
50
11.557573
51
70.5154375
0
ARC
8
DEFAULT_255_2_778
10
47.5928697
20
48.963686
40
0.4983292
50
62.802638
51
75.9171576
0
ARC
8
DEFAULT_255_2_778
10
47.3028979
20
47.8963329
40
1.6043048
50
75.1477347
51
81.4815684
0
ARC
8
DEFAULT_255_2_778
10
47.0331157
20
46.174073
40
3.3475477
50
81.281453
51
85.4793285
0
ARC
8
DEFAULT_255_2_778
10
46.881584
20
44.3222976
40
5.205508
50
85.4231317
51
89.3914074
0
ARC
8
DEFAULT_255_2_778
10
46.8650152
20
43.5922023
40
5.9357446
50
89.3063386
51
90.0011052
0
ARC
8
DEFAULT_255_2_778
10
15.6613403
20
49.3713254
40
3.4958498
50
206.5703067
51
230.9600047
0
ARC
8
DEFAULT_255_2_778
10
15.6644694
20
49.3736572
40
3.4996318
50
230.944261
51
265.6334408
0
ARC
8
DEFAULT_255_2_778
10
15.6645846
20
49.3841323
40
3.5100853
50
265.644584
51
270.0018942
0
ARC
8
DEFAULT_255_2_778
10
32.4654056
20
49.3697242
40
3.4956773
50
269.9884457
51
294.3769835
0
ARC
8
DEFAULT_255_2_778
10
32.464415
20
49.3741639
40
3.5001302
50
294.361757
51
329.0432785
0
ARC
8
DEFAULT_255_2_778
10
32.4549018
20
49.3791158
40
3.5108355
50
329.053837
51
333.4098514
0
LINE
8
DEFAULT_255_2_778
10
1.2647007
20
54.974647
11
0.2659007
21
54.974647
0
LINE
8
DEFAULT_255_2_778
10
0.2659007
20
54.974647
11
0.2646007
21
3.081947
0
LINE
8
DEFAULT_255_2_778
10
0.2646007
20
3.081947
11
47.8645007
21
3.082147
0
LINE
8
DEFAULT_255_2_778
10
47.8645007
20
3.082147
11
47.8645007
21
54.974647
0
LINE
8
DEFAULT_255_2_778
10
47.8645007
20
54.974647
11
33.9646007
21
54.974647
0
LINE
8
DEFAULT_255_2_778
10
33.9646007
20
54.974647
11
33.9646007
21
49.528147
0
LINE
8
DEFAULT_255_2_778
10
0.2646007
20
47.808147
11
1.2647007
21
47.808147
0
LINE
8
DEFAULT_255_2_778
10
1.2647007
20
47.808147
11
1.2647007
21
49.528147
0
LINE
8
DEFAULT_255_2_778
10
1.2647007
20
49.528147
11
14.1647007
21
49.528147
0
LINE
8
DEFAULT_255_2_778
10
14.1647007
20
49.528147
11
14.1647007
21
54.974647
0
LINE
8
DEFAULT_255_2_778
10
14.1647007
20
54.974647
11
1.2647007
21
54.974647
0
LINE
8
DEFAULT_255_2_778
10
1.2647007
20
54.974647
11
1.2647007
21
49.528147
0
LINE
8
DEFAULT_255_2_778
10
0.2646007
20
49.356247
11
0.2646007
21
49.356247
0
LINE
8
DEFAULT_255_2_778
10
14.1645007
20
49.528147
11
14.1645007
21
49.374747
0
LINE
8
DEFAULT_255_2_778
10
14.1645007
20
49.374747
11
14.2021007
21
49.041647
0
LINE
8
DEFAULT_255_2_778
10
14.2021007
20
49.041647
11
14.3121007
21
48.725947
0
LINE
8
DEFAULT_255_2_778
10
14.3121007
20
48.725947
11
14.4905007
21
48.441247
0
LINE
8
DEFAULT_255_2_778
10
14.4905007
20
48.441247
11
14.7280007
21
48.202847
0
LINE
8
DEFAULT_255_2_778
10
14.7280007
20
48.202847
11
15.0122007
21
48.023747
0
LINE
8
DEFAULT_255_2_778
10
15.0122007
20
48.023747
11
15.3305007
21
47.912147
0
LINE
8
DEFAULT_255_2_778
10
15.3305007
20
47.912147
11
15.6647007
21
47.874547
0
LINE
8
DEFAULT_255_2_778
10
15.6647007
20
47.874547
11
32.4647007
21
47.874547
0
LINE
8
DEFAULT_255_2_778
10
32.4647007
20
47.874547
11
32.8009007
21
47.912947
0
LINE
8
DEFAULT_255_2_778
10
32.8009007
20
47.912947
11
33.1179007
21
48.024247
0
LINE
8
DEFAULT_255_2_778
10
33.1179007
20
48.024247
11
33.4026007
21
48.203947
0
LINE
8
DEFAULT_255_2_778
10
33.4026007
20
48.203947
11
33.6399007
21
48.442347
0
LINE
8
DEFAULT_255_2_778
10
33.6399007
20
48.442347
11
33.8177007
21
48.726747
0
LINE
8
DEFAULT_255_2_778
10
33.8177007
20
48.726747
11
33.9278007
21
49.043447
0
LINE
8
DEFAULT_255_2_778
10
33.9278007
20
49.043447
11
33.9648007
21
49.374447
0
LINE
8
DEFAULT_255_2_778
10
33.9648007
20
49.374447
11
33.9648007
21
49.527947
0
LINE
8
DEFAULT_255_2_778
10
33.9648007
20
49.527947
11
46.8649007
21
49.527947
0
LINE
8
DEFAULT_255_2_778
10
46.8649007
20
49.527947
11
46.8649007
21
47.807847
0
LINE
8
DEFAULT_255_2_778
10
46.8649007
20
47.807847
11
47.8650007
21
47.807847
0
LINE
8
DEFAULT_255_2_778
10
46.8649007
20
49.527947
11
46.8649007
21
49.527947
0
LINE
8
DEFAULT_255_2_778
10
46.8649007
20
49.527947
11
46.8649007
21
54.974647
0
LINE
8
DEFAULT_255_2_778
10
28.1395007
20
62.874547
11
39.3145007
21
62.874547
0
LINE
8
DEFAULT_255_2_778
10
39.3145007
20
62.874547
11
39.3145007
21
62.774547
0
LINE
8
DEFAULT_255_2_778
10
39.3145007
20
62.774547
11
33.9646007
21
62.774547
0
LINE
8
DEFAULT_255_2_778
10
33.9646007
20
62.774547
11
33.9646007
21
54.974647
0
LINE
8
DEFAULT_255_2_778
10
33.9646007
20
54.974647
11
14.1647007
21
54.974647
0
LINE
8
DEFAULT_255_2_778
10
14.1647007
20
54.974647
11
14.1647007
21
62.774547
0
LINE
8
DEFAULT_255_2_778
10
14.1647007
20
62.774547
11
8.8149007
21
62.774547
0
LINE
8
DEFAULT_255_2_778
10
8.8149007
20
62.774547
11
8.8149007
21
62.874547
0
LINE
8
DEFAULT_255_2_778
10
8.8149007
20
62.874547
11
19.9898007
21
62.874547
0
LINE
8
DEFAULT_255_2_778
10
19.9898007
20
62.874547
11
28.1395007
21
62.874547
0
LINE
8
DEFAULT_255_2_778
10
47.8613007
20
4.600047
11
46.8646007
21
5.596747
0
LINE
8
DEFAULT_255_2_778
10
0.2678007
20
4.600047
11
1.2645007
21
5.596747
0
LINE
8
DEFAULT_255_2_778
10
1.2645007
20
5.596747
11
46.8643007
21
5.596747
0
LINE
8
DEFAULT_255_2_778
10
46.8643007
20
5.596747
11
46.8643007
21
47.808147
0
LINE
8
DEFAULT_255_2_778
10
46.8643007
20
47.808147
11
1.2647007
21
47.808147
0
LINE
8
DEFAULT_255_2_778
10
1.2647007
20
47.808147
11
1.2647007
21
5.596747
0
LINE
8
DEFAULT_255_2_778
10
39.3147007
20
62.774547
11
39.3147007
21
49.374447
0
LINE
8
DEFAULT_255_2_778
10
39.3147007
20
49.374447
11
35.9648007
21
49.374447
0
LINE
8
DEFAULT_255_2_778
10
35.9648007
20
49.374447
11
35.9648007
21
49.374447
0
LINE
8
DEFAULT_255_2_778
10
0.2646007
20
37.474547
11
4.7646007
21
37.474547
0
LINE
8
DEFAULT_255_2_778
10
4.7646007
20
37.474547
11
4.7646007
21
23.474647
0
LINE
8
DEFAULT_255_2_778
10
4.7646007
20
23.474647
11
0.2646007
21
23.474647
0
LINE
8
DEFAULT_255_2_778
10
1.2647007
20
6.423047
11
2.2648007
21
6.503747
0
LINE
8
DEFAULT_255_2_778
10
2.2648007
20
6.503747
11
2.2648007
21
52.974647
0
LINE
8
DEFAULT_255_2_778
10
2.2648007
20
52.974647
11
12.1648007
21
52.974647
0
LINE
8
DEFAULT_255_2_778
10
12.1648007
20
52.974647
11
12.1648007
21
59.874447
0
LINE
8
DEFAULT_255_2_778
10
12.1648007
20
59.874447
11
14.1647007
21
59.874447
0
LINE
8
DEFAULT_255_2_778
10
14.1647007
20
59.874447
11
33.9648007
21
59.874447
0
LINE
8
DEFAULT_255_2_778
10
33.9648007
20
59.874447
11
35.9648007
21
59.874447
0
LINE
8
DEFAULT_255_2_778
10
35.9648007
20
59.874447
11
35.9648007
21
53.719747
0
LINE
8
DEFAULT_255_2_778
10
35.9648007
20
53.719747
11
45.8647007
21
53.719747
0
LINE
8
DEFAULT_255_2_778
10
45.8647007
20
53.719747
11
45.8647007
21
12.280447
0
LINE
8
DEFAULT_255_2_778
10
14.1645007
20
49.374447
11
14.1645007
21
49.374447
0
LINE
8
DEFAULT_255_2_778
10
33.9646007
20
49.374447
11
33.9646007
21
49.374447
0
LINE
8
DEFAULT_255_2_778
10
2.2646007
20
49.183947
11
12.1698007
21
49.183947
0
LINE
8
DEFAULT_255_2_778
10
12.1698007
20
49.183947
11
12.1907007
21
48.946847
0
LINE
8
DEFAULT_255_2_778
10
12.1907007
20
48.946847
11
12.2280007
21
48.710847
0
LINE
8
DEFAULT_255_2_778
10
12.2280007
20
48.710847
11
12.2814007
21
48.476947
0
LINE
8
DEFAULT_255_2_778
10
12.2814007
20
48.476947
11
12.3508007
21
48.247647
0
LINE
8
DEFAULT_255_2_778
10
12.3508007
20
48.247647
11
12.4352007
21
48.024547
0
LINE
8
DEFAULT_255_2_778
10
12.4352007
20
48.024547
11
12.5347007
21
47.807647
0
LINE
8
DEFAULT_255_2_778
10
15.6647007
20
45.874047
11
32.4647007
21
45.874047
0
LINE
8
DEFAULT_255_2_778
10
35.5944007
20
47.807647
11
35.6944007
21
48.025647
0
LINE
8
DEFAULT_255_2_778
10
35.6944007
20
48.025647
11
35.7796007
21
48.250747
0
LINE
8
DEFAULT_255_2_778
10
35.7796007
20
48.250747
11
35.8489007
21
48.480947
0
LINE
8
DEFAULT_255_2_778
10
35.8489007
20
48.480947
11
35.9019007
21
48.713547
0
LINE
8
DEFAULT_255_2_778
10
35.9019007
20
48.713547
11
35.9386007
21
48.947647
0
LINE
8
DEFAULT_255_2_778
10
35.9386007
20
48.947647
11
35.9595007
21
49.183447
0
LINE
8
DEFAULT_255_2_778
10
35.9595007
20
49.183447
11
45.8647007
21
49.183447
0
LINE
8
DEFAULT_255_2_778
10
8.8146007
20
62.774547
11
8.8146007
21
49.374447
0
LINE
8
DEFAULT_255_2_778
10
8.8146007
20
49.374447
11
12.1645007
21
49.374447
0
LINE
8
DEFAULT_255_2_778
10
47.8645007
20
37.474547
11
43.3644007
21
37.474547
0
LINE
8
DEFAULT_255_2_778
10
43.3644007
20
37.474547
11
43.3644007
21
23.474647
0
LINE
8
DEFAULT_255_2_778
10
43.3644007
20
23.474647
11
47.8645007
21
23.474647
0
LINE
8
DEFAULT_255_2_778
10
44.1394007
20
25.494747
11
3.9897007
21
25.494747
0
LINE
8
DEFAULT_255_2_778
10
3.9897007
20
25.494747
11
3.9897007
21
14.274847
0
LINE
8
DEFAULT_255_2_778
10
3.9897007
20
14.274847
11
44.1397007
21
14.274847
0
LINE
8
DEFAULT_255_2_778
10
44.1397007
20
14.274847
11
44.1394007
21
25.494747
0
LINE
8
DEFAULT_255_2_778
10
2.2646007
20
16.185647
11
45.8645007
21
16.185647
0
LINE
8
DEFAULT_255_2_778
10
47.8645007
20
4.593447
11
47.8613007
21
4.600047
0
LINE
8
DEFAULT_255_2_778
10
47.8613007
20
4.600047
11
0.2646007
21
4.593447
0
LINE
8
DEFAULT_255_2_778
10
2.2646007
20
12.274547
11
45.8645007
21
12.274547
0
LINE
8
DEFAULT_255_2_778
10
0.2646007
20
11.934647
11
3.4047007
21
11.934647
0
LINE
8
DEFAULT_255_2_778
10
3.4047007
20
11.934647
11
3.4047007
21
4.924747
0
LINE
8
DEFAULT_255_2_778
10
3.4047007
20
4.924747
11
44.7247007
21
4.924747
0
LINE
8
DEFAULT_255_2_778
10
44.7247007
20
4.924747
11
44.7247007
21
11.934647
0
LINE
8
DEFAULT_255_2_778
10
44.7247007
20
11.934647
11
47.8647007
21
11.934647
0
LINE
8
DEFAULT_255_2_778
10
41.3147007
20
54.974647
11
41.3147007
21
64.874547
0
LINE
8
DEFAULT_255_2_778
10
41.3147007
20
64.874547
11
6.8146007
21
64.874547
0
LINE
8
DEFAULT_255_2_778
10
6.8146007
20
64.874547
11
6.8146007
21
54.974647
0
LINE
8
DEFAULT_255_2_778
10
10.2645007
20
45.380847
11
37.8645007
21
45.380847
0
LINE
8
DEFAULT_255_2_778
10
37.8645007
20
45.380847
11
37.8645007
21
42.430747
0
LINE
8
DEFAULT_255_2_778
10
37.8645007
20
42.430747
11
10.2645007
21
42.430747
0
LINE
8
DEFAULT_255_2_778
10
10.2645007
20
42.430747
11
10.2645007
21
45.380847
0
LINE
8
DEFAULT_255_2_778
10
41.3644007
20
46.951947
11
41.3644007
21
47.412047
0
LINE
8
DEFAULT_255_2_778
10
41.3644007
20
47.412047
11
6.7646007
21
47.412047
0
LINE
8
DEFAULT_255_2_778
10
6.7646007
20
47.412047
11
6.7646007
21
46.951647
0
LINE
8
DEFAULT_255_2_778
10
6.7646007
20
46.951647
11
41.3647007
21
46.951647
0
LINE
8
DEFAULT_255_2_778
10
41.3647007
20
46.951647
11
41.3647007
21
41.474547
0
LINE
8
DEFAULT_255_2_778
10
41.3647007
20
41.474547
11
6.7646007
21
41.474547
0
LINE
8
DEFAULT_255_2_778
10
6.7646007
20
41.474547
11
6.7646007
21
41.934947
0
LINE
8
DEFAULT_255_2_778
10
6.7646007
20
41.934947
11
41.3647007
21
41.934947
0
LINE
8
DEFAULT_255_2_778
10
35.9595007
20
49.183947
11
35.9622007
21
49.238447
0
LINE
8
DEFAULT_255_2_778
10
35.9622007
20
49.238447
11
35.9648007
21
49.347247
0
LINE
8
DEFAULT_255_2_778
10
35.9648007
20
49.347247
11
35.9648007
21
52.974647
0
LINE
8
DEFAULT_255_2_778
10
35.9648007
20
52.974647
11
12.1645007
21
52.974647
0
LINE
8
DEFAULT_255_2_778
10
12.1645007
20
52.974647
11
12.1671007
21
49.238447
0
LINE
8
DEFAULT_255_2_778
10
12.1671007
20
49.238447
11
12.1698007
21
49.183947
0
LINE
8
DEFAULT_255_2_778
10
45.8645007
20
21.474447
11
41.3644007
21
21.474447
0
LINE
8
DEFAULT_255_2_778
10
41.3644007
20
21.474447
11
41.3644007
21
37.474347
0
LINE
8
DEFAULT_255_2_778
10
41.3644007
20
37.474347
11
6.7646007
21
37.474347
0
LINE
8
DEFAULT_255_2_778
10
6.7646007
20
37.474347
11
6.7646007
21
21.474447
0
LINE
8
DEFAULT_255_2_778
10
6.7646007
20
21.474447
11
2.2646007
21
21.474447
0
LINE
8
DEFAULT_255_2_778
10
45.8645007
20
27.494447
11
2.2646007
21
27.494447
0
LINE
8
DEFAULT_255_2_778
10
6.7646007
20
41.974547
11
6.7646007
21
47.424447
0
LINE
8
DEFAULT_255_2_778
10
36.1490007
20
62.874547
11
36.1490007
21
60.874547
0
LINE
8
DEFAULT_255_2_778
10
36.1490007
20
60.874547
11
39.5896007
21
60.874547
0
LINE
8
DEFAULT_255_2_778
10
39.5896007
20
60.874547
11
39.5896007
21
64.874547
0
LINE
8
DEFAULT_255_2_778
10
41.3147007
20
63.374647
11
6.8146007
21
63.374647
0
LINE
8
DEFAULT_255_2_778
10
38.4874007
20
62.874547
11
38.4874007
21
64.874547
0
LINE
8
DEFAULT_255_2_778
10
12.2553007
20
62.874547
11
12.2553007
21
64.874547
0
LINE
8
DEFAULT_255_2_778
10
18.2028007
20
62.874547
11
18.2028007
21
60.874547
0
LINE
8
DEFAULT_255_2_778
10
18.2028007
20
60.874547
11
20.5920007
21
60.874547
0
LINE
8
DEFAULT_255_2_778
10
20.5920007
20
60.874547
11
20.5920007
21
62.874547
0
LINE
8
DEFAULT_255_2_778
10
24.1850007
20
62.874547
11
24.1850007
21
60.874547
0
LINE
8
DEFAULT_255_2_778
10
33.7947007
20
62.874547
11
33.7947007
21
60.874547
0
LINE
8
DEFAULT_255_2_778
10
33.7947007
20
60.874547
11
33.6918007
21
60.874547
0
LINE
8
DEFAULT_255_2_778
10
33.6918007
20
60.874547
11
33.6918007
21
62.874547
0
LINE
8
DEFAULT_255_2_778
10
32.6917007
20
62.874547
11
32.6917007
21
60.874547
0
LINE
8
DEFAULT_255_2_778
10
32.6917007
20
60.874547
11
30.1670007
21
60.874547
0
LINE
8
DEFAULT_255_2_778
10
30.1670007
20
60.874547
11
30.1670007
21
62.874547
0
LINE
8
DEFAULT_255_2_778
10
14.6098007
20
62.874547
11
14.6098007
21
60.874547
0
LINE
8
DEFAULT_255_2_778
10
14.6098007
20
60.874547
11
11.9711007
21
60.874547
0
LINE
8
DEFAULT_255_2_778
10
11.9711007
20
60.874547
11
11.9711007
21
64.874547
0
LINE
8
DEFAULT_255_2_778
10
28.4647007
20
62.874547
11
28.4647007
21
63.374647
0
LINE
8
DEFAULT_255_2_778
10
29.2148007
20
63.374647
11
28.7147007
21
62.874547
0
LINE
8
DEFAULT_255_2_778
10
19.9898007
20
61.658047
11
19.9898007
21
63.951947
0
LINE
8
DEFAULT_255_2_778
10
19.9898007
20
63.951947
11
28.1398007
21
63.951947
0
LINE
8
DEFAULT_255_2_778
10
28.1398007
20
63.951947
11
28.1398007
21
61.658247
0
LINE
8
DEFAULT_255_2_778
10
28.1398007
20
59.874747
11
28.1398007
21
60.124747
0
LINE
8
DEFAULT_255_2_778
10
28.1398007
20
60.124747
11
19.9896007
21
60.124747
0
LINE
8
DEFAULT_255_2_778
10
19.9896007
20
60.124747
11
19.9896007
21
59.574647
0
LINE
8
DEFAULT_255_2_778
10
19.9896007
20
59.574647
11
28.1395007
21
59.574647
0
LINE
8
DEFAULT_255_2_778
10
28.1395007
20
59.574647
11
28.1398007
21
59.874747
0
LINE
8
DEFAULT_255_2_778
10
19.9898007
20
60.124747
11
19.9898007
21
61.651947
0
LINE
8
DEFAULT_255_2_778
10
19.9898007
20
61.651947
11
28.1398007
21
61.651947
0
LINE
8
DEFAULT_255_2_778
10
28.1398007
20
61.651947
11
28.1398007
21
60.124447
0
LINE
8
DEFAULT_255_2_778
10
9.6420007
20
60.874547
11
9.6420007
21
64.874547
0
LINE
8
DEFAULT_255_2_778
10
9.9169007
20
62.874547
11
9.9169007
21
60.874547
0
LINE
8
DEFAULT_255_2_778
10
9.9169007
20
60.874547
11
8.5397007
21
60.874547
0
LINE
8
DEFAULT_255_2_778
10
8.5397007
20
60.874547
11
8.5397007
21
64.874547
0
LINE
8
DEFAULT_255_2_778
10
12.2463007
20
62.874547
11
12.2463007
21
60.874547
0
LINE
8
DEFAULT_255_2_778
10
15.6099007
20
60.874547
11
14.6098007
21
60.874547
0
LINE
8
DEFAULT_255_2_778
10
14.6098007
20
64.874547
11
14.6098007
21
62.874547
0
LINE
8
DEFAULT_255_2_778
10
14.6098007
20
62.874547
11
14.6098007
21
62.874547
0
LINE
8
DEFAULT_255_2_778
10
14.6098007
20
62.874547
11
15.6099007
21
62.874547
0
LINE
8
DEFAULT_255_2_778
10
15.6099007
20
62.874547
11
15.6099007
21
62.874547
0
LINE
8
DEFAULT_255_2_778
10
15.6099007
20
62.874547
11
15.6099007
21
60.874547
0
LINE
8
DEFAULT_255_2_778
10
15.6099007
20
60.874547
11
15.8737007
21
60.874547
0
LINE
8
DEFAULT_255_2_778
10
15.8737007
20
60.874547
11
15.8737007
21
62.874547
0
LINE
8
DEFAULT_255_2_778
10
33.6918007
20
60.874547
11
32.6917007
21
60.874547
0
LINE
8
DEFAULT_255_2_778
10
18.2372007
20
62.874547
11
18.2372007
21
64.874547
0
LINE
8
DEFAULT_255_2_778
10
21.5551007
20
62.874547
11
21.5551007
21
64.874547
0
LINE
8
DEFAULT_255_2_778
10
15.5985007
20
62.874547
11
15.5985007
21
64.874547
0
LINE
8
DEFAULT_255_2_778
10
24.2194007
20
62.874547
11
24.2194007
21
64.874547
0
LINE
8
DEFAULT_255_2_778
10
27.5373007
20
62.874547
11
27.5373007
21
64.874547
0
LINE
8
DEFAULT_255_2_778
10
36.1582007
20
62.874547
11
36.1582007
21
64.874547
0
LINE
8
DEFAULT_255_2_778
10
32.5308007
20
62.874547
11
32.5308007
21
64.874547
0
LINE
8
DEFAULT_255_2_778
10
30.2017007
20
62.874547
11
30.2017007
21
64.874547
0
LINE
8
DEFAULT_255_2_778
10
33.5195007
20
62.874547
11
33.5195007
21
64.874547
0
LINE
8
DEFAULT_255_2_778
10
35.8743007
20
64.874547
11
35.8743007
21
60.874547
0
LINE
8
DEFAULT_255_2_778
10
35.8743007
20
60.874547
11
36.1492007
21
60.874547
0
LINE
8
DEFAULT_255_2_778
10
18.2028007
20
60.874547
11
17.9279007
21
60.874547
0
LINE
8
DEFAULT_255_2_778
10
17.9279007
20
60.874547
11
17.9279007
21
64.874547
0
LINE
8
DEFAULT_255_2_778
10
21.5921007
20
60.874547
11
20.5920007
21
60.874547
0
LINE
8
DEFAULT_255_2_778
10
20.5920007
20
64.874547
11
20.5920007
21
62.874547
0
LINE
8
DEFAULT_255_2_778
10
20.5920007
20
62.874547
11
20.5920007
21
62.874547
0
LINE
8
DEFAULT_255_2_778
10
20.5920007
20
62.874547
11
21.5921007
21
62.874547
0
LINE
8
DEFAULT_255_2_778
10
21.5921007
20
62.874547
11
21.5921007
21
62.874547
0
LINE
8
DEFAULT_255_2_778
10
21.5921007
20
62.874547
11
21.5921007
21
60.874547
0
LINE
8
DEFAULT_255_2_778
10
21.5921007
20
60.874547
11
21.5921007
21
60.874547
0
LINE
8
DEFAULT_255_2_778
10
21.5921007
20
60.874547
11
21.8303007
21
60.874547
0
LINE
8
DEFAULT_255_2_778
10
21.8303007
20
60.874547
11
21.8303007
21
62.874547
0
LINE
8
DEFAULT_255_2_778
10
27.5741007
20
60.874547
11
26.5740007
21
60.874547
0
LINE
8
DEFAULT_255_2_778
10
26.5740007
20
64.874547
11
26.5740007
21
62.874547
0
LINE
8
DEFAULT_255_2_778
10
26.5740007
20
62.874547
11
26.5740007
21
62.874547
0
LINE
8
DEFAULT_255_2_778
10
26.5740007
20
62.874547
11
27.5741007
21
62.874547
0
LINE
8
DEFAULT_255_2_778
10
27.5741007
20
62.874547
11
27.5741007
21
62.874547
0
LINE
8
DEFAULT_255_2_778
10
27.5741007
20
62.874547
11
27.5741007
21
60.874547
0
LINE
8
DEFAULT_255_2_778
10
27.5741007
20
60.874547
11
27.5741007
21
60.874547
0
LINE
8
DEFAULT_255_2_778
10
27.5741007
20
60.874547
11
27.8122007
21
60.874547
0
LINE
8
DEFAULT_255_2_778
10
27.8122007
20
60.874547
11
27.8122007
21
62.874547
0
LINE
8
DEFAULT_255_2_778
10
23.9099007
20
64.874547
11
23.9099007
21
60.874547
0
LINE
8
DEFAULT_255_2_778
10
23.9099007
20
60.874547
11
26.5740007
21
60.874547
0
LINE
8
DEFAULT_255_2_778
10
26.5740007
20
60.874547
11
26.5740007
21
62.874547
0
LINE
8
DEFAULT_255_2_778
10
30.1670007
20
60.874547
11
29.8921007
21
60.874547
0
LINE
8
DEFAULT_255_2_778
10
29.8921007
20
60.874547
11
29.8921007
21
64.874547
0
LINE
8
DEFAULT_255_2_778
10
33.9897007
20
49.540647
11
33.9897007
21
54.987047
0
LINE
8
DEFAULT_255_2_778
10
33.9897007
20
54.987047
11
47.8896007
21
54.987047
0
LINE
8
DEFAULT_255_2_778
10
47.8896007
20
54.987047
11
47.8896007
21
-0.212953
0
LINE
8
DEFAULT_255_2_778
10
47.8896007
20
-0.212953
11
45.2895007
21
-0.212953
0
LINE
8
DEFAULT_255_2_778
10
45.2895007
20
-0.212953
11
45.2895007
21
0.686847
0
LINE
8
DEFAULT_255_2_778
10
45.2895007
20
0.686847
11
46.7096007
21
0.686847
0
LINE
8
DEFAULT_255_2_778
10
46.7096007
20
0.686847
11
46.7096007
21
3.086947
0
LINE
8
DEFAULT_255_2_778
10
1.4446007
20
3.052547
11
1.4446007
21
0.652547
0
LINE
8
DEFAULT_255_2_778
10
1.4446007
20
0.652547
11
2.8647007
21
0.652547
0
LINE
8
DEFAULT_255_2_778
10
2.8647007
20
0.652547
11
2.8647007
21
-0.247353
0
LINE
8
DEFAULT_255_2_778
10
2.8647007
20
-0.247353
11
0.2646007
21
-0.247353
0
LINE
8
DEFAULT_255_2_778
10
0.2646007
20
-0.247353
11
0.2659007
21
54.952647
0
LINE
8
DEFAULT_255_2_778
10
0.2659007
20
54.952647
11
1.2647007
21
54.952647
0
ARC
8
DEFAULT_255_2_778
10
7.15009
20
39.3324617
40
1.4285026
50
350.734489
51
0.4979736
0
ARC
8
DEFAULT_255_2_778
10
7.859996
20
39.2111414
40
0.7083461
50
333.78456
51
351.1741616
0
ARC
8
DEFAULT_255_2_778
10
8.0934244
20
39.1047162
40
0.4519799
50
325.0163747
51
332.8162474
0
ARC
8
DEFAULT_255_2_778
10
8.1506057
20
39.0707302
40
0.3856764
50
273.0618426
51
324.2825951
0
ARC
8
DEFAULT_255_2_778
10
8.1064207
20
39.3340105
40
0.6516345
50
269.8960695
51
275.7057622
0
ARC
8
DEFAULT_255_2_778
10
8.0918008
20
39.17718
40
0.4949854
50
244.5658614
51
271.5556559
0
ARC
8
DEFAULT_255_2_778
10
8.0421899
20
39.052542
40
0.3612262
50
215.6169434
51
243.1816495
0
ARC
8
DEFAULT_255_2_778
10
8.2281847
20
39.1729566
40
0.5826451
50
192.3016926
51
214.5914129
0
ARC
8
DEFAULT_255_2_778
10
8.8035277
20
39.3114096
40
1.1743452
50
181.4670895
51
192.9209371
0
ARC
8
DEFAULT_255_2_778
10
9.3253156
20
39.341901
40
1.6968291
50
180.7673276
51
182.0452536
0
ARC
8
DEFAULT_255_2_778
10
9.0155422
20
39.5870435
40
1.3869596
50
170.5005749
51
180.5150005
0
ARC
8
DEFAULT_255_2_778
10
8.321347
20
39.7090062
40
0.6821793
50
152.7817672
51
170.9811527
0
ARC
8
DEFAULT_255_2_778
10
8.1028829
20
39.8122626
40
0.4407523
50
144.6167633
51
151.7289566
0
ARC
8
DEFAULT_255_2_778
10
8.0545419
20
39.8403094
40
0.3851339
50
93.6920919
51
143.8542976
0
ARC
8
DEFAULT_255_2_778
10
8.1015764
20
39.5708596
40
0.657719
50
89.8726145
51
96.2702659
0
ARC
8
DEFAULT_255_2_778
10
8.1162406
20
39.7119839
40
0.5167618
50
66.3393854
51
91.4639201
0
ARC
8
DEFAULT_255_2_778
10
8.1745332
20
39.8632167
40
0.354923
50
36.2281919
51
65.1608448
0
ARC
8
DEFAULT_255_2_778
10
8.0128358
20
39.7585866
40
0.5473098
50
12.7086288
51
35.0596395
0
ARC
8
DEFAULT_255_2_778
10
7.4365215
20
39.6153871
40
1.1410812
50
1.9050919
51
13.3566808
0
ARC
8
DEFAULT_255_2_778
10
6.8556522
20
39.5784114
40
1.722949
50
0.4877039
51
2.4918721
0
ARC
8
DEFAULT_255_2_778
10
7.2157172
20
39.6185262
40
1.1715824
50
359.4156212
51
8.8931467
0
ARC
8
DEFAULT_255_2_778
10
7.9068229
20
39.7332384
40
0.471096
50
8.1033534
51
27.5105222
0
ARC
8
DEFAULT_255_2_778
10
8.0824912
20
39.8152946
40
0.2775146
50
29.2379232
51
31.568179
0
ARC
8
DEFAULT_255_2_778
10
8.1190961
20
39.8375527
40
0.2346744
50
31.6167183
51
93.9234788
0
ARC
8
DEFAULT_255_2_778
10
8.0869553
20
39.8404625
40
0.2317733
50
86.0208881
51
148.6409819
0
ARC
8
DEFAULT_255_2_778
10
8.2815076
20
39.7384615
40
0.451209
50
150.4373036
51
170.8727137
0
ARC
8
DEFAULT_255_2_778
10
8.9077416
20
39.6225593
40
1.0880039
50
170.0776966
51
180.0780568
0
ARC
8
DEFAULT_255_2_778
10
8.9623945
20
39.3030128
40
1.1427216
50
179.3850626
51
189.4522097
0
ARC
8
DEFAULT_255_2_778
10
8.3018478
20
39.186786
40
0.4720961
50
188.7032912
51
208.8374485
0
ARC
8
DEFAULT_255_2_778
10
8.1425685
20
39.1090057
40
0.2951812
50
210.5244054
51
211.4082925
0
ARC
8
DEFAULT_255_2_778
10
8.0933719
20
39.0733247
40
0.2346479
50
210.232513
51
272.8988331
0
ARC
8
DEFAULT_255_2_778
10
8.1186971
20
39.0698252
40
0.2312401
50
266.6634486
51
328.3471614
0
ARC
8
DEFAULT_255_2_778
10
7.9362568
20
39.1699917
40
0.4392306
50
329.7134965
51
350.5352521
0
ARC
8
DEFAULT_255_2_778
10
7.2896925
20
39.2940225
40
1.0975057
50
349.6988452
51
359.8043003
0
ARC
8
DEFAULT_255_2_778
10
6.7269647
20
39.3142999
40
1.660401
50
359.1708995
51
359.2917956
0
ARC
8
DEFAULT_255_2_778
10
9.387454
20
39.8095205
40
0.348729
50
325.9927388
51
0.9129788
0
ARC
8
DEFAULT_255_2_778
10
9.3406739
20
39.8439598
40
0.406777
50
295.522287
51
325.6567939
0
ARC
8
DEFAULT_255_2_778
10
9.3525003
20
39.0790096
40
0.4301286
50
35.5311727
51
67.6678231
0
ARC
8
DEFAULT_255_2_778
10
9.399475
20
39.1136098
40
0.3717938
50
359.2706298
51
35.3988773
0
ARC
8
DEFAULT_255_2_778
10
9.3778732
20
39.0918818
40
0.3937325
50
311.6498748
51
2.4739125
0
ARC
8
DEFAULT_255_2_778
10
9.3277732
20
39.1657443
40
0.48236
50
272.4395782
51
310.2657342
0
ARC
8
DEFAULT_255_2_778
10
9.2933343
20
39.4217993
40
0.7400224
50
269.9461428
51
274.2600189
0
ARC
8
DEFAULT_255_2_778
10
9.2791913
20
39.2525965
40
0.5709779
50
245.7941007
51
271.3495274
0
ARC
8
DEFAULT_255_2_778
10
9.2262824
20
39.1145525
40
0.4234596
50
228.3823066
51
244.6651406
0
ARC
8
DEFAULT_255_2_778
10
9.2087597
20
39.0918766
40
0.3948743
50
177.576066
51
228.0978397
0
ARC
8
DEFAULT_255_2_778
10
9.197228
20
39.1127691
40
0.3830122
50
145.6690953
51
180.6271066
0
ARC
8
DEFAULT_255_2_778
10
9.2223885
20
39.0937792
40
0.414502
50
112.2648091
51
145.4628738
0
ARC
8
DEFAULT_255_2_778
10
9.235395
20
39.8326344
40
0.3938616
50
213.5472151
51
244.420266
0
ARC
8
DEFAULT_255_2_778
10
9.2037152
20
39.8092032
40
0.3545157
50
179.1476179
51
213.2205412
0
ARC
8
DEFAULT_255_2_778
10
9.2485212
20
39.8303725
40
0.3995988
50
140.7069486
51
182.2797445
0
ARC
8
DEFAULT_255_2_778
10
9.2231827
20
39.8406282
40
0.3735821
50
132.4283903
51
139.4631025
0
ARC
8
DEFAULT_255_2_778
10
9.2641211
20
39.7843953
40
0.442776
50
91.0621277
51
131.4292298
0
ARC
8
DEFAULT_255_2_778
10
9.2923088
20
39.5530605
40
0.6750167
50
89.971999
51
93.0907439
0
ARC
8
DEFAULT_255_2_778
10
9.3067401
20
39.7364342
40
0.491845
50
60.6735108
51
91.6429196
0
ARC
8
DEFAULT_255_2_778
10
9.3434346
20
39.8204534
40
0.4007257
50
47.6011935
51
59.3637613
0
ARC
8
DEFAULT_255_2_778
10
9.348583
20
39.8330697
40
0.387966
50
357.3630059
51
46.9063262
0
ARC
8
DEFAULT_255_2_778
10
9.0465789
20
39.8142917
40
0.68956
50
0.015399
51
0.07714
0
ARC
8
DEFAULT_255_2_778
10
9.3035488
20
39.1239666
40
0.2766926
50
357.806644
51
44.8126634
0
ARC
8
DEFAULT_255_2_778
10
9.3023134
20
39.114571
40
0.28425
50
45.9807619
51
92.3740839
0
ARC
8
DEFAULT_255_2_778
10
9.2777889
20
39.1197838
40
0.2790846
50
87.3815747
51
134.166269
0
ARC
8
DEFAULT_255_2_778
10
9.2856021
20
39.1255902
40
0.2805294
50
136.1376088
51
182.4952214
0
ARC
8
DEFAULT_255_2_778
10
9.2725008
20
39.0988727
40
0.2675555
50
176.8924315
51
224.3690855
0
ARC
8
DEFAULT_255_2_778
10
9.2711791
20
39.1221746
40
0.283451
50
227.9252604
51
270.9611897
0
ARC
8
DEFAULT_255_2_778
10
9.2925253
20
39.3191725
40
0.4806955
50
268.022032
51
270.0135148
0
ARC
8
DEFAULT_255_2_778
10
9.3065801
20
39.1420183
40
0.3038612
50
267.3703005
51
305.6102694
0
ARC
8
DEFAULT_255_2_778
10
9.3373238
20
39.0845053
40
0.2393531
50
307.6438479
51
313.9820901
0
ARC
8
DEFAULT_255_2_778
10
9.3140447
20
39.0994626
40
0.2663577
50
315.3511207
51
2.9944731
0
ARC
8
DEFAULT_255_2_778
10
9.2822849
20
39.8254578
40
0.2461371
50
87.5891269
51
134.3130955
0
ARC
8
DEFAULT_255_2_778
10
9.2967257
20
39.8253047
40
0.2565386
50
136.5975643
51
183.0003128
0
ARC
8
DEFAULT_255_2_778
10
9.2949703
20
39.8007345
40
0.2546755
50
177.4923908
51
223.2061848
0
ARC
8
DEFAULT_255_2_778
10
9.2813602
20
39.798714
40
0.2434983
50
225.0524883
51
272.6548103
0
ARC
8
DEFAULT_255_2_778
10
9.3040424
20
39.7986328
40
0.243423
50
267.3148658
51
314.9568115
0
ARC
8
DEFAULT_255_2_778
10
9.2899714
20
39.8008961
40
0.2551037
50
316.8343508
51
2.4670736
0
ARC
8
DEFAULT_255_2_778
10
9.2906682
20
39.8218633
40
0.2543666
50
357.7500224
51
44.0989811
0
ARC
8
DEFAULT_255_2_778
10
9.2999996
20
39.8276429
40
0.2436546
50
44.6499972
51
91.801772
0
ARC
8
DEFAULT_255_2_778
10
10.4998908
20
39.5229161
40
0.6848931
50
60.8176109
51
91.1254253
0
ARC
8
DEFAULT_255_2_778
10
10.5409505
20
39.6110865
40
0.587937
50
26.5385939
51
60.1214904
0
ARC
8
DEFAULT_255_2_778
10
10.3553868
20
39.5202774
40
0.7945238
50
359.8879916
51
26.4182339
0
ARC
8
DEFAULT_255_2_778
10
10.1031082
20
39.5017876
40
1.0469379
50
0.2183326
51
0.926927
0
ARC
8
DEFAULT_255_2_778
10
10.3133038
20
39.3958782
40
0.8368487
50
338.4115849
51
0.944798
0
ARC
8
DEFAULT_255_2_778
10
10.4675151
20
39.3452434
40
0.6748937
50
332.7929524
51
337.5916986
0
ARC
8
DEFAULT_255_2_778
10
10.5488468
20
39.2965685
40
0.5803381
50
299.3209011
51
333.395611
0
ARC
8
DEFAULT_255_2_778
10
10.487878
20
39.4260669
40
0.7231758
50
270.2123586
51
298.5082078
0
ARC
8
DEFAULT_255_2_778
10
10.4674681
20
39.6688568
40
0.9662366
50
270.6208964
51
271.3693317
0
ARC
8
DEFAULT_255_2_778
10
10.4827467
20
39.3797721
40
0.5147776
50
268.4740946
51
296.9456035
0
ARC
8
DEFAULT_255_2_778
10
10.5250632
20
39.2760986
40
0.40329
50
298.2608021
51
318.2922479
0
ARC
8
DEFAULT_255_2_778
10
10.4461607
20
39.333236
40
0.5003067
50
319.4192665
51
351.4940536
0
ARC
8
DEFAULT_255_2_778
10
10.0761567
20
39.4085217
40
0.8775983
50
350.2058619
51
0.3496369
0
ARC
8
DEFAULT_255_2_778
10
10.1769263
20
39.514545
40
0.7769173
50
359.0583544
51
16.7830781
0
ARC
8
DEFAULT_255_2_778
10
10.4744815
20
39.6015525
40
0.4669205
50
17.1042586
51
39.7751168
0
ARC
8
DEFAULT_255_2_778
10
10.5193652
20
39.6268061
40
0.4163721
50
41.0558685
51
88.6722678
0
ARC
8
DEFAULT_255_2_778
10
10.4855594
20
39.3880141
40
0.6564921
50
86.2047868
51
89.4606942
0
ARC
8
DEFAULT_255_2_778
10
12.4976217
20
40.6412974
40
1.8332886
50
318.1927057
51
323.5221614
0
ARC
8
DEFAULT_255_2_778
10
13.4004785
20
39.9751521
40
0.7112829
50
323.4319123
51
331.2264788
0
ARC
8
DEFAULT_255_2_778
10
13.7111898
20
39.8042073
40
0.3566513
50
331.2710781
51
359.7862962
0
ARC
8
DEFAULT_255_2_778
10
13.7985482
20
39.8130554
40
0.2694828
50
357.8354195
51
42.7489932
0
ARC
8
DEFAULT_255_2_778
10
13.8172848
20
39.821662
40
0.2499637
50
44.2157001
51
92.555724
0
ARC
8
DEFAULT_255_2_778
10
13.7921131
20
39.759202
40
0.3124899
50
87.4275177
51
125.1733766
0
ARC
8
DEFAULT_255_2_778
10
13.7610871
20
39.8182487
40
0.2465036
50
127.1850162
51
135.7757917
0
ARC
8
DEFAULT_255_2_778
10
13.805243
20
39.7879376
40
0.299425
50
137.512759
51
180.2753137
0
ARC
8
DEFAULT_255_2_778
10
14.0083568
20
39.764469
40
0.5030179
50
177.4899009
51
180.0218569
0
ARC
8
DEFAULT_255_2_778
10
13.7578324
20
39.7821003
40
0.4441515
50
134.2444288
51
182.2998303
0
ARC
8
DEFAULT_255_2_778
10
13.7707088
20
39.7513303
40
0.4753361
50
92.318876
51
132.7683191
0
ARC
8
DEFAULT_255_2_778
10
13.8054726
20
39.4984841
40
0.7297933
50
89.9477031
51
94.2431115
0
ARC
8
DEFAULT_255_2_778
10
13.819401
20
39.6733716
40
0.5550639
50
66.8344553
51
91.369114
0
ARC
8
DEFAULT_255_2_778
10
13.8776844
20
39.8290687
40
0.3890679
50
48.0164299
51
65.7055478
0
ARC
8
DEFAULT_255_2_778
10
13.8849406
20
39.8410392
40
0.375325
50
357.6083799
51
47.6174594
0
ARC
8
DEFAULT_255_2_778
10
13.7752597
20
39.8383613
40
0.4848529
50
333.6632631
51
358.46545
0
ARC
8
DEFAULT_255_2_778
10
13.2710677
20
40.0722692
40
1.0405781
50
322.2978874
51
334.4371153
0
ARC
8
DEFAULT_255_2_778
10
12.6175039
20
40.5589714
40
1.8553817
50
317.1085414
51
322.7491185
0
LINE
8
DEFAULT_255_2_778
10
4.5187387
20
40.2079771
11
4.5187387
21
40.0446771
0
LINE
8
DEFAULT_255_2_778
10
4.5187387
20
40.0446771
11
4.0351387
21
40.0446771
0
LINE
8
DEFAULT_255_2_778
10
4.0351387
20
40.0446771
11
4.0351387
21
38.7032771
0
LINE
8
DEFAULT_255_2_778
10
4.0351387
20
38.7032771
11
3.8377387
21
38.7032771
0
LINE
8
DEFAULT_255_2_778
10
3.8377387
20
38.7032771
11
3.8377387
21
40.0446771
0
LINE
8
DEFAULT_255_2_778
10
3.8377387
20
40.0446771
11
3.3551387
21
40.0446771
0
LINE
8
DEFAULT_255_2_778
10
3.3551387
20
40.0446771
11
3.3551387
21
40.2079771
0
LINE
8
DEFAULT_255_2_778
10
3.3551387
20
40.2079771
11
4.5187387
21
40.2079771
0
LINE
8
DEFAULT_255_2_778
10
4.5187387
20
40.2079771
11
4.5187387
21
40.2079771
0
LINE
8
DEFAULT_255_2_778
10
5.3210387
20
40.2150771
11
5.3210387
21
38.7029771
0
LINE
8
DEFAULT_255_2_778
10
5.3210387
20
38.7029771
11
5.1286387
21
38.7029771
0
LINE
8
DEFAULT_255_2_778
10
5.1286387
20
38.7029771
11
5.1286387
21
39.9771771
0
LINE
8
DEFAULT_255_2_778
10
5.1286387
20
39.9771771
11
4.7431387
21
39.8356771
0
LINE
8
DEFAULT_255_2_778
10
4.7431387
20
39.8356771
11
4.7431387
21
40.0092771
0
LINE
8
DEFAULT_255_2_778
10
4.7431387
20
40.0092771
11
5.2908387
21
40.2147771
0
LINE
8
DEFAULT_255_2_778
10
5.2908387
20
40.2147771
11
5.3207387
21
40.2147771
0
LINE
8
DEFAULT_255_2_778
10
5.3207387
20
40.2147771
11
5.3210387
21
40.2150771
0
LINE
8
DEFAULT_255_2_778
10
6.7606387
20
39.5297771
11
6.7606387
21
39.3675771
0
LINE
8
DEFAULT_255_2_778
10
6.7606387
20
39.3675771
11
6.1290387
21
39.3675771
0
LINE
8
DEFAULT_255_2_778
10
6.1290387
20
39.3675771
11
6.1290387
21
38.7029771
0
LINE
8
DEFAULT_255_2_778
10
6.1290387
20
38.7029771
11
5.9306387
21
38.7029771
0
LINE
8
DEFAULT_255_2_778
10
5.9306387
20
38.7029771
11
5.9306387
21
40.2076771
0
LINE
8
DEFAULT_255_2_778
10
5.9306387
20
40.2076771
11
6.8627387
21
40.2076771
0
LINE
8
DEFAULT_255_2_778
10
6.8627387
20
40.2076771
11
6.8627387
21
40.0444771
0
LINE
8
DEFAULT_255_2_778
10
6.8627387
20
40.0444771
11
6.1290387
21
40.0444771
0
LINE
8
DEFAULT_255_2_778
10
6.1290387
20
40.0444771
11
6.1290387
21
39.5297771
0
LINE
8
DEFAULT_255_2_778
10
6.1290387
20
39.5297771
11
6.7606387
21
39.5297771
0
LINE
8
DEFAULT_255_2_778
10
6.7606387
20
39.5297771
11
6.7606387
21
39.5297771
0
LINE
8
DEFAULT_255_2_778
10
7.4686387
20
39.4202771
11
7.4686387
21
39.2641771
0
LINE
8
DEFAULT_255_2_778
10
7.4686387
20
39.2641771
11
6.9643387
21
39.2641771
0
LINE
8
DEFAULT_255_2_778
10
6.9643387
20
39.2641771
11
6.9643387
21
39.4202771
0
LINE
8
DEFAULT_255_2_778
10
6.9643387
20
39.4202771
11
7.4686387
21
39.4202771
0
LINE
8
DEFAULT_255_2_778
10
7.4686387
20
39.4202771
11
7.4686387
21
39.4202771
0
LINE
8
DEFAULT_255_2_778
10
8.5785387
20
39.5930771
11
8.5785387
21
39.3448771
0
LINE
8
DEFAULT_255_2_778
10
7.6286387
20
39.3191771
11
7.6286387
21
39.5745771
0
LINE
8
DEFAULT_255_2_778
10
8.5785387
20
39.5930771
11
8.5785387
21
39.5930771
0
LINE
8
DEFAULT_255_2_778
10
8.3872387
20
39.2932771
11
8.3872387
21
39.6065771
0
LINE
8
DEFAULT_255_2_778
10
7.8197387
20
39.6210771
11
7.8197387
21
39.3152771
0
LINE
8
DEFAULT_255_2_778
10
8.3872387
20
39.2937771
11
8.3872387
21
39.2932771
0
LINE
8
DEFAULT_255_2_778
10
9.7361387
20
39.8144771
11
9.7361387
21
39.8150771
0
LINE
8
DEFAULT_255_2_778
10
9.5800387
20
39.1133771
11
9.5800387
21
39.1133771
0
LINE
8
DEFAULT_255_2_778
10
9.2923387
20
40.0711771
11
9.2926387
21
40.0713771
0
LINE
8
DEFAULT_255_2_778
10
10.4782387
20
38.7029771
11
10.0618387
21
38.7029771
0
LINE
8
DEFAULT_255_2_778
10
10.0618387
20
38.7029771
11
10.0618387
21
40.2076771
0
LINE
8
DEFAULT_255_2_778
10
10.0618387
20
40.2076771
11
10.4864387
21
40.2076771
0
LINE
8
DEFAULT_255_2_778
10
11.1500387
20
39.5057771
11
11.1500387
21
39.4096771
0
LINE
8
DEFAULT_255_2_778
10
10.4779387
20
38.7026771
11
10.4782387
21
38.7029771
0
LINE
8
DEFAULT_255_2_778
10
10.4917387
20
40.0444771
11
10.2602387
21
40.0444771
0
LINE
8
DEFAULT_255_2_778
10
10.2602387
20
40.0444771
11
10.2602387
21
38.8651771
0
LINE
8
DEFAULT_255_2_778
10
10.2602387
20
38.8651771
11
10.4690387
21
38.8651771
0
LINE
8
DEFAULT_255_2_778
10
10.9537387
20
39.4138771
11
10.9537387
21
39.5017771
0
LINE
8
DEFAULT_255_2_778
10
10.4917387
20
40.0444771
11
10.4917387
21
40.0444771
0
LINE
8
DEFAULT_255_2_778
10
12.4025387
20
38.7029771
11
12.2589387
21
39.0956771
0
LINE
8
DEFAULT_255_2_778
10
12.2589387
20
39.0956771
11
11.6284387
21
39.0956771
0
LINE
8
DEFAULT_255_2_778
10
11.6284387
20
39.0956771
11
11.4868387
21
38.7029771
0
LINE
8
DEFAULT_255_2_778
10
11.4868387
20
38.7029771
11
11.2823387
21
38.7029771
0
LINE
8
DEFAULT_255_2_778
10
11.2823387
20
38.7029771
11
11.8570387
21
40.2076771
0
LINE
8
DEFAULT_255_2_778
10
11.8570387
20
40.2076771
11
12.0305387
21
40.2076771
0
LINE
8
DEFAULT_255_2_778
10
12.0305387
20
40.2076771
11
12.6063387
21
38.7026771
0
LINE
8
DEFAULT_255_2_778
10
12.6063387
20
38.7026771
11
12.4025387
21
38.7026771
0
LINE
8
DEFAULT_255_2_778
10
12.4025387
20
38.7026771
11
12.4025387
21
38.7029771
0
LINE
8
DEFAULT_255_2_778
10
11.9437387
20
39.9629771
11
11.6884387
21
39.2591771
0
LINE
8
DEFAULT_255_2_778
10
11.6884387
20
39.2591771
11
12.2001387
21
39.2591771
0
LINE
8
DEFAULT_255_2_778
10
12.2001387
20
39.2591771
11
11.9437387
21
39.9629771
0
LINE
8
DEFAULT_255_2_778
10
11.9437387
20
39.9629771
11
11.9437387
21
39.9629771
0
LINE
8
DEFAULT_255_2_778
10
13.1767387
20
39.4202771
11
13.1767387
21
39.2641771
0
LINE
8
DEFAULT_255_2_778
10
13.1767387
20
39.2641771
11
12.6724387
21
39.2641771
0
LINE
8
DEFAULT_255_2_778
10
12.6724387
20
39.2641771
11
12.6724387
21
39.4202771
0
LINE
8
DEFAULT_255_2_778
10
12.6724387
20
39.4202771
11
13.1767387
21
39.4202771
0
LINE
8
DEFAULT_255_2_778
10
13.1767387
20
39.4202771
11
13.1767387
21
39.4202771
0
LINE
8
DEFAULT_255_2_778
10
14.3292387
20
38.8590771
11
14.3292387
21
38.7029771
0
LINE
8
DEFAULT_255_2_778
10
14.3292387
20
38.7029771
11
13.3431387
21
38.7029771
0
LINE
8
DEFAULT_255_2_778
10
13.3431387
20
38.7029771
11
13.3431387
21
38.8405771
0
LINE
8
DEFAULT_255_2_778
10
13.3431387
20
38.8405771
11
13.8641387
21
39.4191771
0
LINE
8
DEFAULT_255_2_778
10
13.5053387
20
39.7642771
11
13.3140387
21
39.7642771
0
LINE
8
DEFAULT_255_2_778
10
13.9768387
20
39.2961771
11
13.5738387
21
38.8590771
0
LINE
8
DEFAULT_255_2_778
10
13.5738387
20
38.8590771
11
14.3292387
21
38.8590771
0
LINE
8
DEFAULT_255_2_778
10
14.3292387
20
38.8590771
11
14.3292387
21
38.8590771
0
ENDSEC
0
EOF