0
SECTION
2
HEADER
9
$MEASUREMENT
70
1
0
ENDSEC
0
SECTION
2
TABLES
0
TABLE
2
LTYPE
0
LTYPE
72
65
70
64
2
CONTINUOUS
3
______
73
0
40
0
0
ENDTAB
0
TABLE
2
LAYER
0
LAYER
2
DEFAULT_255_2_778
70
0
62
255
6
CONTINUOUS
0
ENDTAB
0
ENDSEC
0
SECTION
2
ENTITIES
0
LINE
8
DEFAULT_255_2_778
10
2.8917782
20
6.445252
11
3.2634782
21
4.659052
0
LINE
8
DEFAULT_255_2_778
10
3.2634782
20
4.659052
11
2.8708782
21
2.784252
0
LINE
8
DEFAULT_255_2_778
10
2.8708782
20
2.784252
11
6.3958782
21
4.632852
0
LINE
8
DEFAULT_255_2_778
10
6.3958782
20
4.632852
11
2.8917782
21
6.445552
0
ARC
8
DEFAULT_255_2_778
10
4.8830558
20
10.295227
40
1.427917
50
269.5886485
51
280.2083425
0
ARC
8
DEFAULT_255_2_778
10
4.9863874
20
9.7426701
40
0.865802
50
279.9590346
51
296.6025365
0
ARC
8
DEFAULT_255_2_778
10
5.1339712
20
9.4571241
40
0.5444129
50
296.1718152
51
331.5098955
0
ARC
8
DEFAULT_255_2_778
10
5.0648512
20
9.4772707
40
0.6149621
50
332.9321665
51
1.0786065
0
ARC
8
DEFAULT_255_2_778
10
5.0067583
20
9.5049765
40
0.6731391
50
358.6269599
51
26.9368425
0
ARC
8
DEFAULT_255_2_778
10
5.1215612
20
9.5447669
40
0.5530135
50
28.6500412
51
66.3654652
0
ARC
8
DEFAULT_255_2_778
10
4.9691469
20
9.2197641
40
0.9119063
50
65.7788709
51
81.9103299
0
ARC
8
DEFAULT_255_2_778
10
4.8804146
20
8.6647471
40
1.4739193
50
81.5314793
51
90.2958422
0
ARC
8
DEFAULT_255_2_778
10
4.8608648
20
8.7648424
40
1.7225356
50
79.9916165
51
90.3446195
0
ARC
8
DEFAULT_255_2_778
10
4.9649403
20
9.3356702
40
1.1423116
50
64.4882963
51
80.1564492
0
ARC
8
DEFAULT_255_2_778
10
5.1072433
20
9.6284299
40
0.8168109
50
31.3138688
51
64.6522829
0
ARC
8
DEFAULT_255_2_778
10
4.9219076
20
9.5384259
40
1.0221115
50
4.418381
51
30.2246104
0
ARC
8
DEFAULT_255_2_778
10
4.4883683
20
9.479341
40
1.4591372
50
359.925623
51
5.4201277
0
ARC
8
DEFAULT_255_2_778
10
4.8116516
20
9.4582932
40
1.1360141
50
339.728799
51
0.9660738
0
ARC
8
DEFAULT_255_2_778
10
5.1587416
20
9.3367483
40
0.768336
50
297.6503756
51
339.2636561
0
ARC
8
DEFAULT_255_2_778
10
5.0143675
20
9.6084243
40
1.0759873
50
281.8493642
51
297.7466536
0
ARC
8
DEFAULT_255_2_778
10
4.8899726
20
10.1762027
40
1.6572181
50
271.6742472
51
282.0276556
0
ARC
8
DEFAULT_255_2_778
10
4.8620513
20
10.6850165
40
2.1666699
50
269.982888
51
272.0191705
0
LINE
8
DEFAULT_255_2_778
10
4.8614042
20
8.5180468
11
3.3641042
21
8.5180468
0
LINE
8
DEFAULT_255_2_778
10
3.3641042
20
8.5180468
11
3.3641042
21
8.8673468
0
LINE
8
DEFAULT_255_2_778
10
3.3641042
20
8.8673468
11
4.8728042
21
8.8673468
0
LINE
8
DEFAULT_255_2_778
10
4.8728042
20
10.1386468
11
3.3644042
21
10.1386468
0
LINE
8
DEFAULT_255_2_778
10
3.3644042
20
10.1386468
11
3.3644042
21
10.4873468
0
LINE
8
DEFAULT_255_2_778
10
3.3644042
20
10.4873468
11
4.8505042
21
10.4873468
0
ARC
8
DEFAULT_255_2_778
10
4.6583749
20
38.6742906
40
1.2833564
50
269.4831854
51
285.9220617
0
ARC
8
DEFAULT_255_2_778
10
4.7854023
20
38.2730302
40
0.8627273
50
285.1200052
51
341.8778481
0
ARC
8
DEFAULT_255_2_778
10
4.4514508
20
38.3894386
40
1.2163403
50
341.5593955
51
358.2968961
0
ARC
8
DEFAULT_255_2_778
10
4.1384155
20
38.4124751
40
1.5299835
50
357.782989
51
0.0116588
0
ARC
8
DEFAULT_255_2_778
10
3.9741439
20
38.4127057
40
1.6942551
50
0.0027302
51
0.1446863
0
ARC
8
DEFAULT_255_2_778
10
4.0083052
20
38.4151057
40
1.6600895
50
0.0648311
51
13.9027585
0
ARC
8
DEFAULT_255_2_778
10
4.6608142
20
38.5776346
40
0.9876447
50
13.8455497
51
23.9962246
0
ARC
8
DEFAULT_255_2_778
10
5.088429
20
38.6971257
40
0.8170255
50
15.4654903
51
25.3309133
0
ARC
8
DEFAULT_255_2_778
10
4.2860061
20
38.4643849
40
1.6524882
50
8.8048112
51
15.8240436
0
ARC
8
DEFAULT_255_2_778
10
3.6196572
20
38.3566294
40
2.3274828
50
2.1523605
51
8.9153023
0
ARC
8
DEFAULT_255_2_778
10
3.3626151
20
38.342353
40
2.584884
50
359.9940905
51
2.2546021
0
ARC
8
DEFAULT_255_2_778
10
4.3441308
20
38.3293938
40
1.6034184
50
342.8387168
51
0.4535588
0
ARC
8
DEFAULT_255_2_778
10
4.793324
20
38.1739156
40
1.128462
50
290.2327782
51
343.6519248
0
ARC
8
DEFAULT_255_2_778
10
4.6951888
20
38.4470776
40
1.4187092
50
274.2904595
51
290.1362877
0
ARC
8
DEFAULT_255_2_778
10
4.6591278
20
38.7852635
40
1.7586776
50
269.953452
51
274.637733
0
ARC
8
DEFAULT_255_2_778
10
4.6479925
20
38.5094459
40
1.4828913
50
252.6448163
51
270.3750425
0
ARC
8
DEFAULT_255_2_778
10
4.5724664
20
38.2620587
40
1.2242389
50
197.519754
51
252.5649482
0
ARC
8
DEFAULT_255_2_778
10
4.9468857
20
38.4013532
40
1.6233472
50
181.526237
51
198.2299005
0
ARC
8
DEFAULT_255_2_778
10
5.2098061
20
38.4200071
40
1.8867072
50
179.994554
51
181.87986
0
ARC
8
DEFAULT_255_2_778
10
5.5032783
20
38.4234564
40
2.1801818
50
174.5069885
51
180.0859347
0
ARC
8
DEFAULT_255_2_778
10
5.0882756
20
38.4641333
40
1.7631911
50
168.6700994
51
174.5318242
0
ARC
8
DEFAULT_255_2_778
10
4.6479001
20
38.5534803
40
1.3138452
50
162.6031323
51
168.717661
0
ARC
8
DEFAULT_255_2_778
10
4.3796349
20
38.6338529
40
1.0338267
50
161.4752383
51
162.4084847
0
ARC
8
DEFAULT_255_2_778
10
4.2123614
20
38.6912885
40
0.8569731
50
157.8956574
51
161.5631158
0
ARC
8
DEFAULT_255_2_778
10
3.9489716
20
38.7989065
40
0.5724465
50
153.5832352
51
157.9553135
0
ARC
8
DEFAULT_255_2_778
10
4.6093004
20
38.5454284
40
0.9984649
50
155.0387104
51
167.0819631
0
ARC
8
DEFAULT_255_2_778
10
5.0307593
20
38.443816
40
1.4319812
50
166.8890839
51
178.1453237
0
ARC
8
DEFAULT_255_2_778
10
5.2020171
20
38.4327191
40
1.6035181
50
177.9470692
51
180.0047393
0
ARC
8
DEFAULT_255_2_778
10
4.8734713
20
38.4206563
40
1.2750282
50
179.4638908
51
196.9943076
0
ARC
8
DEFAULT_255_2_778
10
4.5067851
20
38.3000398
40
0.8891379
50
196.4674505
51
253.2925462
0
ARC
8
DEFAULT_255_2_778
10
4.6270322
20
38.6582414
40
1.2668459
50
252.7410726
51
268.7511313
0
ARC
8
DEFAULT_255_2_778
10
4.6465976
20
38.9586449
40
1.5676583
50
268.2755049
51
270.0073622
0
LINE
8
DEFAULT_255_2_778
10
5.563099
20
38.9792864
11
5.826899
21
39.0466864
0
LINE
8
DEFAULT_255_2_778
10
3.436299
20
39.0535864
11
3.704099
21
38.9667864
0
LINE
8
DEFAULT_255_2_778
10
5.9057063
20
36.737175
11
5.9057063
21
35.232275
0
LINE
8
DEFAULT_255_2_778
10
5.9057063
20
35.232275
11
3.3641063
21
35.232275
0
LINE
8
DEFAULT_255_2_778
10
3.3641063
20
35.232275
11
3.3641063
21
36.677875
0
LINE
8
DEFAULT_255_2_778
10
3.3641063
20
36.677875
11
3.6398063
21
36.677875
0
LINE
8
DEFAULT_255_2_778
10
3.6398063
20
36.677875
11
3.6398063
21
35.580175
0
LINE
8
DEFAULT_255_2_778
10
3.6398063
20
35.580175
11
4.4428063
21
35.580175
0
LINE
8
DEFAULT_255_2_778
10
4.4428063
20
35.580175
11
4.4428063
21
36.614175
0
LINE
8
DEFAULT_255_2_778
10
4.4428063
20
36.614175
11
4.7143063
21
36.614175
0
LINE
8
DEFAULT_255_2_778
10
4.7143063
20
36.614175
11
4.7143063
21
35.580175
0
LINE
8
DEFAULT_255_2_778
10
4.7143063
20
35.580175
11
5.6308063
21
35.580175
0
LINE
8
DEFAULT_255_2_778
10
5.6308063
20
35.580175
11
5.6308063
21
36.737175
0
LINE
8
DEFAULT_255_2_778
10
5.6308063
20
36.737175
11
5.9057063
21
36.737175
0
LINE
8
DEFAULT_255_2_778
10
5.9057063
20
39.989151
11
3.6435063
21
39.989151
0
LINE
8
DEFAULT_255_2_778
10
3.6435063
20
39.989151
11
3.6435063
21
39.177151
0
LINE
8
DEFAULT_255_2_778
10
3.6435063
20
39.177151
11
3.3641063
21
39.177151
0
LINE
8
DEFAULT_255_2_778
10
3.3641063
20
39.177151
11
3.3641063
21
41.153851
0
LINE
8
DEFAULT_255_2_778
10
3.3641063
20
41.153851
11
3.6435063
21
41.153851
0
LINE
8
DEFAULT_255_2_778
10
3.6435063
20
41.153851
11
3.6435063
21
40.337351
0
LINE
8
DEFAULT_255_2_778
10
3.6435063
20
40.337351
11
5.9057063
21
40.337351
0
LINE
8
DEFAULT_255_2_778
10
5.9057063
20
40.337351
11
5.9057063
21
39.989451
0
LINE
8
DEFAULT_255_2_778
10
5.9057063
20
32.5024958
11
5.9057063
21
32.1542958
0
LINE
8
DEFAULT_255_2_778
10
5.9057063
20
32.1542958
11
3.3641063
21
32.1542958
0
LINE
8
DEFAULT_255_2_778
10
3.3641063
20
32.1542958
11
3.3641063
21
32.5024958
0
LINE
8
DEFAULT_255_2_778
10
3.3641063
20
32.5024958
11
5.9057063
21
32.5024958
0
ARC
8
DEFAULT_255_2_778
10
4.7079088
20
36.4875294
40
8.186617
50
273.4885091
51
275.3576025
0
ARC
8
DEFAULT_255_2_778
10
4.6016054
20
38.5115605
40
10.2133802
50
270.7719435
51
273.3928465
0
ARC
8
DEFAULT_255_2_778
10
4.4492949
20
47.9532062
40
19.656237
50
269.9487311
51
270.8450887
0
ARC
8
DEFAULT_255_2_778
10
-1.8446205
20
37.1871443
40
11.705889
50
301.9346438
51
303.501841
0
ARC
8
DEFAULT_255_2_778
10
0.8265472
20
32.8657994
40
6.6256795
50
297.7386534
51
302.0979992
0
ARC
8
DEFAULT_255_2_778
10
1.9476052
20
30.7694532
40
4.2484935
50
295.3697402
51
297.516077
0
ARC
8
DEFAULT_255_2_778
10
10.6449828
20
18.6940163
40
10.9431507
50
120.9104368
51
123.2150785
0
ARC
8
DEFAULT_255_2_778
10
7.6271225
20
23.7588683
40
5.0474011
50
115.2584538
51
121.0530619
0
ARC
8
DEFAULT_255_2_778
10
7.3774621
20
24.2305335
40
4.5143667
50
114.9146351
51
114.9471172
0
LINE
8
DEFAULT_255_2_778
10
5.4757063
20
28.3244771
11
5.4723063
21
28.3366771
0
LINE
8
DEFAULT_255_2_778
10
4.4317063
20
28.2969771
11
3.3644063
21
28.2969771
0
LINE
8
DEFAULT_255_2_778
10
3.3644063
20
28.2969771
11
3.3644063
21
28.6210771
0
LINE
8
DEFAULT_255_2_778
10
3.3644063
20
28.6210771
11
5.9057063
21
28.6210771
0
LINE
8
DEFAULT_255_2_778
10
5.9057063
20
28.6210771
11
5.9057063
21
28.2733771
0
LINE
8
DEFAULT_255_2_778
10
5.9057063
20
28.2733771
11
4.6166063
21
27.4259771
0
LINE
8
DEFAULT_255_2_778
10
3.7679063
20
26.9306771
11
3.7718063
21
26.9187771
0
LINE
8
DEFAULT_255_2_778
10
3.7718063
20
26.9187771
11
4.8201063
21
26.9420771
0
LINE
8
DEFAULT_255_2_778
10
4.8201063
20
26.9420771
11
5.9057063
21
26.9420771
0
LINE
8
DEFAULT_255_2_778
10
5.9057063
20
26.9420771
11
5.9057063
21
26.6170771
0
LINE
8
DEFAULT_255_2_778
10
5.9057063
20
26.6170771
11
3.3641063
21
26.6170771
0
LINE
8
DEFAULT_255_2_778
10
3.3641063
20
26.6170771
11
3.3641063
21
26.9980771
0
LINE
8
DEFAULT_255_2_778
10
3.3641063
20
26.9980771
11
4.6505063
21
27.8492771
0
ARC
8
DEFAULT_255_2_778
10
7.5712699
20
24.5479461
40
7.8750668
50
251.2951252
51
254.3695229
0
ARC
8
DEFAULT_255_2_778
10
9.8327912
20
31.2715367
40
14.9687996
50
249.7566711
51
251.3492402
0
ARC
8
DEFAULT_255_2_778
10
12.5940166
20
38.8599019
40
23.043876
50
249.6856825
51
249.8436066
0
LINE
8
DEFAULT_255_2_778
10
5.449474
20
16.9564041
11
5.449474
21
16.9641041
0
LINE
8
DEFAULT_255_2_778
10
4.593874
20
17.2493041
11
3.364074
21
17.7245041
0
LINE
8
DEFAULT_255_2_778
10
3.364074
20
17.7245041
11
3.364074
21
18.1639041
0
LINE
8
DEFAULT_255_2_778
10
3.364074
20
18.1639041
11
5.905674
21
18.3301041
0
LINE
8
DEFAULT_255_2_778
10
5.905674
20
18.3301041
11
5.905674
21
17.9901041
0
LINE
8
DEFAULT_255_2_778
10
5.905674
20
17.9901041
11
4.789674
21
17.9271041
0
LINE
8
DEFAULT_255_2_778
10
4.789674
20
17.9271041
11
3.692374
21
17.8832041
0
LINE
8
DEFAULT_255_2_778
10
3.692374
20
17.8832041
11
3.692374
21
17.8753041
0
LINE
8
DEFAULT_255_2_778
10
3.692374
20
17.8753041
11
4.657574
21
17.5385041
0
LINE
8
DEFAULT_255_2_778
10
4.657574
20
17.5385041
11
5.890874
21
17.0670041
0
LINE
8
DEFAULT_255_2_778
10
5.890874
20
17.0670041
11
5.890874
21
16.8053041
0
LINE
8
DEFAULT_255_2_778
10
5.890874
20
16.8053041
11
4.680374
21
16.3695041
0
LINE
8
DEFAULT_255_2_778
10
4.680374
20
16.3695041
11
3.692674
21
16.0647041
0
LINE
8
DEFAULT_255_2_778
10
3.692674
20
16.0647041
11
3.692674
21
16.0568041
0
LINE
8
DEFAULT_255_2_778
10
3.692674
20
16.0568041
11
4.816374
21
16.0055041
0
LINE
8
DEFAULT_255_2_778
10
4.816374
20
16.0055041
11
5.905974
21
15.9338041
0
LINE
8
DEFAULT_255_2_778
10
5.905974
20
15.9338041
11
5.905974
21
15.6049041
0
LINE
8
DEFAULT_255_2_778
10
5.905974
20
15.6049041
11
3.364374
21
15.7912041
0
LINE
8
DEFAULT_255_2_778
10
3.364374
20
15.7912041
11
3.364374
21
16.2306041
0
LINE
8
DEFAULT_255_2_778
10
3.364374
20
16.2306041
11
4.594074
21
16.6868041
0
LINE
8
DEFAULT_255_2_778
10
4.594074
20
16.6868041
11
5.449774
21
16.9564041
0
LINE
8
DEFAULT_255_2_778
10
5.9057063
20
11.591951
11
3.6435063
21
11.591951
0
LINE
8
DEFAULT_255_2_778
10
3.6435063
20
11.591951
11
3.6435063
21
10.779651
0
LINE
8
DEFAULT_255_2_778
10
3.6435063
20
10.779651
11
3.3641063
21
10.779651
0
LINE
8
DEFAULT_255_2_778
10
3.3641063
20
10.779651
11
3.3641063
21
12.756351
0
LINE
8
DEFAULT_255_2_778
10
3.3641063
20
12.756351
11
3.6435063
21
12.756351
0
LINE
8
DEFAULT_255_2_778
10
3.6435063
20
12.756351
11
3.6435063
21
11.940351
0
LINE
8
DEFAULT_255_2_778
10
3.6435063
20
11.940351
11
5.9057063
21
11.940351
0
LINE
8
DEFAULT_255_2_778
10
5.9057063
20
11.940351
11
5.9057063
21
11.591651
0
LINE
8
DEFAULT_255_2_778
10
3.3641063
20
22.9374958
11
3.3641063
21
23.2856958
0
LINE
8
DEFAULT_255_2_778
10
3.3641063
20
23.2856958
11
5.9057063
21
23.2856958
0
LINE
8
DEFAULT_255_2_778
10
5.9057063
20
23.2856958
11
5.9057063
21
22.9374958
0
LINE
8
DEFAULT_255_2_778
10
5.9057063
20
22.9374958
11
3.3641063
21
22.9374958
0
LINE
8
DEFAULT_255_2_778
10
3.6435063
20
21.8284187
11
5.9057063
21
21.8284187
0
LINE
8
DEFAULT_255_2_778
10
5.9057063
20
21.8284187
11
5.9057063
21
21.4802187
0
LINE
8
DEFAULT_255_2_778
10
5.9057063
20
21.4802187
11
3.6435063
21
21.4802187
0
LINE
8
DEFAULT_255_2_778
10
3.6435063
20
21.4802187
11
3.6435063
21
20.6680187
0
LINE
8
DEFAULT_255_2_778
10
3.6435063
20
20.6680187
11
3.3641063
21
20.6680187
0
LINE
8
DEFAULT_255_2_778
10
3.3641063
20
20.6680187
11
3.3641063
21
22.6444187
0
LINE
8
DEFAULT_255_2_778
10
3.3641063
20
22.6444187
11
3.6435063
21
22.6444187
0
LINE
8
DEFAULT_255_2_778
10
3.6435063
20
22.6444187
11
3.6435063
21
21.8284187
0
LINE
8
DEFAULT_255_2_778
10
3.8792605
20
6.9148802
11
4.7563605
21
6.6032802
0
LINE
8
DEFAULT_255_2_778
10
4.7563605
20
6.6032802
11
4.7563605
21
7.5620802
0
LINE
8
DEFAULT_255_2_778
10
4.7563605
20
7.5620802
11
3.8840605
21
7.2456802
0
LINE
8
DEFAULT_255_2_778
10
3.8840605
20
7.2456802
11
3.3310605
21
7.0847802
0
LINE
8
DEFAULT_255_2_778
10
3.3310605
20
7.0847802
11
3.3310605
21
7.0704802
0
LINE
8
DEFAULT_255_2_778
10
3.3310605
20
7.0704802
11
3.8792605
21
6.9146802
0
LINE
8
DEFAULT_255_2_778
10
3.8792605
20
6.9146802
11
3.8792605
21
6.9148802
0
LINE
8
DEFAULT_255_2_778
10
6.0144605
20
7.9872802
11
6.0144605
21
8.4264802
0
LINE
8
DEFAULT_255_2_778
10
6.0144605
20
8.4264802
11
2.9849605
21
7.3406802
0
LINE
8
DEFAULT_255_2_778
10
2.9849605
20
7.3406802
11
2.9849605
21
6.8442802
0
LINE
8
DEFAULT_255_2_778
10
2.9849605
20
6.8442802
11
6.0144605
21
5.7628802
0
LINE
8
DEFAULT_255_2_778
10
6.0144605
20
5.7628802
11
6.0144605
21
6.1878802
0
LINE
8
DEFAULT_255_2_778
10
6.0144605
20
6.1878802
11
5.0616605
21
6.5185802
0
LINE
8
DEFAULT_255_2_778
10
5.0616605
20
6.5185802
11
5.0616605
21
7.6469802
0
LINE
8
DEFAULT_255_2_778
10
5.0616605
20
7.6469802
11
6.0144605
21
7.9872802
0
ARC
8
DEFAULT_255_2_778
10
4.404565
20
13.9994162
40
0.8140148
50
179.3728577
51
203.2191716
0
ARC
8
DEFAULT_255_2_778
10
4.4301754
20
14.0453357
40
0.8562567
50
205.367843
51
252.2438523
0
ARC
8
DEFAULT_255_2_778
10
4.6399372
20
14.5636822
40
1.4144956
50
250.5548617
51
270.4278204
0
ARC
8
DEFAULT_255_2_778
10
4.6626074
20
14.4017287
40
1.2525613
50
269.4461195
51
296.7706521
0
ARC
8
DEFAULT_255_2_778
10
4.8862399
20
14.0004501
40
0.7937897
50
295.4049606
51
354.4790418
0
ARC
8
DEFAULT_255_2_778
10
4.8191936
20
13.9999577
40
0.8605057
50
354.9411765
51
0.0311796
0
ARC
8
DEFAULT_255_2_778
10
4.8849006
20
14.0132959
40
0.794849
50
359.3534005
51
26.1536419
0
ARC
8
DEFAULT_255_2_778
10
4.8446495
20
13.9651731
40
0.8525706
50
27.8644906
51
69.0743284
0
ARC
8
DEFAULT_255_2_778
10
4.6473094
20
13.518611
40
1.3403909
50
68.0128129
51
87.9651015
0
ARC
8
DEFAULT_255_2_778
10
4.624296
20
13.2705973
40
1.5891288
50
87.4533928
51
90.0071039
0
ARC
8
DEFAULT_255_2_778
10
4.6241258
20
13.4751135
40
1.3846125
50
90.0011103
51
92.6536689
0
ARC
8
DEFAULT_255_2_778
10
4.5909027
20
13.6789731
40
1.1796724
50
91.5001169
51
127.0057742
0
ARC
8
DEFAULT_255_2_778
10
4.3449475
20
14.0282863
40
0.7528074
50
128.0589151
51
170.0761623
0
ARC
8
DEFAULT_255_2_778
10
4.4516519
20
14.0100668
40
0.8610553
50
170.1056001
51
180.1357962
0
ARC
8
DEFAULT_255_2_778
10
4.6178465
20
13.4712767
40
1.7575731
50
77.8632253
51
90.2982047
0
ARC
8
DEFAULT_255_2_778
10
4.7087464
20
13.8836617
40
1.3352961
50
60.1305334
51
77.9561568
0
ARC
8
DEFAULT_255_2_778
10
4.786432
20
14.0428816
40
1.1585985
50
2.6306998
51
59.5405745
0
ARC
8
DEFAULT_255_2_778
10
4.5098135
20
13.9931275
40
1.4376855
50
359.9839984
51
4.1056301
0
ARC
8
DEFAULT_255_2_778
10
4.6805152
20
13.9788062
40
1.2670227
50
339.2380518
51
0.4485852
0
ARC
8
DEFAULT_255_2_778
10
4.8222804
20
13.9363378
40
1.1194587
50
289.5793275
51
338.6984258
0
ARC
8
DEFAULT_255_2_778
10
4.6829535
20
14.2767293
40
1.4869579
50
272.9036511
51
290.2421604
0
ARC
8
DEFAULT_255_2_778
10
4.6582031
20
14.5445023
40
1.7556763
50
269.9835481
51
273.2676639
0
ARC
8
DEFAULT_255_2_778
10
4.6484711
20
14.4293225
40
1.6405225
50
255.1068541
51
270.322289
0
ARC
8
DEFAULT_255_2_778
10
4.5542135
20
14.0862343
40
1.2847372
50
232.3630365
51
255.236703
0
ARC
8
DEFAULT_255_2_778
10
4.4852476
20
13.9798725
40
1.1584413
50
186.7694605
51
231.8517845
0
ARC
8
DEFAULT_255_2_778
10
4.7037698
20
14.0233247
40
1.3806716
50
179.9418461
51
187.4911798
0
ARC
8
DEFAULT_255_2_778
10
4.6341566
20
14.0345374
40
1.3110943
50
161.6152126
51
180.4287698
0
ARC
8
DEFAULT_255_2_778
10
4.4476107
20
14.0861587
40
1.1178321
50
105.8614494
51
161.1103589
0
ARC
8
DEFAULT_255_2_778
10
4.5963564
20
13.6696667
40
1.5593947
50
90.122752
51
106.9362255
0
ARC
8
DEFAULT_255_2_778
10
4.6086601
20
13.4347412
40
1.7943847
50
89.9987585
51
90.4995463
0
LINE
8
DEFAULT_255_2_778
10
5.679699
20
14.000426
11
5.679699
21
14.004326
0
LINE
8
DEFAULT_255_2_778
10
3.590599
20
14.008026
11
3.590599
21
14.008326
0
LINE
8
DEFAULT_255_2_778
10
5.947499
20
13.992726
11
5.947499
21
13.988726
0
LINE
8
DEFAULT_255_2_778
10
4.608699
20
15.229126
11
4.608699
21
15.228826
0
LINE
8
DEFAULT_255_2_778
10
5.1066063
20
20.2395708
11
5.1066063
21
19.2926708
0
LINE
8
DEFAULT_255_2_778
10
5.1066063
20
19.2926708
11
5.9057063
21
19.0156708
0
LINE
8
DEFAULT_255_2_778
10
5.9057063
20
19.0156708
11
5.9057063
21
18.6587708
0
LINE
8
DEFAULT_255_2_778
10
5.9057063
20
18.6587708
11
3.3641063
21
19.5659708
0
LINE
8
DEFAULT_255_2_778
10
3.3641063
20
19.5659708
11
3.3641063
21
19.9818708
0
LINE
8
DEFAULT_255_2_778
10
3.3641063
20
19.9818708
11
5.9057063
21
20.8928708
0
LINE
8
DEFAULT_255_2_778
10
5.9057063
20
20.8928708
11
5.9057063
21
20.5245708
0
LINE
8
DEFAULT_255_2_778
10
5.9057063
20
20.5245708
11
5.1066063
21
20.2395708
0
LINE
8
DEFAULT_255_2_778
10
3.6549063
20
19.7564708
11
4.1147063
21
19.6254708
0
LINE
8
DEFAULT_255_2_778
10
4.1147063
20
19.6254708
11
4.8505063
21
19.3646708
0
LINE
8
DEFAULT_255_2_778
10
4.8505063
20
19.3646708
11
4.8505063
21
20.1681708
0
LINE
8
DEFAULT_255_2_778
10
4.8505063
20
20.1681708
11
4.1190063
21
19.9027708
0
LINE
8
DEFAULT_255_2_778
10
4.1190063
20
19.9027708
11
3.6551063
21
19.7686708
0
LINE
8
DEFAULT_255_2_778
10
3.6551063
20
19.7686708
11
3.6549063
21
19.7564708
0
ARC
8
DEFAULT_255_2_778
10
4.8853337
20
24.9547142
40
0.7944161
50
359.3517304
51
26.3649685
0
ARC
8
DEFAULT_255_2_778
10
4.8428328
20
24.9052452
40
0.8548438
50
28.0709545
51
69.0910128
0
ARC
8
DEFAULT_255_2_778
10
4.6459114
20
24.4577956
40
1.3433256
50
68.055962
51
88.2956647
0
ARC
8
DEFAULT_255_2_778
10
4.6241519
20
24.2132307
40
1.5884954
50
87.7735174
51
90.0055167
0
ARC
8
DEFAULT_255_2_778
10
4.6240252
20
24.4175889
40
1.3841371
50
90.0010858
51
92.6440911
0
ARC
8
DEFAULT_255_2_778
10
4.5908836
20
24.6210679
40
1.1795843
50
91.4918874
51
127.005055
0
ARC
8
DEFAULT_255_2_778
10
4.3450103
20
24.9702482
40
0.7528743
50
128.056588
51
170.0739435
0
ARC
8
DEFAULT_255_2_778
10
4.4515291
20
24.9520681
40
0.8609325
50
170.1041201
51
180.1359008
0
ARC
8
DEFAULT_255_2_778
10
4.4081469
20
24.9413129
40
0.8175944
50
179.3893883
51
202.7553251
0
ARC
8
DEFAULT_255_2_778
10
4.4312577
20
24.9863305
40
0.8569384
50
204.9338132
51
252.6530046
0
ARC
8
DEFAULT_255_2_778
10
4.6402834
20
25.5075409
40
1.4174517
50
250.869492
51
270.412934
0
ARC
8
DEFAULT_255_2_778
10
4.6626543
20
25.3404805
40
1.2504135
50
269.4430189
51
296.9466602
0
ARC
8
DEFAULT_255_2_778
10
4.88608
20
24.9417453
40
0.7939367
50
295.6131147
51
354.5046764
0
ARC
8
DEFAULT_255_2_778
10
4.8191164
20
24.9413626
40
0.8605828
50
354.9569923
51
0.0308549
0
ARC
8
DEFAULT_255_2_778
10
4.6322705
20
24.9755012
40
1.3095087
50
161.5191171
51
180.4320807
0
ARC
8
DEFAULT_255_2_778
10
4.4473788
20
25.0266318
40
1.1179899
50
105.8346977
51
161.0007388
0
ARC
8
DEFAULT_255_2_778
10
4.5960914
20
24.6098774
40
1.559784
50
90.1232949
51
106.9129737
0
ARC
8
DEFAULT_255_2_778
10
4.608383
20
24.3692323
40
1.8004936
50
89.9994897
51
90.4979634
0
ARC
8
DEFAULT_255_2_778
10
4.6175573
20
24.4108875
40
1.7588624
50
77.8726145
51
90.2983361
0
ARC
8
DEFAULT_255_2_778
10
4.7086202
20
24.8242895
40
1.335557
50
60.145559
51
77.9661693
0
ARC
8
DEFAULT_255_2_778
10
4.787071
20
24.9845915
40
1.1575353
50
2.7925862
51
59.5635388
0
ARC
8
DEFAULT_255_2_778
10
4.5097508
20
24.9342618
40
1.4374482
50
359.9826285
51
4.2579235
0
ARC
8
DEFAULT_255_2_778
10
4.6788851
20
24.9202147
40
1.2683526
50
339.2490708
51
0.4477322
0
ARC
8
DEFAULT_255_2_778
10
4.8213465
20
24.8773784
40
1.1200042
50
289.6038243
51
338.7161389
0
ARC
8
DEFAULT_255_2_778
10
4.6826182
20
25.2161931
40
1.4858223
50
272.9072353
51
290.2597613
0
ARC
8
DEFAULT_255_2_778
10
4.6579102
20
25.4831368
40
1.7537107
50
269.9832996
51
273.2710999
0
ARC
8
DEFAULT_255_2_778
10
4.648018
20
25.3664543
40
1.6370552
50
254.9335857
51
270.3283312
0
ARC
8
DEFAULT_255_2_778
10
4.5527785
20
25.0237036
40
1.2813333
50
231.9215955
51
255.0619862
0
ARC
8
DEFAULT_255_2_778
10
4.4859135
20
24.9211666
40
1.1594297
50
186.8182704
51
231.3975372
0
ARC
8
DEFAULT_255_2_778
10
4.702466
20
24.9642233
40
1.3796678
50
179.9417478
51
187.5260619
0
LINE
8
DEFAULT_255_2_778
10
5.679699
20
24.941826
11
5.679699
21
24.945726
0
LINE
8
DEFAULT_255_2_778
10
5.947199
20
24.933826
11
5.947199
21
24.930126
0
LINE
8
DEFAULT_255_2_778
10
3.322799
20
24.965626
11
3.322799
21
24.965626
0
ARC
8
DEFAULT_255_2_778
10
4.4461937
20
29.7782071
40
1.3359537
50
351.0712217
51
358.9353149
0
ARC
8
DEFAULT_255_2_778
10
-1.3010335
20
29.9401099
40
7.0854112
50
358.489873
51
0.3327464
0
ARC
8
DEFAULT_255_2_778
10
3.39655
20
29.9936588
40
2.3877406
50
359.7024393
51
0.0005968
0
ARC
8
DEFAULT_255_2_778
10
3.8125844
20
30.0052586
40
1.9717402
50
359.6636459
51
10.6075655
0
ARC
8
DEFAULT_255_2_778
10
4.4283209
20
30.1246963
40
1.3445458
50
10.4349346
51
27.2310844
0
ARC
8
DEFAULT_255_2_778
10
4.7010015
20
30.2574956
40
1.0413419
50
27.5993076
51
76.3813451
0
ARC
8
DEFAULT_255_2_778
10
4.536244
20
29.7086509
40
1.6138448
50
75.2844216
51
88.7573095
0
ARC
8
DEFAULT_255_2_778
10
4.5129447
20
29.3042895
40
2.0186687
50
88.3450629
51
90.0081258
0
ARC
8
DEFAULT_255_2_778
10
4.5020458
20
29.5180918
40
1.8048977
50
89.6631069
51
89.99968
0
ARC
8
DEFAULT_255_2_778
10
4.4886282
20
29.8812416
40
1.4418104
50
89.4663918
51
104.7211926
0
ARC
8
DEFAULT_255_2_778
10
4.3517003
20
30.3594902
40
0.9445281
50
104.0598204
51
156.3799044
0
ARC
8
DEFAULT_255_2_778
10
4.742012
20
30.176916
40
1.3753355
50
155.9261344
51
170.4800533
0
ARC
8
DEFAULT_255_2_778
10
5.4101455
20
30.0595246
40
2.0536898
50
170.3329873
51
180.176586
0
ARC
8
DEFAULT_255_2_778
10
5.8842391
20
30.0471619
40
2.5277807
50
179.8632471
51
180.0000816
0
ARC
8
DEFAULT_255_2_778
10
6.5396795
20
30.0412384
40
3.1832266
50
179.8934459
51
184.0484039
0
ARC
8
DEFAULT_255_2_778
10
5.5311057
20
29.9678377
40
2.1719884
50
183.9953017
51
188.7894468
0
ARC
8
DEFAULT_255_2_778
10
4.8343307
20
29.8636976
40
1.4674873
50
188.9281575
51
191.5107331
0
ARC
8
DEFAULT_255_2_778
10
9.2690489
20
30.0370905
40
6.2192967
50
180.0804465
51
188.110475
0
ARC
8
DEFAULT_255_2_778
10
6.4177458
20
30.0407045
40
3.36801
50
173.6797463
51
180.2100309
0
ARC
8
DEFAULT_255_2_778
10
5.2949584
20
30.1686855
40
2.2379609
50
164.3984515
51
173.771921
0
ARC
8
DEFAULT_255_2_778
10
4.5726328
20
30.3744746
40
1.4869083
50
149.815629
51
164.5502898
0
ARC
8
DEFAULT_255_2_778
10
4.2944922
20
30.5284392
40
1.169089
50
138.5028018
51
149.4845338
0
ARC
8
DEFAULT_255_2_778
10
4.353194
20
30.5075186
40
1.2271375
50
106.5127619
51
139.5872808
0
ARC
8
DEFAULT_255_2_778
10
4.4640597
20
30.1427963
40
1.6083309
50
92.9453563
51
106.6064015
0
ARC
8
DEFAULT_255_2_778
10
4.4980587
20
29.7237634
40
2.0285952
50
89.9689417
51
93.2962276
0
ARC
8
DEFAULT_255_2_778
10
4.5096844
20
29.8488716
40
1.9035158
50
76.0627793
51
90.3168336
0
ARC
8
DEFAULT_255_2_778
10
4.6156677
20
30.2604567
40
1.4785255
50
52.8471201
51
76.2073017
0
ARC
8
DEFAULT_255_2_778
10
4.6797804
20
30.3582502
40
1.3618842
50
43.6829121
51
52.5121368
0
ARC
8
DEFAULT_255_2_778
10
4.6742114
20
30.3895838
40
1.3445317
50
23.6697791
51
42.5533176
0
ARC
8
DEFAULT_255_2_778
10
4.0905282
20
30.1255957
40
1.985108
50
11.692635
51
23.8848584
0
ARC
8
DEFAULT_255_2_778
10
3.2703548
20
29.9501347
40
2.8238267
50
2.8243054
51
11.8063092
0
ARC
8
DEFAULT_255_2_778
10
2.5829148
20
29.9036624
40
3.5127439
50
359.9705738
51
3.0288981
0
LINE
8
DEFAULT_255_2_778
10
3.3966584
20
29.5708583
11
5.7659584
21
29.5708583
0
LINE
8
DEFAULT_255_2_778
10
3.3963584
20
29.5708583
11
3.3966584
21
29.5708583
0
LINE
8
DEFAULT_255_2_778
10
6.0601584
20
29.1596583
11
3.1119584
21
29.1596583
0
LINE
8
DEFAULT_255_2_778
10
6.0956584
20
29.9018583
11
6.0601584
21
29.1594583
0
LINE
8
DEFAULT_255_2_778
10
6.0601584
20
29.1594583
11
6.0601584
21
29.1596583
0
ARC
8
DEFAULT_255_2_778
10
6.0176287
20
33.6006469
40
2.6621812
50
186.3185509
51
190.7243686
0
ARC
8
DEFAULT_255_2_778
10
7.4849544
20
33.7715465
40
4.1394104
50
182.0799821
51
186.4344495
0
ARC
8
DEFAULT_255_2_778
10
7.2892263
20
33.7679174
40
3.9436809
50
180.0284932
51
182.1305004
0
ARC
8
DEFAULT_255_2_778
10
5.5753969
20
33.7787404
40
2.2298877
50
173.2441708
51
180.328485
0
ARC
8
DEFAULT_255_2_778
10
4.5893218
20
33.9003734
40
1.2363598
50
161.2651768
51
173.4660624
0
ARC
8
DEFAULT_255_2_778
10
4.1344675
20
34.0560822
40
0.7555953
50
139.8824277
51
161.3686559
0
ARC
8
DEFAULT_255_2_778
10
4.0102247
20
34.1491865
40
0.6006566
50
97.2392471
51
139.0374612
0
ARC
8
DEFAULT_255_2_778
10
4.0388586
20
34.0233821
40
0.7291745
50
89.9459949
51
98.2256372
0
ARC
8
DEFAULT_255_2_778
10
4.0463717
20
34.1193003
40
0.6332927
50
58.6975554
51
90.6175665
0
ARC
8
DEFAULT_255_2_778
10
3.9706098
20
34.0353079
40
0.7447202
50
16.7196931
51
57.0743668
0
ARC
8
DEFAULT_255_2_778
10
5.2030033
20
34.0685119
40
0.53888
50
113.7560192
51
160.3688237
0
ARC
8
DEFAULT_255_2_778
10
5.4691113
20
33.5641227
40
1.1084668
50
103.6116051
51
115.8432162
0
ARC
8
DEFAULT_255_2_778
10
5.670502
20
34.9138726
40
0.4870714
50
288.469987
51
298.8262446
0
ARC
8
DEFAULT_255_2_778
10
5.1293919
20
36.4360752
40
2.102521
50
285.4345483
51
289.3145687
0
ARC
8
DEFAULT_255_2_778
10
4.1865481
20
39.781498
40
5.5782482
50
283.7648376
51
285.624548
0
ARC
8
DEFAULT_255_2_778
10
2.7670909
20
45.5343139
40
11.5035923
50
282.7134479
51
283.8140512
0
ARC
8
DEFAULT_255_2_778
10
5.5295109
20
33.230421
40
1.1066626
50
102.035834
51
113.1991461
0
ARC
8
DEFAULT_255_2_778
10
5.2718488
20
33.8098473
40
0.4726653
50
112.1595762
51
142.1457
0
ARC
8
DEFAULT_255_2_778
10
5.2963622
20
33.8202974
40
0.4861659
50
144.8919932
51
173.8697036
0
ARC
8
DEFAULT_255_2_778
10
5.744254
20
33.7445207
40
0.9399914
50
172.1924453
51
178.1628201
0
ARC
8
DEFAULT_255_2_778
10
3.7214526
20
33.8128962
40
0.8346586
50
359.2833189
51
18.0331161
0
ARC
8
DEFAULT_255_2_778
10
4.0380301
20
33.922773
40
0.4996598
50
17.2903185
51
53.3792687
0
ARC
8
DEFAULT_255_2_778
10
4.0811524
20
33.9582896
40
0.4456333
50
55.1054512
51
90.9908915
0
ARC
8
DEFAULT_255_2_778
10
4.0623969
20
33.9326661
40
0.4713196
50
88.6567128
51
116.7423868
0
ARC
8
DEFAULT_255_2_778
10
4.0675432
20
33.9702382
40
0.440607
50
119.5396521
51
165.3128478
0
ARC
8
DEFAULT_255_2_778
10
4.559571
20
33.8106605
40
0.9574752
50
163.5404345
51
180.0094174
0
ARC
8
DEFAULT_255_2_778
10
4.9604193
20
33.7903293
40
1.3584734
50
179.1491058
51
180.0030816
0
ARC
8
DEFAULT_255_2_778
10
5.8818761
20
33.7845891
40
2.2799373
50
179.8575819
51
184.2337048
0
ARC
8
DEFAULT_255_2_778
10
4.915744
20
33.7099924
40
1.3109379
50
184.0995907
51
189.554865
0
ARC
8
DEFAULT_255_2_778
10
4.2608886
20
33.602382
40
0.6473101
50
189.7835184
51
193.3156701
0
ARC
8
DEFAULT_255_2_778
10
4.0667647
20
33.557929
40
0.4481693
50
193.5012838
51
193.9671696
0
LINE
8
DEFAULT_255_2_778
10
5.9056459
20
33.1052562
11
3.4019459
21
33.1052562
0
LINE
8
DEFAULT_255_2_778
10
4.6838459
20
34.2495562
11
4.6954459
21
34.2495562
0
LINE
8
DEFAULT_255_2_778
10
5.2082459
20
34.6414562
11
5.9053459
21
34.8435562
0
LINE
8
DEFAULT_255_2_778
10
5.9053459
20
34.8435562
11
5.9053459
21
34.4871562
0
LINE
8
DEFAULT_255_2_778
10
4.8047459
20
33.7746562
11
4.8047459
21
33.4497562
0
LINE
8
DEFAULT_255_2_778
10
4.8047459
20
33.4497562
11
5.9053459
21
33.4497562
0
LINE
8
DEFAULT_255_2_778
10
5.9053459
20
33.4497562
11
5.9056459
21
33.1052562
0
LINE
8
DEFAULT_255_2_778
10
3.6318459
20
33.4497562
11
4.5560459
21
33.4497562
0
LINE
8
DEFAULT_255_2_778
10
4.5560459
20
33.4497562
11
4.5560459
21
33.8024562
0
LINE
8
DEFAULT_255_2_778
10
3.6318459
20
33.4497562
11
3.6318459
21
33.4497562
0
ARC
8
DEFAULT_255_2_778
10
5.8496292
20
42.0030059
40
0.0800556
50
355.1575792
51
88.9479991
0
ARC
8
DEFAULT_255_2_778
10
5.8491125
20
42.0024947
40
0.0805562
50
89.5117269
51
184.4475009
0
ARC
8
DEFAULT_255_2_778
10
5.8492101
20
41.9896249
40
0.0806834
50
175.2914763
51
269.2819627
0
ARC
8
DEFAULT_255_2_778
10
5.8472064
20
41.9910023
40
0.0820604
50
270.6930093
51
3.665055
0
LINE
8
DEFAULT_255_2_778
10
5.851099
20
42.0830479
11
5.849799
21
42.0830479
0
ARC
8
DEFAULT_255_2_778
10
3.5554794
20
41.6446929
40
0.2647718
50
307.0087046
51
331.722913
0
ARC
8
DEFAULT_255_2_778
10
3.5801231
20
41.6003246
40
0.214623
50
270.0220965
51
308.8851856
0
ARC
8
DEFAULT_255_2_778
10
3.5802124
20
41.5999177
40
0.214216
50
267.7909253
51
269.9982518
0
ARC
8
DEFAULT_255_2_778
10
3.5721215
20
41.5876727
40
0.2018118
50
250.3449153
51
269.9528053
0
ARC
8
DEFAULT_255_2_778
10
3.5711149
20
41.5825668
40
0.1966665
50
210.4788877
51
250.1207353
0
ARC
8
DEFAULT_255_2_778
10
3.6655867
20
41.6369179
40
0.3056537
50
187.8903392
51
210.2769271
0
ARC
8
DEFAULT_255_2_778
10
3.8721115
20
41.6732204
40
0.5152629
50
179.7063766
51
188.7363094
0
ARC
8
DEFAULT_255_2_778
10
3.7702003
20
41.6784532
40
0.2976955
50
177.6497958
51
204.5348345
0
ARC
8
DEFAULT_255_2_778
10
3.6089504
20
41.6068309
40
0.1212775
50
205.3866338
51
272.4124339
0
ARC
8
DEFAULT_255_2_778
10
3.6059818
20
41.6426191
40
0.1571657
50
272.9444969
51
342.1182898
0
ARC
8
DEFAULT_255_2_778
10
3.5234468
20
41.6621561
40
0.2418068
50
343.7177583
51
358.365977
0
ARC
8
DEFAULT_255_2_778
10
4.0944796
20
41.6551846
40
0.2144234
50
176.5037209
51
217.1648711
0
ARC
8
DEFAULT_255_2_778
10
4.0125077
20
41.6042842
40
0.118689
50
221.493137
51
271.9059704
0
ARC
8
DEFAULT_255_2_778
10
4.0051751
20
41.6489318
40
0.1636601
50
273.9522034
51
344.9954584
0
ARC
8
DEFAULT_255_2_778
10
4.0069963
20
41.6614259
40
0.1656111
50
340.6530057
51
0.0790293
0
ARC
8
DEFAULT_255_2_778
10
4.002334
20
41.6616531
40
0.1702733
50
0.0004157
51
1.4160348
0
ARC
8
DEFAULT_255_2_778
10
3.9786698
20
41.6134246
40
0.2276268
50
280.8167333
51
332.5972007
0
ARC
8
DEFAULT_255_2_778
10
3.975823
20
41.6485038
40
0.2626443
50
269.8106878
51
279.9905507
0
ARC
8
DEFAULT_255_2_778
10
3.9756159
20
41.578992
40
0.1931322
50
197.9220146
51
269.8039925
0
LINE
8
DEFAULT_255_2_778
10
3.3568552
20
41.6758609
11
3.3568552
21
42.0682609
0
LINE
8
DEFAULT_255_2_778
10
3.3568552
20
42.0682609
11
3.4727552
21
42.0682609
0
LINE
8
DEFAULT_255_2_778
10
3.4727552
20
42.0682609
11
3.4727552
21
41.6906609
0
LINE
8
DEFAULT_255_2_778
10
3.7651552
20
41.6552609
11
3.7651552
21
42.0682609
0
LINE
8
DEFAULT_255_2_778
10
3.7651552
20
42.0682609
11
3.8804552
21
42.0682609
0
LINE
8
DEFAULT_255_2_778
10
3.8804552
20
42.0682609
11
3.8804552
21
41.6682609
0
LINE
8
DEFAULT_255_2_778
10
4.1725552
20
41.6658609
11
4.1725552
21
42.0682609
0
LINE
8
DEFAULT_255_2_778
10
4.1725552
20
42.0682609
11
4.2887552
21
42.0682609
0
LINE
8
DEFAULT_255_2_778
10
4.2887552
20
42.0682609
11
4.2887552
21
41.5822609
0
LINE
8
DEFAULT_255_2_778
10
4.2887552
20
41.5822609
11
4.2937552
21
41.4020609
0
LINE
8
DEFAULT_255_2_778
10
4.2937552
20
41.4020609
11
4.1905552
21
41.4020609
0
LINE
8
DEFAULT_255_2_778
10
4.1905552
20
41.4020609
11
4.1847552
21
41.5086609
0
LINE
8
DEFAULT_255_2_778
10
4.1847552
20
41.5086609
11
4.1807552
21
41.5086609
0
LINE
8
DEFAULT_255_2_778
10
3.7918552
20
41.5195609
11
3.7889552
21
41.5195609
0
ARC
8
DEFAULT_255_2_778
10
5.3446897
20
41.6005874
40
0.4824013
50
89.9563441
51
104.8365483
0
ARC
8
DEFAULT_255_2_778
10
5.3266629
20
41.6706792
40
0.4100306
50
104.9095
51
109.7197313
0
ARC
8
DEFAULT_255_2_778
10
5.2832493
20
41.7886336
40
0.2843469
50
109.5046403
51
116.1441426
0
ARC
8
DEFAULT_255_2_778
10
5.3210148
20
41.653406
40
0.3324988
50
90.0241815
51
115.3498684
0
ARC
8
DEFAULT_255_2_778
10
5.3208941
20
41.6572525
40
0.3286524
50
89.4311009
51
90.0034171
0
ARC
8
DEFAULT_255_2_778
10
5.3267886
20
41.7637168
40
0.2221874
50
1.0932299
51
90.6785647
0
ARC
8
DEFAULT_255_2_778
10
5.2055869
20
41.7366779
40
0.3447705
50
359.9519049
51
5.2050991
0
ARC
8
DEFAULT_255_2_778
10
5.3215845
20
41.7129788
40
0.2299674
50
272.1659964
51
5.8425911
0
ARC
8
DEFAULT_255_2_778
10
5.3198909
20
41.7711458
40
0.2881573
50
269.9933258
51
272.0653941
0
ARC
8
DEFAULT_255_2_778
10
5.3155146
20
41.7871582
40
0.3042007
50
249.9458725
51
270.8179656
0
ARC
8
DEFAULT_255_2_778
10
5.2926395
20
41.7167344
40
0.2302182
50
242.6709281
51
249.2836837
0
ARC
8
DEFAULT_255_2_778
10
5.2839504
20
41.699383
40
0.2108145
50
241.3449084
51
242.6038411
0
ARC
8
DEFAULT_255_2_778
10
5.2305936
20
41.5568569
40
0.1538416
50
240.9350739
51
242.4660477
0
ARC
8
DEFAULT_255_2_778
10
5.3032694
20
41.719818
40
0.33212
50
244.3448078
51
262.4252831
0
ARC
8
DEFAULT_255_2_778
10
5.3202295
20
41.7975424
40
0.4114541
50
261.5108371
51
269.9481706
0
ARC
8
DEFAULT_255_2_778
10
5.3298791
20
41.7340052
40
0.348061
50
268.3500416
51
312.0435844
0
ARC
8
DEFAULT_255_2_778
10
5.3132013
20
41.7305003
40
0.3569313
50
314.409206
51
1.7962694
0
ARC
8
DEFAULT_255_2_778
10
5.3064425
20
41.7529462
40
0.3636891
50
358.226184
51
36.0987804
0
ARC
8
DEFAULT_255_2_778
10
5.3583776
20
41.7735762
40
0.3098839
50
38.6752228
51
91.9503551
0
ARC
8
DEFAULT_255_2_778
10
5.3452255
20
41.6481113
40
0.4351772
50
89.6569363
51
89.9958161
0
LINE
8
DEFAULT_255_2_778
10
5.1579573
20
42.0438885
11
5.1786573
21
41.9538885
0
LINE
8
DEFAULT_255_2_778
10
5.1828573
20
41.5143885
11
5.1558573
21
41.4223885
0
ARC
8
DEFAULT_255_2_778
10
4.7610575
20
41.7450602
40
0.3379607
50
90.0032178
51
95.6598943
0
ARC
8
DEFAULT_255_2_778
10
4.7533039
20
41.7740055
40
0.30843
50
94.7568271
51
152.9172951
0
ARC
8
DEFAULT_255_2_778
10
4.8376757
20
41.7389655
40
0.3995684
50
153.9518705
51
179.625364
0
ARC
8
DEFAULT_255_2_778
10
4.9753156
20
41.7277788
40
0.537377
50
178.5285427
51
180.0061824
0
ARC
8
DEFAULT_255_2_778
10
4.806325
20
41.7171045
40
0.3685394
50
178.349276
51
216.4073376
0
ARC
8
DEFAULT_255_2_778
10
4.7428438
20
41.6826823
40
0.2971856
50
218.3306118
51
271.6572593
0
ARC
8
DEFAULT_255_2_778
10
4.75784
20
41.6970903
40
0.3115353
50
268.8226046
51
351.582991
0
ARC
8
DEFAULT_255_2_778
10
4.6103834
20
41.7384368
40
0.4638581
50
349.1962696
51
0.2080089
0
ARC
8
DEFAULT_255_2_778
10
4.7002281
20
41.7493228
40
0.3741236
50
358.5906086
51
32.9834192
0
ARC
8
DEFAULT_255_2_778
10
4.7679897
20
41.7853166
40
0.2977638
50
34.2720654
51
91.1451927
0
ARC
8
DEFAULT_255_2_778
10
4.7488565
20
41.7962554
40
0.1960512
50
10.6371978
51
86.9059121
0
ARC
8
DEFAULT_255_2_778
10
4.6022135
20
41.7379759
40
0.3522299
50
359.6982358
51
15.557253
0
ARC
8
DEFAULT_255_2_778
10
4.5563111
20
41.7361102
40
0.3981274
50
357.9980671
51
0.0015224
0
ARC
8
DEFAULT_255_2_778
10
4.7047343
20
41.7085493
40
0.2498346
50
299.6953433
51
3.1326755
0
ARC
8
DEFAULT_255_2_778
10
4.7574303
20
41.6595096
40
0.1823996
50
269.374337
51
292.9317275
0
ARC
8
DEFAULT_255_2_778
10
4.7668999
20
41.6775922
40
0.2007987
50
183.7682905
51
266.7278438
0
ARC
8
DEFAULT_255_2_778
10
4.9194299
20
41.7316116
40
0.3592388
50
189.2927009
51
190.7840289
0
ARC
8
DEFAULT_255_2_778
10
4.923144
20
41.7322392
40
0.3630054
50
180.0502535
51
189.2957937
0
ARC
8
DEFAULT_255_2_778
10
4.8667378
20
41.7410478
40
0.3067351
50
144.8538449
51
181.7050989
0
ARC
8
DEFAULT_255_2_778
10
4.7598995
20
41.8155339
40
0.1764968
50
90.6041241
51
144.660128
0
LINE
8
DEFAULT_255_2_778
10
4.7620386
20
42.0830208
11
4.7610386
21
42.0830208
0
LINE
8
DEFAULT_255_2_778
10
4.7620386
20
42.0830208
11
4.7620386
21
42.0830208
0
LINE
8
DEFAULT_255_2_778
10
4.7580386
20
41.9920208
11
4.7594386
21
41.9920208
0
LINE
8
DEFAULT_255_2_778
10
23.0319333
20
70.3181896
11
23.0319333
21
68.6475896
0
LINE
8
DEFAULT_255_2_778
10
23.0319333
20
68.6475896
11
22.8295333
21
68.6475896
0
LINE
8
DEFAULT_255_2_778
10
22.8295333
20
68.6475896
11
22.8295333
21
70.0554896
0
LINE
8
DEFAULT_255_2_778
10
22.8295333
20
70.0554896
11
22.4816333
21
69.8990896
0
LINE
8
DEFAULT_255_2_778
10
22.4816333
20
69.8990896
11
22.4816333
21
70.0908896
0
LINE
8
DEFAULT_255_2_778
10
22.4816333
20
70.0908896
11
23.0002333
21
70.3181896
0
LINE
8
DEFAULT_255_2_778
10
23.0002333
20
70.3181896
11
23.0319333
21
70.3181896
0
LINE
8
DEFAULT_255_2_778
10
23.0319333
20
70.3181896
11
23.0319333
21
70.3181896
0
ARC
8
DEFAULT_255_2_778
10
22.5801043
20
69.3449443
40
1.8869589
50
352.7573786
51
0.3592305
0
ARC
8
DEFAULT_255_2_778
10
23.4870725
20
69.2242532
40
0.9720263
50
340.1224967
51
353.0748297
0
ARC
8
DEFAULT_255_2_778
10
23.8692116
20
69.0917962
40
0.5676429
50
329.8833996
51
339.5808817
0
ARC
8
DEFAULT_255_2_778
10
24.0462594
20
68.9855118
40
0.3611793
50
266.5820276
51
330.3753256
0
ARC
8
DEFAULT_255_2_778
10
24.0049149
20
68.9884664
40
0.3640309
50
211.2577189
51
273.1196645
0
ARC
8
DEFAULT_255_2_778
10
24.2619606
20
69.1391522
40
0.6619692
50
192.318143
51
210.8625619
0
ARC
8
DEFAULT_255_2_778
10
24.934226
20
69.2981503
40
1.3527308
50
182.740458
51
192.8228863
0
ARC
8
DEFAULT_255_2_778
10
25.6538538
20
69.3498564
40
2.0740794
50
180.6928844
51
183.2167231
0
ARC
8
DEFAULT_255_2_778
10
25.4174199
20
69.6220529
40
1.8375316
50
172.6397004
51
180.3672488
0
ARC
8
DEFAULT_255_2_778
10
24.5315918
20
69.7418591
40
0.9436695
50
159.7700399
51
172.9637373
0
ARC
8
DEFAULT_255_2_778
10
24.1616728
20
69.8724909
40
0.5514248
50
149.341312
51
159.2151365
0
ARC
8
DEFAULT_255_2_778
10
24.0006425
20
69.9710868
40
0.362637
50
86.5720001
51
149.7680925
0
ARC
8
DEFAULT_255_2_778
10
24.0450729
20
69.9693327
40
0.3644528
50
32.0949042
51
93.578366
0
ARC
8
DEFAULT_255_2_778
10
23.7994028
20
69.8292457
40
0.6471169
50
12.4718459
51
31.0453962
0
ARC
8
DEFAULT_255_2_778
10
23.1314277
20
69.6691491
40
1.3339582
50
2.9505412
51
12.9899737
0
ARC
8
DEFAULT_255_2_778
10
22.4147294
20
69.6150547
40
2.0525624
50
0.9217757
51
3.4287582
0
ARC
8
DEFAULT_255_2_778
10
22.5969241
20
69.6575965
40
1.6688445
50
359.5906997
51
6.6194358
0
ARC
8
DEFAULT_255_2_778
10
23.5563259
20
69.7750503
40
0.7023253
50
6.1236937
51
19.4722658
0
ARC
8
DEFAULT_255_2_778
10
23.8604823
20
69.8745971
40
0.3824562
50
20.6015613
51
24.7432221
0
ARC
8
DEFAULT_255_2_778
10
24.026958
20
69.9665624
40
0.1932681
50
20.635743
51
91.3733137
0
ARC
8
DEFAULT_255_2_778
10
24.0189128
20
69.9684185
40
0.1913869
50
88.9781216
51
159.009767
0
ARC
8
DEFAULT_255_2_778
10
24.373784
20
69.8011239
40
0.5833608
50
156.1529144
51
171.9292848
0
ARC
8
DEFAULT_255_2_778
10
25.1943316
20
69.6701015
40
1.4142508
50
171.3408683
51
179.5206141
0
ARC
8
DEFAULT_255_2_778
10
25.9007667
20
69.6460594
40
2.1209399
50
179.0308207
51
179.4457763
0
ARC
8
DEFAULT_255_2_778
10
25.3822219
20
69.3118984
40
1.6023414
50
179.5681663
51
187.14023
0
ARC
8
DEFAULT_255_2_778
10
24.4861863
20
69.1939654
40
0.6986184
50
186.6774445
51
200.6060319
0
ARC
8
DEFAULT_255_2_778
10
24.2132482
20
69.1000146
40
0.4101576
50
201.7401054
51
204.5691053
0
ARC
8
DEFAULT_255_2_778
10
24.0251233
20
68.9932658
40
0.195592
50
199.0347821
51
269.7957613
0
ARC
8
DEFAULT_255_2_778
10
24.0268159
20
68.9876434
40
0.1899835
50
269.2792317
51
339.8104495
0
ARC
8
DEFAULT_255_2_778
10
23.6672494
20
69.1571641
40
0.5870078
50
336.3913577
51
351.7927673
0
ARC
8
DEFAULT_255_2_778
10
22.8359454
20
69.2920155
40
1.429125
50
351.1994669
51
359.1106968
0
ARC
8
DEFAULT_255_2_778
10
22.0767731
20
69.3216595
40
2.1887387
50
358.6432251
51
359.4925554
0
LINE
8
DEFAULT_255_2_778
10
24.4670261
20
69.648075
11
24.4670261
21
69.356775
0
LINE
8
DEFAULT_255_2_778
10
23.5799261
20
69.324775
11
23.5799261
21
69.610275
0
LINE
8
DEFAULT_255_2_778
10
24.4670261
20
69.648075
11
24.4670261
21
69.648075
0
LINE
8
DEFAULT_255_2_778
10
24.2657261
20
69.301975
11
24.2657261
21
69.645675
0
LINE
8
DEFAULT_255_2_778
10
23.7799261
20
69.666575
11
23.7799261
21
69.323975
0
LINE
8
DEFAULT_255_2_778
10
24.2654261
20
69.302275
11
24.2657261
21
69.301975
0
ARC
8
DEFAULT_255_2_778
10
23.7297043
20
69.3449443
40
1.8869589
50
352.7573786
51
0.3592305
0
ARC
8
DEFAULT_255_2_778
10
24.6366725
20
69.2242532
40
0.9720263
50
340.1224967
51
353.0748297
0
ARC
8
DEFAULT_255_2_778
10
25.0188116
20
69.0917962
40
0.5676429
50
329.8833996
51
339.5808817
0
ARC
8
DEFAULT_255_2_778
10
25.1958594
20
68.9855118
40
0.3611793
50
266.5820276
51
330.3753256
0
ARC
8
DEFAULT_255_2_778
10
25.1545149
20
68.9884664
40
0.3640309
50
211.2577189
51
273.1196645
0
ARC
8
DEFAULT_255_2_778
10
25.4115606
20
69.1391522
40
0.6619692
50
192.318143
51
210.8625619
0
ARC
8
DEFAULT_255_2_778
10
26.083826
20
69.2981503
40
1.3527308
50
182.740458
51
192.8228863
0
ARC
8
DEFAULT_255_2_778
10
26.8034538
20
69.3498564
40
2.0740794
50
180.6928844
51
183.2167231
0
ARC
8
DEFAULT_255_2_778
10
26.5670199
20
69.6220529
40
1.8375316
50
172.6397004
51
180.3672488
0
ARC
8
DEFAULT_255_2_778
10
25.6811918
20
69.7418591
40
0.9436695
50
159.7700399
51
172.9637373
0
ARC
8
DEFAULT_255_2_778
10
25.3112728
20
69.8724909
40
0.5514248
50
149.341312
51
159.2151365
0
ARC
8
DEFAULT_255_2_778
10
25.1502425
20
69.9710868
40
0.362637
50
86.5720001
51
149.7680925
0
ARC
8
DEFAULT_255_2_778
10
25.1946729
20
69.9693327
40
0.3644528
50
32.0949042
51
93.578366
0
ARC
8
DEFAULT_255_2_778
10
24.949773
20
69.8293917
40
0.6463819
50
12.4730013
51
31.0695148
0
ARC
8
DEFAULT_255_2_778
10
24.2829967
20
69.6695698
40
1.3319935
50
2.9367795
51
12.9909009
0
ARC
8
DEFAULT_255_2_778
10
23.5672717
20
69.6157
40
2.0496101
50
0.9050633
51
3.4156327
0
ARC
8
DEFAULT_255_2_778
10
23.7465241
20
69.6575965
40
1.6688445
50
359.5906997
51
6.6194358
0
ARC
8
DEFAULT_255_2_778
10
24.7059259
20
69.7750503
40
0.7023253
50
6.1236937
51
19.4722658
0
ARC
8
DEFAULT_255_2_778
10
25.0100823
20
69.8745971
40
0.3824562
50
20.6015613
51
24.7432221
0
ARC
8
DEFAULT_255_2_778
10
25.176558
20
69.9665624
40
0.1932681
50
20.635743
51
91.3733137
0
ARC
8
DEFAULT_255_2_778
10
25.1685128
20
69.9684185
40
0.1913869
50
88.9781216
51
159.009767
0
ARC
8
DEFAULT_255_2_778
10
25.523384
20
69.8011239
40
0.5833608
50
156.1529144
51
171.9292848
0
ARC
8
DEFAULT_255_2_778
10
26.3439316
20
69.6701015
40
1.4142508
50
171.3408683
51
179.5206141
0
ARC
8
DEFAULT_255_2_778
10
27.0503667
20
69.6460594
40
2.1209399
50
179.0308207
51
179.4457763
0
ARC
8
DEFAULT_255_2_778
10
26.5318219
20
69.3118984
40
1.6023414
50
179.5681663
51
187.14023
0
ARC
8
DEFAULT_255_2_778
10
25.6357863
20
69.1939654
40
0.6986184
50
186.6774445
51
200.6060319
0
ARC
8
DEFAULT_255_2_778
10
25.3628482
20
69.1000146
40
0.4101576
50
201.7401054
51
204.5691053
0
ARC
8
DEFAULT_255_2_778
10
25.1747233
20
68.9932658
40
0.195592
50
199.0347821
51
269.7957613
0
ARC
8
DEFAULT_255_2_778
10
25.1764159
20
68.9876434
40
0.1899835
50
269.2792317
51
339.8104495
0
ARC
8
DEFAULT_255_2_778
10
24.8168494
20
69.1571641
40
0.5870078
50
336.3913577
51
351.7927673
0
ARC
8
DEFAULT_255_2_778
10
23.9855454
20
69.2920155
40
1.429125
50
351.1994669
51
359.1106968
0
ARC
8
DEFAULT_255_2_778
10
23.2263731
20
69.3216595
40
2.1887387
50
358.6432251
51
359.4925554
0
LINE
8
DEFAULT_255_2_778
10
25.6166261
20
69.648075
11
25.6166261
21
69.356775
0
LINE
8
DEFAULT_255_2_778
10
24.7295261
20
69.324775
11
24.7295261
21
69.610275
0
LINE
8
DEFAULT_255_2_778
10
25.6166261
20
69.648075
11
25.6166261
21
69.648075
0
LINE
8
DEFAULT_255_2_778
10
25.4153261
20
69.301975
11
25.4153261
21
69.645675
0
LINE
8
DEFAULT_255_2_778
10
24.9295261
20
69.666575
11
24.9295261
21
69.323975
0
LINE
8
DEFAULT_255_2_778
10
25.4150261
20
69.302275
11
25.4153261
21
69.301975
0
ARC
8
DEFAULT_255_2_778
10
24.8796043
20
69.3449443
40
1.8869589
50
352.7573786
51
0.3592305
0
ARC
8
DEFAULT_255_2_778
10
25.7865725
20
69.2242532
40
0.9720263
50
340.1224967
51
353.0748297
0
ARC
8
DEFAULT_255_2_778
10
26.1687116
20
69.0917962
40
0.5676429
50
329.8833996
51
339.5808817
0
ARC
8
DEFAULT_255_2_778
10
26.3457594
20
68.9855118
40
0.3611793
50
266.5820276
51
330.3753256
0
ARC
8
DEFAULT_255_2_778
10
26.3044149
20
68.9884664
40
0.3640309
50
211.2577189
51
273.1196645
0
ARC
8
DEFAULT_255_2_778
10
26.5614606
20
69.1391522
40
0.6619692
50
192.318143
51
210.8625619
0
ARC
8
DEFAULT_255_2_778
10
27.233726
20
69.2981503
40
1.3527308
50
182.740458
51
192.8228863
0
ARC
8
DEFAULT_255_2_778
10
27.9533538
20
69.3498564
40
2.0740794
50
180.6928844
51
183.2167231
0
ARC
8
DEFAULT_255_2_778
10
27.7169199
20
69.6220529
40
1.8375316
50
172.6397004
51
180.3672488
0
ARC
8
DEFAULT_255_2_778
10
26.8310918
20
69.7418591
40
0.9436695
50
159.7700399
51
172.9637373
0
ARC
8
DEFAULT_255_2_778
10
26.4611728
20
69.8724909
40
0.5514248
50
149.341312
51
159.2151365
0
ARC
8
DEFAULT_255_2_778
10
26.3001425
20
69.9710868
40
0.362637
50
86.5720001
51
149.7680925
0
ARC
8
DEFAULT_255_2_778
10
26.3445729
20
69.9693327
40
0.3644528
50
32.0949042
51
93.578366
0
ARC
8
DEFAULT_255_2_778
10
26.0989028
20
69.8292457
40
0.6471169
50
12.4718459
51
31.0453962
0
ARC
8
DEFAULT_255_2_778
10
25.4309277
20
69.6691491
40
1.3339582
50
2.9505412
51
12.9899737
0
ARC
8
DEFAULT_255_2_778
10
24.7142294
20
69.6150547
40
2.0525624
50
0.9217757
51
3.4287582
0
ARC
8
DEFAULT_255_2_778
10
24.8964241
20
69.6575965
40
1.6688445
50
359.5906997
51
6.6194358
0
ARC
8
DEFAULT_255_2_778
10
25.8558259
20
69.7750503
40
0.7023253
50
6.1236937
51
19.4722658
0
ARC
8
DEFAULT_255_2_778
10
26.1599823
20
69.8745971
40
0.3824562
50
20.6015613
51
24.7432221
0
ARC
8
DEFAULT_255_2_778
10
26.326458
20
69.9665624
40
0.1932681
50
20.635743
51
91.3733137
0
ARC
8
DEFAULT_255_2_778
10
26.3184128
20
69.9684185
40
0.1913869
50
88.9781216
51
159.009767
0
ARC
8
DEFAULT_255_2_778
10
26.673284
20
69.8011239
40
0.5833608
50
156.1529144
51
171.9292848
0
ARC
8
DEFAULT_255_2_778
10
27.4938316
20
69.6701015
40
1.4142508
50
171.3408683
51
179.5206141
0
ARC
8
DEFAULT_255_2_778
10
28.2002667
20
69.6460594
40
2.1209399
50
179.0308207
51
179.4457763
0
ARC
8
DEFAULT_255_2_778
10
27.6817219
20
69.3118984
40
1.6023414
50
179.5681663
51
187.14023
0
ARC
8
DEFAULT_255_2_778
10
26.7856863
20
69.1939654
40
0.6986184
50
186.6774445
51
200.6060319
0
ARC
8
DEFAULT_255_2_778
10
26.5127482
20
69.1000146
40
0.4101576
50
201.7401054
51
204.5691053
0
ARC
8
DEFAULT_255_2_778
10
26.3246233
20
68.9932658
40
0.195592
50
199.0347821
51
269.7957613
0
ARC
8
DEFAULT_255_2_778
10
26.3263159
20
68.9876434
40
0.1899835
50
269.2792317
51
339.8104495
0
ARC
8
DEFAULT_255_2_778
10
25.9667494
20
69.1571641
40
0.5870078
50
336.3913577
51
351.7927673
0
ARC
8
DEFAULT_255_2_778
10
25.1354454
20
69.2920155
40
1.429125
50
351.1994669
51
359.1106968
0
ARC
8
DEFAULT_255_2_778
10
24.3762731
20
69.3216595
40
2.1887387
50
358.6432251
51
359.4925554
0
LINE
8
DEFAULT_255_2_778
10
26.7665261
20
69.648075
11
26.7665261
21
69.356775
0
LINE
8
DEFAULT_255_2_778
10
25.8794261
20
69.324775
11
25.8794261
21
69.610275
0
LINE
8
DEFAULT_255_2_778
10
26.7665261
20
69.648075
11
26.7665261
21
69.648075
0
LINE
8
DEFAULT_255_2_778
10
26.5652261
20
69.301975
11
26.5652261
21
69.645675
0
LINE
8
DEFAULT_255_2_778
10
26.0794261
20
69.666575
11
26.0794261
21
69.323975
0
LINE
8
DEFAULT_255_2_778
10
26.5649261
20
69.302275
11
26.5652261
21
69.301975
0
ARC
8
DEFAULT_255_2_778
10
20.1744086
20
68.7854129
40
1.2563349
50
332.15148
51
344.5805792
0
ARC
8
DEFAULT_255_2_778
10
20.6316616
20
68.5438582
40
0.7391995
50
315.5139578
51
332.149934
0
ARC
8
DEFAULT_255_2_778
10
20.8234466
20
68.3394425
40
0.4592772
50
270.3712065
51
316.9417593
0
ARC
8
DEFAULT_255_2_778
10
20.8405621
20
68.4636284
40
0.5836248
50
255.620437
51
268.6117111
0
ARC
8
DEFAULT_255_2_778
10
20.966374
20
69.0374622
40
1.1709081
50
253.9182336
51
256.6303595
0
ARC
8
DEFAULT_255_2_778
10
20.7329376
20
68.6231408
40
0.4172658
50
268.2262592
51
294.6639995
0
ARC
8
DEFAULT_255_2_778
10
20.7868839
20
68.4872409
40
0.2713614
50
296.2870055
51
310.0029157
0
ARC
8
DEFAULT_255_2_778
10
20.7006687
20
68.5677945
40
0.3887494
50
312.1050653
51
336.5148759
0
ARC
8
DEFAULT_255_2_778
10
20.2779653
20
68.7743128
40
0.8589932
50
335.1167444
51
343.7453702
0
ARC
8
DEFAULT_255_2_778
10
4.2103209
20
70.6447042
40
1.0431543
50
72.7571627
51
90.7249688
0
ARC
8
DEFAULT_255_2_778
10
4.2951004
20
70.9295205
40
0.7460161
50
43.5244513
51
72.4916846
0
ARC
8
DEFAULT_255_2_778
10
4.2249175
20
70.871657
40
0.8367771
50
7.8279387
51
43.0878152
0
ARC
8
DEFAULT_255_2_778
10
3.839008
20
70.7971481
40
1.2294223
50
359.7915325
51
8.8185165
0
ARC
8
DEFAULT_255_2_778
10
3.8275234
20
70.7801278
40
1.2409622
50
346.5845666
51
0.5793153
0
ARC
8
DEFAULT_255_2_778
10
4.3009219
20
70.6601555
40
0.7526776
50
316.5030025
51
347.1071988
0
ARC
8
DEFAULT_255_2_778
10
4.3087603
20
70.6751263
40
0.7574707
50
281.26379
51
315.2733431
0
ARC
8
DEFAULT_255_2_778
10
4.2069117
20
71.0929802
40
1.1873104
50
270.762984
51
282.1454253
0
ARC
8
DEFAULT_255_2_778
10
4.2106763
20
70.7899183
40
0.5687001
50
268.6544633
51
293.3654346
0
ARC
8
DEFAULT_255_2_778
10
4.2686606
20
70.6364891
40
0.4049285
50
294.4436771
51
318.5188031
0
ARC
8
DEFAULT_255_2_778
10
4.182405
20
70.6994726
40
0.5113642
50
319.6334895
51
350.555092
0
ARC
8
DEFAULT_255_2_778
10
3.7945104
20
70.7821018
40
0.9077356
50
349.427965
51
0.4148952
0
ARC
8
DEFAULT_255_2_778
10
3.9466356
20
70.801837
40
0.7557011
50
359.0020298
51
19.5947496
0
ARC
8
DEFAULT_255_2_778
10
4.1644005
20
70.8727141
40
0.5268149
50
20.2754014
51
39.9901686
0
ARC
8
DEFAULT_255_2_778
10
4.2227526
20
70.9164664
40
0.4540079
50
40.4923657
51
91.8959691
0
ARC
8
DEFAULT_255_2_778
10
4.1995541
20
70.6878802
40
0.6823946
50
89.3133648
51
90.0026852
0
ARC
8
DEFAULT_255_2_778
10
6.2321176
20
69.7524355
40
0.8629564
50
79.6591009
51
90.3582325
0
ARC
8
DEFAULT_255_2_778
10
6.2177001
20
70.2459092
40
0.3695759
50
88.6011564
51
157.7513464
0
ARC
8
DEFAULT_255_2_778
10
6.5001655
20
70.0812266
40
0.6948544
50
153.9990992
51
160.2898253
0
ARC
8
DEFAULT_255_2_778
10
6.3215898
20
70.4683777
40
0.5388434
50
126.6638998
51
152.8725413
0
ARC
8
DEFAULT_255_2_778
10
6.2368908
20
70.5631334
40
0.412416
50
88.911953
51
125.0853641
0
ARC
8
DEFAULT_255_2_778
10
6.2552263
20
70.6630701
40
0.3125814
50
65.4858109
51
91.9257621
0
ARC
8
DEFAULT_255_2_778
10
8.1739902
20
69.9608046
40
1.5488221
50
167.7861779
51
180.4783132
0
ARC
8
DEFAULT_255_2_778
10
7.6204279
20
70.0869048
40
0.9811312
50
143.7539339
51
168.1443874
0
ARC
8
DEFAULT_255_2_778
10
7.5133271
20
70.1533885
40
0.8555023
50
140.3505501
51
143.1039013
0
ARC
8
DEFAULT_255_2_778
10
7.4357384
20
70.2279736
40
0.7482119
50
88.1017909
51
140.9569935
0
ARC
8
DEFAULT_255_2_778
10
7.4871341
20
70.2201467
40
0.7560967
50
40.0018451
51
92.017027
0
ARC
8
DEFAULT_255_2_778
10
7.3397532
20
70.1016424
40
0.9451783
50
13.1856767
51
39.7617246
0
ARC
8
DEFAULT_255_2_778
10
6.8088486
20
69.9665886
40
1.4929289
50
0.4289929
51
13.5844227
0
ARC
8
DEFAULT_255_2_778
10
6.3550795
20
69.9462725
40
1.9469109
50
0.7534776
51
0.9268821
0
ARC
8
DEFAULT_255_2_778
10
6.7576372
20
69.7296612
40
1.5442389
50
347.7974452
51
0.4791432
0
ARC
8
DEFAULT_255_2_778
10
7.3114929
20
69.6035714
40
0.9762649
50
323.7565177
51
348.1597573
0
ARC
8
DEFAULT_255_2_778
10
7.4189312
20
69.5368881
40
0.850246
50
320.3434883
51
323.10025
0
ARC
8
DEFAULT_255_2_778
10
7.4917947
20
69.4687889
40
0.7507132
50
267.9104108
51
320.7959363
0
ARC
8
DEFAULT_255_2_778
10
7.4497776
20
69.5342191
40
0.8157756
50
244.3917757
51
271.0286095
0
ARC
8
DEFAULT_255_2_778
10
7.4301626
20
69.4622821
40
0.742548
50
219.8899492
51
243.357452
0
ARC
8
DEFAULT_255_2_778
10
7.5905893
20
69.5929196
40
0.9494232
50
192.9991239
51
219.7300992
0
ARC
8
DEFAULT_255_2_778
10
8.1120468
20
69.7246705
40
1.4871945
50
180.5546124
51
193.4259926
0
ARC
8
DEFAULT_255_2_778
10
8.2672956
20
69.7300717
40
1.2876361
50
179.4347356
51
191.7034661
0
ARC
8
DEFAULT_255_2_778
10
7.7099116
20
69.6094748
40
0.7173948
50
191.3020242
51
213.3892692
0
ARC
8
DEFAULT_255_2_778
10
7.4570841
20
69.4303747
40
0.4078658
50
211.927778
51
271.030881
0
ARC
8
DEFAULT_255_2_778
10
7.4789625
20
69.4659106
40
0.4435741
50
268.1215035
51
302.6293187
0
ARC
8
DEFAULT_255_2_778
10
7.4605168
20
69.4557124
40
0.4454281
50
305.3358699
51
339.5604119
0
ARC
8
DEFAULT_255_2_778
10
7.0315636
20
69.6323859
40
0.9092091
50
338.5677514
51
353.1711544
0
ARC
8
DEFAULT_255_2_778
10
6.3519589
20
69.7292679
40
1.5955865
50
352.6186143
51
359.0414405
0
ARC
8
DEFAULT_255_2_778
10
6.6778446
20
69.9604835
40
1.2695382
50
359.4399777
51
11.8871181
0
ARC
8
DEFAULT_255_2_778
10
7.2093768
20
70.0768332
40
0.7254515
50
11.5421854
51
33.3994903
0
ARC
8
DEFAULT_255_2_778
10
7.4668282
20
70.2612274
40
0.4091961
50
31.6879149
51
90.8830111
0
ARC
8
DEFAULT_255_2_778
10
7.4559158
20
70.2668912
40
0.40351
50
89.3459215
51
148.7577204
0
ARC
8
DEFAULT_255_2_778
10
7.7308596
20
70.0722536
40
0.7399154
50
146.9136764
51
169.6116316
0
ARC
8
DEFAULT_255_2_778
10
8.2710557
20
69.9609788
40
1.2913777
50
169.077304
51
180.4749153
0
ARC
8
DEFAULT_255_2_778
10
10.7899772
20
69.9585138
40
2.1052936
50
171.6782623
51
180.3466922
0
ARC
8
DEFAULT_255_2_778
10
9.9396191
20
70.0874595
40
1.2452347
50
158.2957821
51
171.8859751
0
ARC
8
DEFAULT_255_2_778
10
9.5433539
20
70.2407276
40
0.8203921
50
144.9155724
51
158.0064591
0
ARC
8
DEFAULT_255_2_778
10
9.377309
20
70.3597206
40
0.6161245
50
88.4869595
51
145.0953187
0
ARC
8
DEFAULT_255_2_778
10
9.409878
20
70.0582042
40
0.9175708
50
89.9972431
51
91.0179053
0
ARC
8
DEFAULT_255_2_778
10
9.4281312
20
70.4204604
40
0.555613
50
32.9024277
51
91.8780852
0
ARC
8
DEFAULT_255_2_778
10
9.4275206
20
69.2750225
40
0.5561256
50
269.1407135
51
329.4650188
0
ARC
8
DEFAULT_255_2_778
10
9.4078317
20
69.4801192
40
0.7612443
50
269.9992818
51
270.8542073
0
ARC
8
DEFAULT_255_2_778
10
9.3852868
20
69.3357564
40
0.6172929
50
215.0472358
51
272.0921453
0
ARC
8
DEFAULT_255_2_778
10
9.6350004
20
69.5161468
40
0.9253275
50
194.746117
51
215.3124668
0
ARC
8
DEFAULT_255_2_778
10
10.2296494
20
69.6822627
40
1.5427013
50
183.564089
51
195.0909516
0
ARC
8
DEFAULT_255_2_778
10
10.8803843
20
69.7383344
40
2.1957181
50
180.4086263
51
183.9688244
0
ARC
8
DEFAULT_255_2_778
10
10.8569042
20
69.730256
40
1.8177239
50
179.6116975
51
187.4288261
0
ARC
8
DEFAULT_255_2_778
10
9.9547769
20
69.6074167
40
0.9073012
50
187.1024558
51
200.3810665
0
ARC
8
DEFAULT_255_2_778
10
9.5820454
20
69.473989
40
0.5114579
50
200.9113511
51
211.8129663
0
ARC
8
DEFAULT_255_2_778
10
9.4573889
20
69.4020592
40
0.367639
50
212.5280897
51
268.2991089
0
ARC
8
DEFAULT_255_2_778
10
9.4993012
20
69.6654456
40
0.6330712
50
265.2135763
51
270.0742946
0
ARC
8
DEFAULT_255_2_778
10
9.5066285
20
69.443282
40
0.4109586
50
269.0928509
51
334.673275
0
ARC
8
DEFAULT_255_2_778
10
9.2613438
20
69.6085896
40
0.7047881
50
331.0539782
51
334.022082
0
ARC
8
DEFAULT_255_2_778
10
9.4204933
20
70.1658895
40
0.5282417
50
26.086864
51
52.0635798
0
ARC
8
DEFAULT_255_2_778
10
9.5102383
20
70.2631228
40
0.3965331
50
53.6537134
51
91.158352
0
ARC
8
DEFAULT_255_2_778
10
9.4888597
20
70.1912541
40
0.4685115
50
88.3656444
51
115.972106
0
ARC
8
DEFAULT_255_2_778
10
9.4427081
20
70.3073267
40
0.3440767
50
117.5278418
51
148.4084327
0
ARC
8
DEFAULT_255_2_778
10
9.6866546
20
70.1647625
40
0.6265873
50
148.9897453
51
167.3635716
0
ARC
8
DEFAULT_255_2_778
10
10.3291208
20
70.0092289
40
1.2875657
50
166.8643739
51
176.8947003
0
ARC
8
DEFAULT_255_2_778
10
11.0954483
20
69.9517928
40
2.0559403
50
176.4532899
51
179.7859091
0
ARC
8
DEFAULT_255_2_778
10
11.4378744
20
69.304035
40
0.5824043
50
273.3985433
51
322.547754
0
ARC
8
DEFAULT_255_2_778
10
11.38665
20
69.6215088
40
0.9029349
50
269.9157425
51
275.4494804
0
ARC
8
DEFAULT_255_2_778
10
11.3716111
20
69.3269674
40
0.6085469
50
245.5737779
51
271.2910291
0
ARC
8
DEFAULT_255_2_778
10
11.3254406
20
69.2010532
40
0.4749162
50
215.8554128
51
244.3636011
0
ARC
8
DEFAULT_255_2_778
10
11.5257283
20
69.337806
40
0.71738
50
193.4225078
51
215.337936
0
ARC
8
DEFAULT_255_2_778
10
12.1047468
20
69.4870111
40
1.3152613
50
182.073386
51
193.8895872
0
ARC
8
DEFAULT_255_2_778
10
12.6844194
20
69.5251798
40
1.8960132
50
180.2358558
51
182.5922969
0
ARC
8
DEFAULT_255_2_778
10
12.3197446
20
69.5312675
40
1.1786867
50
179.4017258
51
189.6825999
0
ARC
8
DEFAULT_255_2_778
10
11.6659392
20
69.4135049
40
0.5144249
50
189.0007833
51
209.1129614
0
ARC
8
DEFAULT_255_2_778
10
11.4346483
20
69.283768
40
0.2492349
50
208.9254736
51
272.5235674
0
ARC
8
DEFAULT_255_2_778
10
11.4596478
20
69.5351592
40
0.5005808
50
268.3944284
51
298.5111567
0
ARC
8
DEFAULT_255_2_778
10
11.4641462
20
69.4860196
40
0.455671
50
300.9641983
51
338.5762847
0
ARC
8
DEFAULT_255_2_778
10
11.2810145
20
69.5817389
40
0.661485
50
336.6517751
51
337.1127582
0
ARC
8
DEFAULT_255_2_778
10
13.5477551
20
69.3980512
40
0.3758579
50
267.4178611
51
314.9774454
0
ARC
8
DEFAULT_255_2_778
10
13.5052112
20
69.4160401
40
0.4190148
50
317.3546345
51
352.2789353
0
ARC
8
DEFAULT_255_2_778
10
13.2169689
20
69.4779514
40
0.7133204
50
350.4613752
51
357.3422602
0
ARC
8
DEFAULT_255_2_778
10
13.5234524
20
69.4531131
40
0.7405155
50
314.5038518
51
359.3625792
0
ARC
8
DEFAULT_255_2_778
10
13.5455071
20
69.420662
40
0.701947
50
268.776774
51
315.0766486
0
ARC
8
DEFAULT_255_2_778
10
13.5172591
20
69.6845771
40
0.9657933
50
252.5292553
51
270.7868556
0
ARC
8
DEFAULT_255_2_778
10
13.4301013
20
69.3985935
40
0.6668411
50
219.6176249
51
252.2955136
0
ARC
8
DEFAULT_255_2_778
10
13.5598703
20
69.4921452
40
0.8265277
50
196.0513459
51
218.8769661
0
ARC
8
DEFAULT_255_2_778
10
14.1076378
20
69.6604517
40
1.3995144
50
184.3614597
51
196.4725385
0
ARC
8
DEFAULT_255_2_778
10
14.7896381
20
69.7266244
40
2.0846199
50
179.8914187
51
184.7494413
0
ARC
8
DEFAULT_255_2_778
10
14.5062924
20
69.9824997
40
1.8013131
50
170.4614321
51
180.3952059
0
ARC
8
DEFAULT_255_2_778
10
13.7897577
20
70.1080943
40
1.0738846
50
154.1916615
51
170.734615
0
ARC
8
DEFAULT_255_2_778
10
13.5054266
20
70.2383968
40
0.7612128
50
140.8127011
51
153.7038023
0
ARC
8
DEFAULT_255_2_778
10
13.4461196
20
70.2788171
40
0.6897326
50
97.5223493
51
140.3022786
0
ARC
8
DEFAULT_255_2_778
10
13.5240394
20
69.8949221
40
1.0808616
50
89.7676719
51
98.9533458
0
ARC
8
DEFAULT_255_2_778
10
13.5421119
20
70.1870242
40
0.7888695
50
67.8950491
51
90.9943404
0
ARC
8
DEFAULT_255_2_778
10
13.5951972
20
70.3419386
40
0.6254323
50
42.5124862
51
67.0603076
0
ARC
8
DEFAULT_255_2_778
10
13.490017
20
70.2538668
40
0.7625032
50
11.2209045
51
42.0499651
0
ARC
8
DEFAULT_255_2_778
10
13.0791816
20
70.154262
40
1.1850006
50
1.5964106
51
12.0794245
0
ARC
8
DEFAULT_255_2_778
10
13.0934334
20
70.1583492
40
0.8362891
50
1.9821508
51
16.6827779
0
ARC
8
DEFAULT_255_2_778
10
13.4831078
20
70.2762197
40
0.4291805
50
16.5433606
51
39.5108798
0
ARC
8
DEFAULT_255_2_778
10
13.5468776
20
70.3146186
40
0.3557199
50
41.2743993
51
92.9255741
0
ARC
8
DEFAULT_255_2_778
10
13.5155602
20
70.1805871
40
0.4894649
50
88.4591001
51
115.251804
0
ARC
8
DEFAULT_255_2_778
10
13.4660934
20
70.3052312
40
0.3557291
50
116.6102027
51
144.0494635
0
ARC
8
DEFAULT_255_2_778
10
13.6108568
20
70.2134934
40
0.5268857
50
145.2157983
51
166.1810073
0
ARC
8
DEFAULT_255_2_778
10
14.2199504
20
70.0500493
40
1.1574643
50
165.5261901
51
176.3419705
0
ARC
8
DEFAULT_255_2_778
10
14.9918118
20
69.983445
40
1.9320794
50
175.8312211
51
179.44752
0
ARC
8
DEFAULT_255_2_778
10
14.9598819
20
69.7125294
40
1.900098
50
179.6367746
51
186.8152527
0
ARC
8
DEFAULT_255_2_778
10
13.9895545
20
69.5909691
40
0.9222183
50
186.4701745
51
198.966149
0
ARC
8
DEFAULT_255_2_778
10
13.5469525
20
69.44003
40
0.4545895
50
199.1054391
51
214.6795507
0
ARC
8
DEFAULT_255_2_778
10
13.4793319
20
69.4053909
40
0.3794042
50
216.1883383
51
265.6650751
0
ARC
8
DEFAULT_255_2_778
10
13.5290468
20
69.6785744
40
0.6562018
50
263.1388074
51
270.1550167
0
ARC
8
DEFAULT_255_2_778
10
15.6050474
20
69.2859962
40
0.4678812
50
178.5206978
51
196.7882765
0
ARC
8
DEFAULT_255_2_778
10
15.3641452
20
69.2184442
40
0.2177903
50
198.0796715
51
211.9869532
0
ARC
8
DEFAULT_255_2_778
10
15.3083545
20
69.1930614
40
0.1572295
50
214.9125513
51
275.5724482
0
ARC
8
DEFAULT_255_2_778
10
15.3210068
20
69.484177
40
0.4476097
50
270.3347727
51
288.8900881
0
ARC
8
DEFAULT_255_2_778
10
15.2163158
20
69.4898609
40
0.7709862
50
269.9558788
51
288.5837756
0
ARC
8
DEFAULT_255_2_778
10
15.1948028
20
69.0903989
40
0.3721124
50
216.381903
51
273.2227373
0
ARC
8
DEFAULT_255_2_778
10
15.3532189
20
69.188675
40
0.5581416
50
189.8929232
51
214.8576541
0
ARC
8
DEFAULT_255_2_778
10
15.8323338
20
69.2871312
40
1.0471509
50
179.50516
51
190.696003
0
LINE
8
DEFAULT_255_2_778
10
20.9227221
20
70.9355749
11
21.3233221
21
69.3503749
0
LINE
8
DEFAULT_255_2_778
10
21.3233221
20
69.3503749
11
21.7181221
21
70.9355749
0
LINE
8
DEFAULT_255_2_778
10
21.7181221
20
70.9355749
11
22.0946221
21
70.9355749
0
LINE
8
DEFAULT_255_2_778
10
22.0946221
20
70.9355749
11
21.3855221
21
68.4513749
0
LINE
8
DEFAULT_255_2_778
10
20.6420221
20
67.9123749
11
20.6420221
21
68.2140749
0
LINE
8
DEFAULT_255_2_778
10
20.6420221
20
68.2140749
11
20.7200221
21
68.2060749
0
LINE
8
DEFAULT_255_2_778
10
21.1026221
20
68.5338749
11
21.1727221
21
68.7773749
0
LINE
8
DEFAULT_255_2_778
10
21.1727221
20
68.7773749
11
20.5356221
21
70.9357749
0
LINE
8
DEFAULT_255_2_778
10
20.5356221
20
70.9357749
11
20.9222221
21
70.9357749
0
LINE
8
DEFAULT_255_2_778
10
20.9222221
20
70.9357749
11
20.9227221
21
70.9355749
0
LINE
8
DEFAULT_255_2_778
10
4.2233221
20
69.9054749
11
3.6343221
21
69.9054749
0
LINE
8
DEFAULT_255_2_778
10
3.6343221
20
69.9054749
11
3.6343221
21
68.7587749
0
LINE
8
DEFAULT_255_2_778
10
3.6343221
20
68.7587749
11
3.2676221
21
68.7587749
0
LINE
8
DEFAULT_255_2_778
10
3.2676221
20
68.7587749
11
3.2676221
21
71.6877749
0
LINE
8
DEFAULT_255_2_778
10
3.2676221
20
71.6877749
11
4.1971221
21
71.6877749
0
LINE
8
DEFAULT_255_2_778
10
4.2227221
20
69.9057749
11
4.2233221
21
69.9054749
0
LINE
8
DEFAULT_255_2_778
10
3.6343221
20
71.3699749
11
3.6343221
21
70.2213749
0
LINE
8
DEFAULT_255_2_778
10
3.6343221
20
70.2213749
11
4.1973221
21
70.2213749
0
LINE
8
DEFAULT_255_2_778
10
4.1995221
20
71.3702749
11
3.6346221
21
71.3702749
0
LINE
8
DEFAULT_255_2_778
10
3.6346221
20
71.3702749
11
3.6343221
21
71.3699749
0
LINE
8
DEFAULT_255_2_778
10
6.3849221
20
70.9474749
11
6.3870221
21
70.6013749
0
LINE
8
DEFAULT_255_2_778
10
5.8460221
20
70.3155749
11
5.8460221
21
68.7587749
0
LINE
8
DEFAULT_255_2_778
10
5.8460221
20
68.7587749
11
5.4914221
21
68.7587749
0
LINE
8
DEFAULT_255_2_778
10
5.4914221
20
68.7587749
11
5.4914221
21
70.9352749
0
LINE
8
DEFAULT_255_2_778
10
5.4914221
20
70.9352749
11
5.8359221
21
70.9352749
0
LINE
8
DEFAULT_255_2_778
10
5.8359221
20
70.9352749
11
5.8420221
21
70.7140749
0
LINE
8
DEFAULT_255_2_778
10
6.3849221
20
70.9474749
11
6.3849221
21
70.9474749
0
LINE
8
DEFAULT_255_2_778
10
6.6252221
20
69.7104749
11
6.6252221
21
69.9478749
0
LINE
8
DEFAULT_255_2_778
10
8.3018221
20
69.9718749
11
8.3018221
21
69.7425749
0
LINE
8
DEFAULT_255_2_778
10
6.6249221
20
69.7102749
11
6.6252221
21
69.7104749
0
LINE
8
DEFAULT_255_2_778
10
6.9797221
20
69.9499749
11
6.9797221
21
69.7427749
0
LINE
8
DEFAULT_255_2_778
10
7.9473221
20
69.7025749
11
7.9473221
21
69.9480749
0
LINE
8
DEFAULT_255_2_778
10
6.9797221
20
69.9502749
11
6.9797221
21
69.9499749
0
LINE
8
DEFAULT_255_2_778
10
8.6847221
20
69.7223749
11
8.6847221
21
69.9457749
0
LINE
8
DEFAULT_255_2_778
10
9.8946221
20
70.7222749
11
9.8946221
21
71.8488749
0
LINE
8
DEFAULT_255_2_778
10
9.8946221
20
71.8488749
11
10.2492221
21
71.8488749
0
LINE
8
DEFAULT_255_2_778
10
10.2492221
20
71.8488749
11
10.2492221
21
68.7590749
0
LINE
8
DEFAULT_255_2_778
10
10.2492221
20
68.7590749
11
9.9245221
21
68.7590749
0
LINE
8
DEFAULT_255_2_778
10
9.9245221
20
68.7590749
11
9.9065221
21
68.9924749
0
LINE
8
DEFAULT_255_2_778
10
8.6847221
20
69.7226749
11
8.6847221
21
69.7223749
0
LINE
8
DEFAULT_255_2_778
10
9.0392221
20
69.9597749
11
9.0392221
21
69.7425749
0
LINE
8
DEFAULT_255_2_778
10
9.8949221
20
69.2998749
11
9.8949221
21
70.3981749
0
LINE
8
DEFAULT_255_2_778
10
9.0395221
20
69.9594749
11
9.0392221
21
69.9597749
0
LINE
8
DEFAULT_255_2_778
10
11.9081221
20
68.7587749
11
11.9002221
21
68.9498749
0
LINE
8
DEFAULT_255_2_778
10
10.7884221
20
69.5173749
11
10.7884221
21
70.9355749
0
LINE
8
DEFAULT_255_2_778
10
10.7884221
20
70.9355749
11
11.1411221
21
70.9355749
0
LINE
8
DEFAULT_255_2_778
10
11.1411221
20
70.9355749
11
11.1411221
21
69.5435749
0
LINE
8
DEFAULT_255_2_778
10
11.8904221
20
69.3244749
11
11.8904221
21
70.9357749
0
LINE
8
DEFAULT_255_2_778
10
11.8904221
20
70.9357749
11
12.2449221
21
70.9357749
0
LINE
8
DEFAULT_255_2_778
10
12.2449221
20
70.9357749
11
12.2449221
21
68.7593749
0
LINE
8
DEFAULT_255_2_778
10
12.2449221
20
68.7593749
11
11.9084221
21
68.7593749
0
LINE
8
DEFAULT_255_2_778
10
11.9084221
20
68.7593749
11
11.9081221
21
68.7587749
0
LINE
8
DEFAULT_255_2_778
10
13.9295221
20
69.4448749
11
14.2639221
21
69.4448749
0
LINE
8
DEFAULT_255_2_778
10
12.7050221
20
69.7305749
11
12.7050221
21
69.9700749
0
LINE
8
DEFAULT_255_2_778
10
14.2637221
20
70.1872749
11
13.9292221
21
70.1872749
0
LINE
8
DEFAULT_255_2_778
10
13.0598221
20
70.0020749
11
13.0598221
21
69.7245749
0
LINE
8
DEFAULT_255_2_778
10
13.5308221
20
69.0223749
11
13.5308221
21
69.0225749
0
LINE
8
DEFAULT_255_2_778
10
14.7846221
20
71.4622749
11
15.1373221
21
71.4622749
0
LINE
8
DEFAULT_255_2_778
10
15.1373221
20
71.4622749
11
15.1373221
21
70.9352749
0
LINE
8
DEFAULT_255_2_778
10
15.1373221
20
70.9352749
11
15.4638221
21
70.9352749
0
LINE
8
DEFAULT_255_2_778
10
15.4638221
20
70.9352749
11
15.4638221
21
70.6476749
0
LINE
8
DEFAULT_255_2_778
10
15.4638221
20
70.6476749
11
15.1373221
21
70.6476749
0
LINE
8
DEFAULT_255_2_778
10
15.1373221
20
70.6476749
11
15.1373221
21
69.2980749
0
LINE
8
DEFAULT_255_2_778
10
15.4659221
20
69.0606749
11
15.4620221
21
68.7590749
0
LINE
8
DEFAULT_255_2_778
10
14.7852221
20
69.2961749
11
14.7852221
21
70.6479749
0
LINE
8
DEFAULT_255_2_778
10
14.7852221
20
70.6479749
11
14.4547221
21
70.6479749
0
LINE
8
DEFAULT_255_2_778
10
14.4547221
20
70.6479749
11
14.4547221
21
70.9355749
0
LINE
8
DEFAULT_255_2_778
10
14.4547221
20
70.9355749
11
14.7852221
21
70.9355749
0
LINE
8
DEFAULT_255_2_778
10
14.7852221
20
70.9355749
11
14.7852221
21
71.4625749
0
LINE
8
DEFAULT_255_2_778
10
14.7852221
20
71.4625749
11
14.7846221
21
71.4622749
0
ARC
8
DEFAULT_255_2_778
10
16.0669668
20
71.5047462
40
0.2283266
50
321.2969116
51
2.0156612
0
ARC
8
DEFAULT_255_2_778
10
16.1074398
20
71.4873632
40
0.1862428
50
265.5693432
51
317.6823281
0
ARC
8
DEFAULT_255_2_778
10
16.0794291
20
71.4851854
40
0.1840133
50
222.033281
51
274.2456425
0
ARC
8
DEFAULT_255_2_778
10
16.1209374
20
71.5047462
40
0.2283266
50
177.9843388
51
218.7030884
0
ARC
8
DEFAULT_255_2_778
10
16.1298219
20
71.5199732
40
0.237179
50
142.0668368
51
181.73865
0
ARC
8
DEFAULT_255_2_778
10
16.0799108
20
71.5476196
40
0.1810351
50
85.8372471
51
139.2562373
0
ARC
8
DEFAULT_255_2_778
10
16.1056918
20
71.5457311
40
0.1828833
50
40.6950703
51
93.9630587
0
ARC
8
DEFAULT_255_2_778
10
16.0612831
20
71.5188465
40
0.23424
50
358.5886389
51
38.5978092
0
LINE
8
DEFAULT_255_2_778
10
16.2671521
20
70.935477
11
16.2671521
21
68.758977
0
LINE
8
DEFAULT_255_2_778
10
16.2671521
20
68.758977
11
15.9125521
21
68.758977
0
LINE
8
DEFAULT_255_2_778
10
15.9125521
20
68.758977
11
15.9125521
21
70.935477
0
LINE
8
DEFAULT_255_2_778
10
15.9125521
20
70.935477
11
16.2671521
21
70.935477
0
LINE
8
DEFAULT_255_2_778
10
16.2671521
20
70.935477
11
16.2671521
21
70.935477
0
LINE
8
DEFAULT_255_2_778
10
16.2954521
20
71.513077
11
16.2951521
21
71.512777
0
LINE
8
DEFAULT_255_2_778
10
17.0125021
20
70.9352312
11
17.4392021
21
69.2998312
0
LINE
8
DEFAULT_255_2_778
10
17.4392021
20
69.2998312
11
17.8499021
21
70.9352312
0
LINE
8
DEFAULT_255_2_778
10
17.8499021
20
70.9352312
11
18.2105021
21
70.9352312
0
LINE
8
DEFAULT_255_2_778
10
18.2105021
20
70.9352312
11
17.5676021
21
68.7587312
0
LINE
8
DEFAULT_255_2_778
10
17.5676021
20
68.7587312
11
17.3032021
21
68.7587312
0
LINE
8
DEFAULT_255_2_778
10
17.3032021
20
68.7587312
11
16.6521021
21
70.9352312
0
LINE
8
DEFAULT_255_2_778
10
16.6521021
20
70.9352312
11
17.0127021
21
70.9352312
0
LINE
8
DEFAULT_255_2_778
10
17.0127021
20
70.9352312
11
17.0125021
21
70.9352312
0
ARC
8
DEFAULT_255_2_778
10
18.7614668
20
71.5047462
40
0.2283266
50
321.2969116
51
2.0156612
0
ARC
8
DEFAULT_255_2_778
10
18.8019398
20
71.4873632
40
0.1862428
50
265.5693432
51
317.6823281
0
ARC
8
DEFAULT_255_2_778
10
18.7739291
20
71.4851854
40
0.1840133
50
222.033281
51
274.2456425
0
ARC
8
DEFAULT_255_2_778
10
18.8154374
20
71.5047462
40
0.2283266
50
177.9843388
51
218.7030884
0
ARC
8
DEFAULT_255_2_778
10
18.8243219
20
71.5199732
40
0.237179
50
142.0668368
51
181.73865
0
ARC
8
DEFAULT_255_2_778
10
18.7744108
20
71.5476196
40
0.1810351
50
85.8372471
51
139.2562373
0
ARC
8
DEFAULT_255_2_778
10
18.8001918
20
71.5457311
40
0.1828833
50
40.6950703
51
93.9630587
0
ARC
8
DEFAULT_255_2_778
10
18.7557831
20
71.5188465
40
0.23424
50
358.5886389
51
38.5978092
0
LINE
8
DEFAULT_255_2_778
10
18.9616521
20
70.935477
11
18.9616521
21
68.758977
0
LINE
8
DEFAULT_255_2_778
10
18.9616521
20
68.758977
11
18.6070521
21
68.758977
0
LINE
8
DEFAULT_255_2_778
10
18.6070521
20
68.758977
11
18.6070521
21
70.935477
0
LINE
8
DEFAULT_255_2_778
10
18.6070521
20
70.935477
11
18.9616521
21
70.935477
0
LINE
8
DEFAULT_255_2_778
10
18.9616521
20
70.935477
11
18.9616521
21
70.935477
0
LINE
8
DEFAULT_255_2_778
10
18.9899521
20
71.513077
11
18.9896521
21
71.512777
0
ARC
8
DEFAULT_255_2_778
10
20.4503763
20
69.2858631
40
0.4671518
50
178.5156007
51
196.8497806
0
ARC
8
DEFAULT_255_2_778
10
20.2105628
20
69.2184257
40
0.2181431
50
198.1555462
51
211.9575528
0
ARC
8
DEFAULT_255_2_778
10
20.1543343
20
69.1930602
40
0.157227
50
214.961724
51
275.5285702
0
LINE
8
DEFAULT_255_2_778
10
20.1694819
20
69.0365646
11
20.1696813
21
69.0365645
0
ARC
8
DEFAULT_255_2_778
10
20.1670659
20
69.4841666
40
0.4476097
50
270.3347727
51
288.8900881
0
ARC
8
DEFAULT_255_2_778
10
20.0622268
20
69.4907573
40
0.7718929
50
269.9595086
51
288.5727522
0
ARC
8
DEFAULT_255_2_778
10
20.040808
20
69.0902876
40
0.3720091
50
216.37433
51
273.2165333
0
ARC
8
DEFAULT_255_2_778
10
20.1992781
20
69.1886646
40
0.5581416
50
189.8929232
51
214.8576541
0
ARC
8
DEFAULT_255_2_778
10
20.678393
20
69.2871208
40
1.0471509
50
179.50516
51
190.696003
0
LINE
8
DEFAULT_255_2_778
10
19.6306813
20
71.4622645
11
19.9833813
21
71.4622645
0
LINE
8
DEFAULT_255_2_778
10
19.9833813
20
71.4622645
11
19.9833813
21
70.9352645
0
LINE
8
DEFAULT_255_2_778
10
19.9833813
20
70.9352645
11
20.3098813
21
70.9352645
0
LINE
8
DEFAULT_255_2_778
10
20.3098813
20
70.9352645
11
20.3098813
21
70.6476645
0
LINE
8
DEFAULT_255_2_778
10
20.3098813
20
70.6476645
11
19.9833813
21
70.6476645
0
LINE
8
DEFAULT_255_2_778
10
19.9833813
20
70.6476645
11
19.9833813
21
69.2979645
0
LINE
8
DEFAULT_255_2_778
10
20.3119813
20
69.0606645
11
20.3080813
21
68.7590645
0
LINE
8
DEFAULT_255_2_778
10
19.6312813
20
69.2961645
11
19.6312813
21
70.6478645
0
LINE
8
DEFAULT_255_2_778
10
19.6312813
20
70.6478645
11
19.3007813
21
70.6478645
0
LINE
8
DEFAULT_255_2_778
10
19.3007813
20
70.6478645
11
19.3007813
21
70.9355645
0
LINE
8
DEFAULT_255_2_778
10
19.3007813
20
70.9355645
11
19.6312813
21
70.9355645
0
LINE
8
DEFAULT_255_2_778
10
19.6312813
20
70.9355645
11
19.6312813
21
71.4625645
0
LINE
8
DEFAULT_255_2_778
10
19.6312813
20
71.4625645
11
19.6306813
21
71.4622645
0
LINE
8
DEFAULT_255_2_778
10
19.0490177
20
50.531451
11
18.7114177
21
50.186651
0
LINE
8
DEFAULT_255_2_778
10
18.7114177
20
50.186651
11
18.2018177
21
50.706851
0
LINE
8
DEFAULT_255_2_778
10
18.2018177
20
50.706851
11
17.6853177
21
50.200151
0
LINE
8
DEFAULT_255_2_778
10
17.6853177
20
50.200151
11
17.3477177
21
50.544651
0
LINE
8
DEFAULT_255_2_778
10
17.3477177
20
50.544651
11
17.8642177
21
51.051351
0
LINE
8
DEFAULT_255_2_778
10
17.8642177
20
51.051351
11
17.3612177
21
51.564551
0
LINE
8
DEFAULT_255_2_778
10
17.3612177
20
51.564551
11
17.6988177
21
51.909351
0
LINE
8
DEFAULT_255_2_778
10
17.6988177
20
51.909351
11
18.2084177
21
51.389151
0
LINE
8
DEFAULT_255_2_778
10
18.2084177
20
51.389151
11
18.7249177
21
51.895851
0
LINE
8
DEFAULT_255_2_778
10
18.7249177
20
51.895851
11
19.0625177
21
51.551351
0
LINE
8
DEFAULT_255_2_778
10
19.0625177
20
51.551351
11
18.5460177
21
51.044651
0
LINE
8
DEFAULT_255_2_778
10
18.5460177
20
51.044651
11
19.0490177
21
50.531451
0
LINE
8
DEFAULT_255_2_778
10
19.0490177
20
42.845751
11
18.7114177
21
42.500951
0
LINE
8
DEFAULT_255_2_778
10
18.7114177
20
42.500951
11
18.2018177
21
43.021151
0
LINE
8
DEFAULT_255_2_778
10
18.2018177
20
43.021151
11
17.6853177
21
42.514451
0
LINE
8
DEFAULT_255_2_778
10
17.6853177
20
42.514451
11
17.3477177
21
42.858951
0
LINE
8
DEFAULT_255_2_778
10
17.3477177
20
42.858951
11
17.8642177
21
43.365651
0
LINE
8
DEFAULT_255_2_778
10
17.8642177
20
43.365651
11
17.3612177
21
43.878851
0
LINE
8
DEFAULT_255_2_778
10
17.3612177
20
43.878851
11
17.6988177
21
44.223651
0
LINE
8
DEFAULT_255_2_778
10
17.6988177
20
44.223651
11
18.2084177
21
43.703451
0
LINE
8
DEFAULT_255_2_778
10
18.2084177
20
43.703451
11
18.7249177
21
44.210151
0
LINE
8
DEFAULT_255_2_778
10
18.7249177
20
44.210151
11
19.0625177
21
43.865651
0
LINE
8
DEFAULT_255_2_778
10
19.0625177
20
43.865651
11
18.5460177
21
43.358951
0
LINE
8
DEFAULT_255_2_778
10
18.5460177
20
43.358951
11
19.0490177
21
42.845751
0
LINE
8
DEFAULT_255_2_778
10
19.0490177
20
35.160151
11
18.7114177
21
34.815351
0
LINE
8
DEFAULT_255_2_778
10
18.7114177
20
34.815351
11
18.2018177
21
35.335551
0
LINE
8
DEFAULT_255_2_778
10
18.2018177
20
35.335551
11
17.6853177
21
34.828851
0
LINE
8
DEFAULT_255_2_778
10
17.6853177
20
34.828851
11
17.3477177
21
35.173351
0
LINE
8
DEFAULT_255_2_778
10
17.3477177
20
35.173351
11
17.8642177
21
35.680051
0
LINE
8
DEFAULT_255_2_778
10
17.8642177
20
35.680051
11
17.3612177
21
36.193251
0
LINE
8
DEFAULT_255_2_778
10
17.3612177
20
36.193251
11
17.6988177
21
36.538051
0
LINE
8
DEFAULT_255_2_778
10
17.6988177
20
36.538051
11
18.2084177
21
36.017851
0
LINE
8
DEFAULT_255_2_778
10
18.2084177
20
36.017851
11
18.7249177
21
36.524551
0
LINE
8
DEFAULT_255_2_778
10
18.7249177
20
36.524551
11
19.0625177
21
36.180051
0
LINE
8
DEFAULT_255_2_778
10
19.0625177
20
36.180051
11
18.5460177
21
35.673351
0
LINE
8
DEFAULT_255_2_778
10
18.5460177
20
35.673351
11
19.0490177
21
35.160151
0
LINE
8
DEFAULT_255_2_778
10
19.0490177
20
27.474551
11
18.7114177
21
27.129751
0
LINE
8
DEFAULT_255_2_778
10
18.7114177
20
27.129751
11
18.2018177
21
27.649951
0
LINE
8
DEFAULT_255_2_778
10
18.2018177
20
27.649951
11
17.6853177
21
27.143251
0
LINE
8
DEFAULT_255_2_778
10
17.6853177
20
27.143251
11
17.3477177
21
27.487751
0
LINE
8
DEFAULT_255_2_778
10
17.3477177
20
27.487751
11
17.8642177
21
27.994451
0
LINE
8
DEFAULT_255_2_778
10
17.8642177
20
27.994451
11
17.3612177
21
28.507651
0
LINE
8
DEFAULT_255_2_778
10
17.3612177
20
28.507651
11
17.6988177
21
28.852451
0
LINE
8
DEFAULT_255_2_778
10
17.6988177
20
28.852451
11
18.2084177
21
28.332251
0
LINE
8
DEFAULT_255_2_778
10
18.2084177
20
28.332251
11
18.7249177
21
28.838951
0
LINE
8
DEFAULT_255_2_778
10
18.7249177
20
28.838951
11
19.0625177
21
28.494451
0
LINE
8
DEFAULT_255_2_778
10
19.0625177
20
28.494451
11
18.5460177
21
27.987751
0
LINE
8
DEFAULT_255_2_778
10
18.5460177
20
27.987751
11
19.0490177
21
27.474551
0
LINE
8
DEFAULT_255_2_778
10
22.1702688
20
24.457501
11
22.1702688
21
23.839701
0
LINE
8
DEFAULT_255_2_778
10
21.1875688
20
23.839701
11
22.1702688
21
23.839701
0
LINE
8
DEFAULT_255_2_778
10
21.1875688
20
24.4573759
11
22.1702688
21
24.4573759
0
LINE
8
DEFAULT_255_2_778
10
22.1702688
20
32.1427759
11
22.1702688
21
31.5249759
0
LINE
8
DEFAULT_255_2_778
10
21.187497
20
31.5253072
11
22.170197
21
31.5253072
0
LINE
8
DEFAULT_255_2_778
10
14.703397
20
24.4575072
11
15.221997
21
24.4575072
0
LINE
8
DEFAULT_255_2_778
10
21.187497
20
24.4575072
11
15.221997
21
24.4575072
0
LINE
8
DEFAULT_255_2_778
10
15.2220084
20
24.7351914
11
15.2220084
21
24.4573914
0
LINE
8
DEFAULT_255_2_778
10
21.1875084
20
24.7351914
11
21.1875084
21
24.4573914
0
LINE
8
DEFAULT_255_2_778
10
14.1078084
20
24.4573914
11
14.7034084
21
24.4573914
0
LINE
8
DEFAULT_255_2_778
10
14.7034084
20
31.5251914
11
14.7034084
21
24.4573914
0
LINE
8
DEFAULT_255_2_778
10
14.1078084
20
23.8395914
11
14.1078084
21
24.4573914
0
LINE
8
DEFAULT_255_2_778
10
21.1875084
20
23.5617914
11
21.1875084
21
23.8395914
0
LINE
8
DEFAULT_255_2_778
10
15.2220084
20
23.8395914
11
21.1875084
21
23.8395914
0
LINE
8
DEFAULT_255_2_778
10
21.1875084
20
32.1427914
11
22.1702084
21
32.1427914
0
LINE
8
DEFAULT_255_2_778
10
22.1702084
20
39.8283914
11
22.1702084
21
39.2105914
0
LINE
8
DEFAULT_255_2_778
10
21.187497
20
39.2109395
11
22.170197
21
39.2109395
0
LINE
8
DEFAULT_255_2_778
10
14.703397
20
32.1428395
11
15.221997
21
32.1428395
0
LINE
8
DEFAULT_255_2_778
10
17.896097
20
32.1428395
11
15.221997
21
32.1428395
0
LINE
8
DEFAULT_255_2_778
10
15.2220199
20
32.4206062
11
15.2220199
21
32.1428062
0
LINE
8
DEFAULT_255_2_778
10
18.5134199
20
32.1428062
11
21.1876199
21
32.1428062
0
LINE
8
DEFAULT_255_2_778
10
21.1875917
20
32.4206073
11
21.1875917
21
32.1428073
0
LINE
8
DEFAULT_255_2_778
10
17.8961917
20
32.1428073
11
18.5134917
21
32.1428073
0
LINE
8
DEFAULT_255_2_778
10
18.5134917
20
31.5250073
11
18.5134917
21
32.1428073
0
LINE
8
DEFAULT_255_2_778
10
18.5134084
20
32.4206914
11
18.5134084
21
32.1428914
0
LINE
8
DEFAULT_255_2_778
10
17.8961084
20
31.5250914
11
17.8961084
21
32.1428914
0
LINE
8
DEFAULT_255_2_778
10
17.8961084
20
32.4206914
11
17.8961084
21
32.1428914
0
LINE
8
DEFAULT_255_2_778
10
14.1078084
20
32.1428914
11
14.7034084
21
32.1428914
0
LINE
8
DEFAULT_255_2_778
10
14.7034084
20
39.2108914
11
14.7034084
21
32.1430914
0
LINE
8
DEFAULT_255_2_778
10
14.1078084
20
31.5250914
11
14.1078084
21
32.1428914
0
LINE
8
DEFAULT_255_2_778
10
21.1875084
20
31.2474914
11
21.1875084
21
31.5252914
0
LINE
8
DEFAULT_255_2_778
10
18.5134084
20
31.5252914
11
21.1875084
21
31.5252914
0
LINE
8
DEFAULT_255_2_778
10
21.1875084
20
39.8284914
11
22.1702084
21
39.8284914
0
LINE
8
DEFAULT_255_2_778
10
22.1702084
20
47.5140914
11
22.1702084
21
46.8962914
0
LINE
8
DEFAULT_255_2_778
10
21.1875605
20
46.8962082
11
22.1702605
21
46.8962082
0
LINE
8
DEFAULT_255_2_778
10
17.8961605
20
39.8284082
11
18.5134605
21
39.8284082
0
LINE
8
DEFAULT_255_2_778
10
21.1875605
20
39.8284082
11
18.5134605
21
39.8284082
0
LINE
8
DEFAULT_255_2_778
10
18.5134605
20
39.2106082
11
18.5134605
21
39.8284082
0
LINE
8
DEFAULT_255_2_778
10
18.5133917
20
40.1062073
11
18.5133917
21
39.8284073
0
LINE
8
DEFAULT_255_2_778
10
15.2219917
20
39.8284073
11
17.8960917
21
39.8284073
0
LINE
8
DEFAULT_255_2_778
10
17.8960917
20
39.2106073
11
17.8960917
21
39.8284073
0
LINE
8
DEFAULT_255_2_778
10
17.8961365
20
40.1062062
11
17.8961365
21
39.8284062
0
LINE
8
DEFAULT_255_2_778
10
14.7034365
20
39.8284062
11
15.2220365
21
39.8284062
0
LINE
8
DEFAULT_255_2_778
10
15.2220084
20
40.1062227
11
15.2220084
21
39.8284227
0
LINE
8
DEFAULT_255_2_778
10
21.1875084
20
40.1062227
11
21.1875084
21
39.8284227
0
LINE
8
DEFAULT_255_2_778
10
14.1078084
20
39.8284227
11
14.7034084
21
39.8284227
0
LINE
8
DEFAULT_255_2_778
10
14.7034084
20
46.8962227
11
14.7034084
21
39.8284227
0
LINE
8
DEFAULT_255_2_778
10
14.1078084
20
39.2106227
11
14.1078084
21
39.8284227
0
LINE
8
DEFAULT_255_2_778
10
21.1875084
20
38.9331227
11
21.1875084
21
39.2109227
0
LINE
8
DEFAULT_255_2_778
10
18.5134084
20
39.2109227
11
21.1875084
21
39.2109227
0
LINE
8
DEFAULT_255_2_778
10
21.1875084
20
47.5140227
11
22.1702084
21
47.5140227
0
LINE
8
DEFAULT_255_2_778
10
15.2220084
20
54.5821227
11
21.1875084
21
54.5821227
0
LINE
8
DEFAULT_255_2_778
10
21.1875397
20
54.3043395
11
21.1875397
21
54.5821395
0
LINE
8
DEFAULT_255_2_778
10
14.1078397
20
47.5140395
11
14.7034397
21
47.5140395
0
LINE
8
DEFAULT_255_2_778
10
15.2220397
20
47.5140395
11
14.7034397
21
47.5140395
0
LINE
8
DEFAULT_255_2_778
10
14.7034282
20
54.5821395
11
14.7034282
21
47.5140395
0
LINE
8
DEFAULT_255_2_778
10
15.2220282
20
47.5140395
11
21.1875282
21
47.5140395
0
LINE
8
DEFAULT_255_2_778
10
21.1875397
20
47.7918468
11
21.1875397
21
47.5140468
0
LINE
8
DEFAULT_255_2_778
10
15.2220397
20
47.7918468
11
15.2220397
21
47.5140468
0
LINE
8
DEFAULT_255_2_778
10
14.1078397
20
46.8962468
11
14.1078397
21
47.5140468
0
LINE
8
DEFAULT_255_2_778
10
21.1875397
20
46.6184468
11
21.1875397
21
46.8962468
0
LINE
8
DEFAULT_255_2_778
10
15.2220397
20
46.8962468
11
21.1875397
21
46.8962468
0
LINE
8
DEFAULT_255_2_778
10
15.2220397
20
54.5821468
11
14.7034397
21
54.5821468
0
LINE
8
DEFAULT_255_2_778
10
15.2220199
20
54.3043256
11
15.2220199
21
54.5821256
0
LINE
8
DEFAULT_255_2_778
10
21.1876199
20
51.3568256
11
21.1876199
21
54.3043256
0
LINE
8
DEFAULT_255_2_778
10
18.5134199
20
54.3043256
11
21.1876199
21
54.3043256
0
LINE
8
DEFAULT_255_2_778
10
15.2220199
20
51.3568256
11
15.2220199
21
54.3043256
0
LINE
8
DEFAULT_255_2_778
10
17.8961199
20
54.3043256
11
15.2220199
21
54.3043256
0
LINE
8
DEFAULT_255_2_778
10
17.8961199
20
24.7352256
11
15.2220199
21
24.7352256
0
LINE
8
DEFAULT_255_2_778
10
15.2220199
20
27.6824291
11
15.2220199
21
24.7349291
0
LINE
8
DEFAULT_255_2_778
10
18.5134199
20
24.7352291
11
21.1876199
21
24.7352291
0
LINE
8
DEFAULT_255_2_778
10
21.1875917
20
27.6824291
11
21.1875917
21
24.7349291
0
LINE
8
DEFAULT_255_2_778
10
18.5134917
20
24.7352291
11
17.8961917
21
24.7352291
0
LINE
8
DEFAULT_255_2_778
10
17.8960876
20
26.3568979
11
17.8960876
21
24.7352979
0
LINE
8
DEFAULT_255_2_778
10
18.5133876
20
26.3568979
11
18.5133876
21
24.7352979
0
LINE
8
DEFAULT_255_2_778
10
16.5713876
20
27.6824979
11
15.2219876
21
27.6824979
0
LINE
8
DEFAULT_255_2_778
10
15.2219876
20
28.3002979
11
15.2219876
21
27.6824979
0
LINE
8
DEFAULT_255_2_778
10
19.8383876
20
27.6824979
11
21.1877876
21
27.6824979
0
ARC
8
DEFAULT_255_2_778
10
18.2019553
20
27.9870268
40
1.6587387
50
190.5783903
51
257.7192884
0
ARC
8
DEFAULT_255_2_778
10
18.2037454
20
27.9966287
40
1.6685018
50
257.7293546
51
259.3785169
0
LINE
8
DEFAULT_255_2_778
10
21.1876074
20
28.3003146
11
21.1876074
21
27.6825146
0
ARC
8
DEFAULT_255_2_778
10
18.2073218
20
27.9977478
40
1.6691944
50
269.9167285
51
280.565901
0
ARC
8
DEFAULT_255_2_778
10
18.204654
20
28.0215458
40
1.6929906
50
259.509117
51
270.0081837
0
ARC
8
DEFAULT_255_2_778
10
18.2075494
20
27.9871407
40
1.6588761
50
282.2838545
51
349.4184578
0
ARC
8
DEFAULT_255_2_778
10
18.2058786
20
27.9966223
40
1.6684963
50
280.6214824
51
282.2706447
0
LINE
8
DEFAULT_255_2_778
10
16.5714125
20
28.3002968
11
15.2220125
21
28.3002968
0
LINE
8
DEFAULT_255_2_778
10
15.2220125
20
31.2474968
11
15.2220125
21
28.3002968
0
ARC
8
DEFAULT_255_2_778
10
18.2021795
20
27.9955707
40
1.6590009
50
100.6277027
51
167.7567566
0
ARC
8
DEFAULT_255_2_778
10
18.2126196
20
27.9937336
40
1.6695932
50
167.7711239
51
169.4189922
0
ARC
8
DEFAULT_255_2_778
10
18.2250448
20
27.9897196
40
1.682001
50
180.0057781
51
190.5253081
0
ARC
8
DEFAULT_255_2_778
10
18.1808739
20
27.9895499
40
1.63783
50
179.9433695
51
179.9999999
0
ARC
8
DEFAULT_255_2_778
10
18.2393138
20
27.9914103
40
1.6962691
50
169.5193076
51
180.0081589
0
LINE
8
DEFAULT_255_2_778
10
17.8960917
20
31.5252896
11
17.8960917
21
31.2474896
0
LINE
8
DEFAULT_255_2_778
10
17.8960917
20
29.6260896
11
17.8960917
21
31.2474896
0
LINE
8
DEFAULT_255_2_778
10
18.5133917
20
31.2474896
11
17.8960917
21
31.2474896
0
LINE
8
DEFAULT_255_2_778
10
15.2219917
20
31.2474896
11
17.8960917
21
31.2474896
0
LINE
8
DEFAULT_255_2_778
10
15.2219917
20
31.5253
11
17.8960917
21
31.5253
0
LINE
8
DEFAULT_255_2_778
10
18.5133917
20
31.5253
11
17.8960917
21
31.5253
0
ARC
8
DEFAULT_255_2_778
10
18.2073218
20
27.9851626
40
1.6691944
50
79.434099
51
90.0832715
0
ARC
8
DEFAULT_255_2_778
10
18.2046519
20
27.9613642
40
1.692991
50
89.9917438
51
100.4908091
0
LINE
8
DEFAULT_255_2_778
10
19.8384125
20
28.3002968
11
21.1878125
21
28.3002968
0
LINE
8
DEFAULT_255_2_778
10
21.1875125
20
31.2474968
11
21.1875125
21
28.3002968
0
ARC
8
DEFAULT_255_2_778
10
18.2073544
20
27.9954789
40
1.6591091
50
12.2456772
51
79.369576
0
ARC
8
DEFAULT_255_2_778
10
18.1969998
20
27.9934955
40
1.6696487
50
10.5889657
51
12.2368248
0
ARC
8
DEFAULT_255_2_778
10
18.1829912
20
27.9914168
40
1.6840863
50
349.4302559
51
359.9994631
0
ARC
8
DEFAULT_255_2_778
10
18.1829912
20
27.9913853
40
1.6840864
50
0.0005369
51
10.5697441
0
LINE
8
DEFAULT_255_2_778
10
18.5134199
20
31.5253145
11
18.5134199
21
31.2475145
0
LINE
8
DEFAULT_255_2_778
10
18.5134199
20
29.6261145
11
18.5134199
21
31.2475145
0
LINE
8
DEFAULT_255_2_778
10
21.1876199
20
31.2475145
11
18.5134199
21
31.2475145
0
LINE
8
DEFAULT_255_2_778
10
17.8961199
20
23.5619145
11
15.2220199
21
23.5619145
0
LINE
8
DEFAULT_255_2_778
10
15.2220282
20
23.8397145
11
15.2220282
21
23.5619145
0
LINE
8
DEFAULT_255_2_778
10
18.5134282
20
23.5619145
11
21.1875282
21
23.5619145
0
LINE
8
DEFAULT_255_2_778
10
18.5134282
20
23.5619145
11
17.8961282
21
23.5619145
0
LINE
8
DEFAULT_255_2_778
10
14.7034282
20
23.8397145
11
15.2220282
21
23.8397145
0
LINE
8
DEFAULT_255_2_778
10
15.2220282
20
31.5253145
11
15.2220282
21
31.2475145
0
LINE
8
DEFAULT_255_2_778
10
14.7034282
20
31.5253041
11
15.2220282
21
31.5253041
0
LINE
8
DEFAULT_255_2_778
10
17.8961282
20
32.4206041
11
15.2220282
21
32.4206041
0
LINE
8
DEFAULT_255_2_778
10
15.2220282
20
35.3681041
11
15.2220282
21
32.4206041
0
LINE
8
DEFAULT_255_2_778
10
18.5134282
20
32.4206041
11
21.1875282
21
32.4206041
0
LINE
8
DEFAULT_255_2_778
10
21.1875917
20
35.3681291
11
21.1875917
21
32.4206291
0
LINE
8
DEFAULT_255_2_778
10
17.8961917
20
32.4206291
11
18.5134917
21
32.4206291
0
LINE
8
DEFAULT_255_2_778
10
18.5133876
20
34.0423302
11
18.5133876
21
32.4206302
0
LINE
8
DEFAULT_255_2_778
10
17.8960876
20
34.0423302
11
17.8960876
21
32.4206302
0
LINE
8
DEFAULT_255_2_778
10
16.5713876
20
35.3681302
11
15.2219876
21
35.3681302
0
LINE
8
DEFAULT_255_2_778
10
15.2219876
20
35.9859302
11
15.2219876
21
35.3681302
0
LINE
8
DEFAULT_255_2_778
10
19.8383876
20
35.3681302
11
21.1877876
21
35.3681302
0
LINE
8
DEFAULT_255_2_778
10
21.1876199
20
35.9858979
11
21.1876199
21
35.3680979
0
LINE
8
DEFAULT_255_2_778
10
16.5714199
20
35.9858979
11
15.2220199
21
35.9858979
0
LINE
8
DEFAULT_255_2_778
10
15.2220199
20
38.9330979
11
15.2220199
21
35.9858979
0
ARC
8
DEFAULT_255_2_778
10
18.2021795
20
35.6811707
40
1.6590009
50
100.6277027
51
167.7567566
0
ARC
8
DEFAULT_255_2_778
10
18.2126196
20
35.6793336
40
1.6695932
50
167.7711239
51
169.4189922
0
ARC
8
DEFAULT_255_2_778
10
18.2250448
20
35.6754196
40
1.682001
50
180.0057781
51
190.5253081
0
ARC
8
DEFAULT_255_2_778
10
18.1808739
20
35.6752499
40
1.63783
50
179.9433695
51
179.9999999
0
ARC
8
DEFAULT_255_2_778
10
18.2393138
20
35.6771103
40
1.6962691
50
169.5193076
51
180.0081589
0
LINE
8
DEFAULT_255_2_778
10
17.8960917
20
38.9330896
11
17.8960917
21
39.2108896
0
LINE
8
DEFAULT_255_2_778
10
15.2219917
20
39.2108896
11
17.8960917
21
39.2108896
0
LINE
8
DEFAULT_255_2_778
10
18.5133917
20
39.2108896
11
17.8960917
21
39.2108896
0
LINE
8
DEFAULT_255_2_778
10
17.8960917
20
37.3116896
11
17.8960917
21
38.9330896
0
LINE
8
DEFAULT_255_2_778
10
18.5133917
20
38.9330896
11
17.8960917
21
38.9330896
0
LINE
8
DEFAULT_255_2_778
10
15.2219917
20
38.9330896
11
17.8960917
21
38.9330896
0
ARC
8
DEFAULT_255_2_778
10
18.2073218
20
35.6708626
40
1.6691944
50
79.434099
51
90.0832715
0
ARC
8
DEFAULT_255_2_778
10
18.2046519
20
35.6470642
40
1.692991
50
89.9917438
51
100.4908091
0
LINE
8
DEFAULT_255_2_778
10
19.8384125
20
35.9858968
11
21.1878125
21
35.9858968
0
LINE
8
DEFAULT_255_2_778
10
21.1875125
20
38.9330968
11
21.1875125
21
35.9858968
0
ARC
8
DEFAULT_255_2_778
10
18.2073544
20
35.6810789
40
1.6591091
50
12.2456772
51
79.369576
0
ARC
8
DEFAULT_255_2_778
10
18.1969998
20
35.6790955
40
1.6696487
50
10.5889657
51
12.2368248
0
ARC
8
DEFAULT_255_2_778
10
18.1829912
20
35.6770168
40
1.6840863
50
349.4302559
51
359.9994631
0
ARC
8
DEFAULT_255_2_778
10
18.1829912
20
35.6769853
40
1.6840864
50
0.0005369
51
10.5697441
0
LINE
8
DEFAULT_255_2_778
10
18.5134282
20
38.9330896
11
18.5134282
21
39.2108896
0
LINE
8
DEFAULT_255_2_778
10
18.5134282
20
37.3116896
11
18.5134282
21
38.9330896
0
LINE
8
DEFAULT_255_2_778
10
21.1875282
20
38.9330896
11
18.5134282
21
38.9330896
0
ARC
8
DEFAULT_255_2_778
10
18.2075494
20
35.6727407
40
1.6588761
50
282.2838545
51
349.4184578
0
ARC
8
DEFAULT_255_2_778
10
18.2058786
20
35.6822223
40
1.6684963
50
280.6214824
51
282.2706447
0
ARC
8
DEFAULT_255_2_778
10
18.20227
20
35.6831483
40
1.6691949
50
259.4340998
51
270.0832691
0
ARC
8
DEFAULT_255_2_778
10
18.2049398
20
35.7069462
40
1.692991
50
269.9917438
51
280.4908091
0
ARC
8
DEFAULT_255_2_778
10
18.2021951
20
35.6727242
40
1.6590094
50
192.242748
51
259.3684382
0
ARC
8
DEFAULT_255_2_778
10
18.2126238
20
35.6745735
40
1.6695932
50
190.5810078
51
192.2288761
0
LINE
8
DEFAULT_255_2_778
10
17.8961199
20
46.6183936
11
15.2220199
21
46.6183936
0
LINE
8
DEFAULT_255_2_778
10
15.2220199
20
46.8961936
11
15.2220199
21
46.6183936
0
LINE
8
DEFAULT_255_2_778
10
15.2220199
20
43.6711936
11
15.2220199
21
46.6183936
0
LINE
8
DEFAULT_255_2_778
10
18.5134199
20
46.6183936
11
21.1876199
21
46.6183936
0
LINE
8
DEFAULT_255_2_778
10
21.1876199
20
43.6711936
11
21.1876199
21
46.6183936
0
LINE
8
DEFAULT_255_2_778
10
18.5134199
20
46.6183936
11
17.8961199
21
46.6183936
0
ARC
8
DEFAULT_255_2_778
10
18.2020779
20
43.3666542
40
1.6588898
50
102.2876059
51
169.418883
0
ARC
8
DEFAULT_255_2_778
10
18.2037844
20
43.3567026
40
1.6689768
50
100.623678
51
102.2721409
0
LINE
8
DEFAULT_255_2_778
10
17.8960959
20
44.9970718
11
17.8960959
21
46.6187718
0
LINE
8
DEFAULT_255_2_778
10
18.5133959
20
44.9970718
11
18.5133959
21
46.6187718
0
LINE
8
DEFAULT_255_2_778
10
14.7033959
20
46.8962718
11
15.2219959
21
46.8962718
0
LINE
8
DEFAULT_255_2_778
10
16.5713959
20
43.6715718
11
15.2219959
21
43.6715718
0
LINE
8
DEFAULT_255_2_778
10
15.2219959
20
43.0537718
11
15.2219959
21
43.6715718
0
LINE
8
DEFAULT_255_2_778
10
19.8383959
20
43.6715718
11
21.1877959
21
43.6715718
0
LINE
8
DEFAULT_255_2_778
10
21.1874959
20
43.0537718
11
21.1874959
21
43.6715718
0
ARC
8
DEFAULT_255_2_778
10
18.2049133
20
43.3302133
40
1.695442
50
79.5167455
51
90.0005903
0
ARC
8
DEFAULT_255_2_778
10
18.2046519
20
43.3326642
40
1.692991
50
89.9917438
51
100.4908091
0
ARC
8
DEFAULT_255_2_778
10
18.2073658
20
43.3665674
40
1.6589979
50
10.583836
51
77.7099624
0
ARC
8
DEFAULT_255_2_778
10
18.205513
20
43.3567011
40
1.6690325
50
77.7199116
51
79.3683652
0
ARC
8
DEFAULT_255_2_778
10
18.2393222
20
43.3622414
40
1.6962827
50
179.9918657
51
190.4806332
0
ARC
8
DEFAULT_255_2_778
10
18.1808687
20
43.3641011
40
1.63783
50
180.0000001
51
180.0566305
0
ARC
8
DEFAULT_255_2_778
10
18.2269363
20
43.3638568
40
1.6838976
50
169.4806377
51
179.9916883
0
ARC
8
DEFAULT_255_2_778
10
18.1829912
20
43.3626168
40
1.6840863
50
349.4302559
51
359.9994631
0
ARC
8
DEFAULT_255_2_778
10
18.1829912
20
43.3625853
40
1.6840864
50
0.0005369
51
10.5697441
0
LINE
8
DEFAULT_255_2_778
10
18.5134917
20
41.7279156
11
18.5134917
21
40.1063156
0
LINE
8
DEFAULT_255_2_778
10
21.1875917
20
40.1063156
11
18.5134917
21
40.1063156
0
LINE
8
DEFAULT_255_2_778
10
17.8961917
20
40.1063156
11
18.5134917
21
40.1063156
0
ARC
8
DEFAULT_255_2_778
10
18.2075494
20
43.3583407
40
1.6588761
50
282.2838545
51
349.4184578
0
ARC
8
DEFAULT_255_2_778
10
18.2058786
20
43.3678223
40
1.6684963
50
280.6214824
51
282.2706447
0
ARC
8
DEFAULT_255_2_778
10
18.20227
20
43.3687483
40
1.6691949
50
259.4340998
51
270.0832691
0
ARC
8
DEFAULT_255_2_778
10
18.2049398
20
43.3925462
40
1.692991
50
269.9917438
51
280.4908091
0
ARC
8
DEFAULT_255_2_778
10
18.2019404
20
43.3582412
40
1.6587454
50
192.2369522
51
259.3745455
0
ARC
8
DEFAULT_255_2_778
10
18.2130648
20
43.3603616
40
1.6700666
50
190.579521
51
192.2271531
0
LINE
8
DEFAULT_255_2_778
10
19.8383876
20
43.0537374
11
21.1877876
21
43.0537374
0
LINE
8
DEFAULT_255_2_778
10
21.1875876
20
40.1062374
11
21.1875876
21
43.0537374
0
LINE
8
DEFAULT_255_2_778
10
16.5713876
20
43.0537374
11
15.2219876
21
43.0537374
0
LINE
8
DEFAULT_255_2_778
10
15.2219876
20
40.1062374
11
15.2219876
21
43.0537374
0
LINE
8
DEFAULT_255_2_778
10
17.8960876
20
41.7279374
11
17.8960876
21
40.1062374
0
LINE
8
DEFAULT_255_2_778
10
15.2219876
20
40.1062374
11
17.8960876
21
40.1062374
0
LINE
8
DEFAULT_255_2_778
10
18.5133876
20
47.7918374
11
21.1875876
21
47.7918374
0
LINE
8
DEFAULT_255_2_778
10
21.1875876
20
50.7393374
11
21.1875876
21
47.7918374
0
LINE
8
DEFAULT_255_2_778
10
17.8960876
20
47.7918374
11
15.2219876
21
47.7918374
0
LINE
8
DEFAULT_255_2_778
10
15.2219917
20
50.7393291
11
15.2219917
21
47.7918291
0
LINE
8
DEFAULT_255_2_778
10
18.5133917
20
47.7918291
11
17.8960917
21
47.7918291
0
LINE
8
DEFAULT_255_2_778
10
17.8961199
20
49.4134979
11
17.8961199
21
47.7918979
0
LINE
8
DEFAULT_255_2_778
10
18.5134199
20
49.4134979
11
18.5134199
21
47.7918979
0
LINE
8
DEFAULT_255_2_778
10
21.1876199
20
51.3568979
11
21.1876199
21
50.7390979
0
LINE
8
DEFAULT_255_2_778
10
19.8382199
20
50.7393979
11
21.1876199
21
50.7393979
0
LINE
8
DEFAULT_255_2_778
10
16.5714199
20
50.7393979
11
15.2220199
21
50.7393979
0
ARC
8
DEFAULT_255_2_778
10
18.2022142
20
51.0439859
40
1.6589896
50
190.5799822
51
257.7094653
0
ARC
8
DEFAULT_255_2_778
10
18.2040547
20
51.0538635
40
1.6690325
50
257.7199116
51
259.3683652
0
LINE
8
DEFAULT_255_2_778
10
15.2220282
20
51.3568823
11
15.2220282
21
50.7390823
0
ARC
8
DEFAULT_255_2_778
10
18.2073218
20
51.0543478
40
1.6691944
50
269.9167285
51
280.565901
0
ARC
8
DEFAULT_255_2_778
10
18.204654
20
51.0781458
40
1.6929906
50
259.509117
51
270.0081837
0
ARC
8
DEFAULT_255_2_778
10
18.2075494
20
51.0439407
40
1.6588761
50
282.2838545
51
349.4184578
0
ARC
8
DEFAULT_255_2_778
10
18.2058786
20
51.0534223
40
1.6684963
50
280.6214824
51
282.2706447
0
ARC
8
DEFAULT_255_2_778
10
18.2392903
20
51.0483406
40
1.6962579
50
169.5192903
51
180.0082111
0
ARC
8
DEFAULT_255_2_778
10
18.1808615
20
51.0464787
40
1.63783
50
179.9433695
51
179.9999999
0
ARC
8
DEFAULT_255_2_778
10
18.2250325
20
51.0466483
40
1.6820009
50
180.0057781
51
190.5253081
0
LINE
8
DEFAULT_255_2_778
10
15.2220323
20
39.2108975
11
15.2220323
21
38.9330975
0
LINE
8
DEFAULT_255_2_778
10
14.7034323
20
39.2108975
11
15.2220323
21
39.2108975
0
LINE
8
DEFAULT_255_2_778
10
14.7034323
20
31.5252975
11
14.1078323
21
31.5252975
0
LINE
8
DEFAULT_255_2_778
10
14.7034323
20
23.8396975
11
14.1078323
21
23.8396975
0
LINE
8
DEFAULT_255_2_778
10
14.7034323
20
46.8962975
11
14.1078323
21
46.8962975
0
LINE
8
DEFAULT_255_2_778
10
14.7034323
20
39.2108975
11
14.1078323
21
39.2108975
0
LINE
8
DEFAULT_255_2_778
10
16.5713323
20
51.3568975
11
15.2220323
21
51.3568975
0
ARC
8
DEFAULT_255_2_778
10
18.2021795
20
51.0521707
40
1.6590009
50
100.6277027
51
167.7567566
0
ARC
8
DEFAULT_255_2_778
10
18.2126196
20
51.0503336
40
1.6695932
50
167.7711239
51
169.4189922
0
ARC
8
DEFAULT_255_2_778
10
18.1879075
20
51.0479928
40
1.678902
50
359.9991433
51
10.6000381
0
ARC
8
DEFAULT_255_2_778
10
18.115316
20
51.0479677
40
1.7514934
50
359.9051526
51
360
0
ARC
8
DEFAULT_255_2_778
10
18.1866976
20
51.04798
40
1.6801118
50
349.4037818
51
359.9007016
0
LINE
8
DEFAULT_255_2_778
10
19.8384594
20
51.3568302
11
21.1878594
21
51.3568302
0
LINE
8
DEFAULT_255_2_778
10
18.5134594
20
52.6827302
11
18.5134594
21
54.3043302
0
LINE
8
DEFAULT_255_2_778
10
17.8961594
20
54.3043302
11
18.5134594
21
54.3043302
0
ARC
8
DEFAULT_255_2_778
10
18.2073544
20
51.0520789
40
1.6591091
50
12.2456772
51
79.369576
0
ARC
8
DEFAULT_255_2_778
10
18.1969998
20
51.0500955
40
1.6696487
50
10.5889657
51
12.2368248
0
LINE
8
DEFAULT_255_2_778
10
17.8962
20
52.6827156
11
17.8962
21
54.3043156
0
ARC
8
DEFAULT_255_2_778
10
18.2049133
20
51.0155133
40
1.695442
50
79.5167455
51
90.0005903
0
ARC
8
DEFAULT_255_2_778
10
18.2046519
20
51.0179642
40
1.692991
50
89.9917438
51
100.4908091
0
ARC
8
DEFAULT_255_2_778
10
3.9493967
20
66.3090961
40
0.7151799
50
68.2229318
51
91.0842469
0
ARC
8
DEFAULT_255_2_778
10
4.0103429
20
66.4824719
40
0.5316225
50
43.5789548
51
67.3903285
0
ARC
8
DEFAULT_255_2_778
10
3.9486057
20
66.4323206
40
0.6109504
50
4.4376566
51
42.9948853
0
ARC
8
DEFAULT_255_2_778
10
3.6473939
20
66.3846215
40
0.915271
50
359.9014903
51
5.9558832
0
ARC
8
DEFAULT_255_2_778
10
3.726206
20
66.3700847
40
0.8365581
50
342.9302789
51
0.8878816
0
ARC
8
DEFAULT_255_2_778
10
4.0255185
20
66.2801496
40
0.5240351
50
316.1553838
51
342.7241307
0
ARC
8
DEFAULT_255_2_778
10
4.0091299
20
66.31338
40
0.5590161
50
278.0334821
51
314.8624193
0
ARC
8
DEFAULT_255_2_778
10
3.9397453
20
66.6435712
40
0.8959477
50
270.9540708
51
279.4762714
0
ARC
8
DEFAULT_255_2_778
10
3.9495493
20
66.3564343
40
0.3826312
50
267.9502574
51
300.266178
0
ARC
8
DEFAULT_255_2_778
10
3.9886323
20
66.2717923
40
0.2899647
50
302.0261079
51
318.3394077
0
ARC
8
DEFAULT_255_2_778
10
3.9130173
20
66.3246693
40
0.3817563
50
319.9542886
51
354.3545302
0
ARC
8
DEFAULT_255_2_778
10
3.6087755
20
66.3775159
40
0.6900932
50
352.4727177
51
0.2185204
0
ARC
8
DEFAULT_255_2_778
10
3.7928648
20
66.3934861
40
0.5061747
50
358.4900206
51
25.1226979
0
ARC
8
DEFAULT_255_2_778
10
3.9210772
20
66.444354
40
0.3685898
50
26.4251016
51
40.2579772
0
ARC
8
DEFAULT_255_2_778
10
3.9530504
20
66.4674449
40
0.3292816
50
40.7870332
51
92.7479832
0
ARC
8
DEFAULT_255_2_778
10
5.7262663
20
65.8087611
40
2.42793
50
353.4189255
51
0.2970317
0
ARC
8
DEFAULT_255_2_778
10
6.797043
20
65.6807839
40
1.3495489
50
342.9545634
51
353.6062945
0
ARC
8
DEFAULT_255_2_778
10
7.3540775
20
65.5109544
40
0.7672018
50
330.025382
51
342.8862854
0
ARC
8
DEFAULT_255_2_778
10
7.6214435
20
65.354722
40
0.457544
50
266.6734799
51
330.2452125
0
ARC
8
DEFAULT_255_2_778
10
7.5940462
20
65.4302121
40
0.532264
50
269.9695857
51
270.0912543
0
ARC
8
DEFAULT_255_2_778
10
7.5683523
20
65.3582954
40
0.4610483
50
211.3616971
51
273.1595433
0
ARC
8
DEFAULT_255_2_778
10
7.8612881
20
65.5335917
40
0.8024217
50
194.0397629
51
211.163922
0
ARC
8
DEFAULT_255_2_778
10
8.5611029
20
65.7190546
40
1.5263576
50
184.5695131
51
194.4208069
0
ARC
8
DEFAULT_255_2_778
10
9.472004
20
65.8064796
40
2.4413718
50
180.5945131
51
184.9116179
0
ARC
8
DEFAULT_255_2_778
10
9.3973347
20
66.1538291
40
2.3666045
50
173.3072918
51
180.304593
0
ARC
8
DEFAULT_255_2_778
10
8.3431979
20
66.2822694
40
1.3046904
50
162.485729
51
173.5141964
0
ARC
8
DEFAULT_255_2_778
10
7.8057553
20
66.4503932
40
0.7415683
50
149.4748587
51
162.3767974
0
ARC
8
DEFAULT_255_2_778
10
7.5630318
20
66.5946255
40
0.4592277
50
87.0243029
51
149.5945502
0
ARC
8
DEFAULT_255_2_778
10
7.5913271
20
66.3339638
40
0.7192841
50
89.9970891
51
90.3549328
0
ARC
8
DEFAULT_255_2_778
10
7.6053495
20
66.5249712
40
0.5284618
50
62.4640856
51
91.5165135
0
ARC
8
DEFAULT_255_2_778
10
7.6338462
20
66.606699
40
0.4429946
50
31.5735763
51
60.8452833
0
ARC
8
DEFAULT_255_2_778
10
7.3447054
20
66.431223
40
0.7812138
50
14.2189423
51
31.4348039
0
ARC
8
DEFAULT_255_2_778
10
6.6506719
20
66.2447297
40
1.4998283
50
4.7699186
51
14.6126506
0
ARC
8
DEFAULT_255_2_778
10
5.7445069
20
66.1545074
40
2.4104013
50
0.8163089
51
5.1159669
0
ARC
8
DEFAULT_255_2_778
10
5.7188542
20
66.1978028
40
2.1802433
50
359.6805725
51
5.8227827
0
ARC
8
DEFAULT_255_2_778
10
6.8647807
20
66.3201825
40
1.0278284
50
5.5166409
51
16.1559591
0
ARC
8
DEFAULT_255_2_778
10
7.3377455
20
66.4520467
40
0.5368731
50
16.6839417
51
24.6835097
0
ARC
8
DEFAULT_255_2_778
10
7.5966173
20
66.5890238
40
0.2449989
50
20.855873
51
91.415861
0
ARC
8
DEFAULT_255_2_778
10
7.5858123
20
66.5921593
40
0.2418353
50
88.8742261
51
158.9181071
0
ARC
8
DEFAULT_255_2_778
10
7.9870424
20
66.3960287
40
0.6878469
50
155.6944857
51
170.1688859
0
ARC
8
DEFAULT_255_2_778
10
8.8153066
20
66.2411821
40
1.5304284
50
169.75141
51
177.9296102
0
ARC
8
DEFAULT_255_2_778
10
9.7170773
20
66.1905802
40
2.4335049
50
177.5060327
51
179.503965
0
ARC
8
DEFAULT_255_2_778
10
9.3718336
20
65.7671943
40
2.0882065
50
179.6610439
51
186.3128319
0
ARC
8
DEFAULT_255_2_778
10
8.2995537
20
65.6431742
40
1.0088059
50
186.0082053
51
197.3689767
0
ARC
8
DEFAULT_255_2_778
10
7.8790588
20
65.5184193
40
0.570279
50
198.0181764
51
204.5088939
0
ARC
8
DEFAULT_255_2_778
10
7.6246822
20
65.3882586
40
0.2851198
50
201.913977
51
239.7889304
0
ARC
8
DEFAULT_255_2_778
10
7.5896571
20
65.3509692
40
0.2355523
50
242.5883773
51
270.9259575
0
ARC
8
DEFAULT_255_2_778
10
7.5966966
20
65.3565832
40
0.241157
50
269.2318682
51
339.5557017
0
ARC
8
DEFAULT_255_2_778
10
7.1788698
20
65.5579699
40
0.7043085
50
336.0753242
51
350.4723071
0
ARC
8
DEFAULT_255_2_778
10
6.3105057
20
65.7173756
40
1.5871368
50
349.9859779
51
357.713843
0
ARC
8
DEFAULT_255_2_778
10
5.3445219
20
65.7730096
40
2.5546278
50
357.3312981
51
359.5298598
0
ARC
8
DEFAULT_255_2_778
10
6.9717421
20
67.4910217
40
2.6411868
50
323.2449437
51
327.635189
0
ARC
8
DEFAULT_255_2_778
10
8.2523985
20
66.685358
40
1.1282045
50
327.3794143
51
335.1282392
0
ARC
8
DEFAULT_255_2_778
10
8.7289675
20
66.4566877
40
0.5997016
50
335.7991243
51
0.2445976
0
ARC
8
DEFAULT_255_2_778
10
8.842572
20
66.4723361
40
0.4862679
50
358.4576648
51
24.5441784
0
ARC
8
DEFAULT_255_2_778
10
8.9750965
20
66.5237013
40
0.3444818
50
25.9291367
51
36.8194902
0
ARC
8
DEFAULT_255_2_778
10
9.0513302
20
66.5903863
40
0.2436122
50
35.0090077
51
91.1681647
0
ARC
8
DEFAULT_255_2_778
10
9.0306149
20
66.5372549
40
0.2971107
50
86.961537
51
141.1697262
0
ARC
8
DEFAULT_255_2_778
10
9.129202
20
66.478419
40
0.4111125
50
143.3976791
51
172.5815539
0
ARC
8
DEFAULT_255_2_778
10
9.4967932
20
66.4105311
40
0.7846435
50
171.1313218
51
180.341974
0
ARC
8
DEFAULT_255_2_778
10
9.2451128
20
66.4193321
40
0.7881645
50
159.1386138
51
180.9802823
0
ARC
8
DEFAULT_255_2_778
10
9.0579316
20
66.4825656
40
0.5907843
50
138.4848763
51
158.404579
0
ARC
8
DEFAULT_255_2_778
10
9.0144662
20
66.5156471
40
0.5363264
50
90.4022723
51
138.0533966
0
ARC
8
DEFAULT_255_2_778
10
9.0461173
20
66.255886
40
0.7968617
50
89.9822876
51
92.5473608
0
ARC
8
DEFAULT_255_2_778
10
9.0601959
20
66.4689131
40
0.5839986
50
64.4376365
51
91.3572031
0
ARC
8
DEFAULT_255_2_778
10
9.105911
20
66.5859551
40
0.4587808
50
43.0692195
51
63.2807832
0
ARC
8
DEFAULT_255_2_778
10
9.0401536
20
66.5338071
40
0.542472
50
3.6121248
51
42.3500531
0
ARC
8
DEFAULT_255_2_778
10
8.7602513
20
66.4919001
40
0.8248134
50
359.9199617
51
5.2926845
0
ARC
8
DEFAULT_255_2_778
10
8.8065872
20
66.5036607
40
0.7785836
50
339.4433185
51
359.0497059
0
ARC
8
DEFAULT_255_2_778
10
8.2082743
20
66.7170771
40
1.4137741
50
328.9613131
51
339.859159
0
ARC
8
DEFAULT_255_2_778
10
7.3666202
20
67.2134787
40
2.3908881
50
322.39873
51
329.1684707
0
ARC
8
DEFAULT_255_2_778
10
11.9632932
20
65.6324075
40
1.0409454
50
342.4945421
51
357.7889847
0
ARC
8
DEFAULT_255_2_778
10
12.3588203
20
65.5058653
40
0.6256747
50
316.6725432
51
342.6510069
0
ARC
8
DEFAULT_255_2_778
10
12.4008242
20
65.4859407
40
0.5816242
50
277.62701
51
315.260979
0
ARC
8
DEFAULT_255_2_778
10
12.3317281
20
65.8323275
40
0.9343886
50
269.7507743
51
279.0075041
0
ARC
8
DEFAULT_255_2_778
10
12.3071601
20
65.4988667
40
0.6012685
50
216.8886848
51
271.9541908
0
ARC
8
DEFAULT_255_2_778
10
12.5072867
20
65.6508573
40
0.8525658
50
192.084654
51
216.9850681
0
ARC
8
DEFAULT_255_2_778
10
13.0422395
20
65.7752219
40
1.4017333
50
179.4813744
51
192.4775725
0
LINE
8
DEFAULT_255_2_778
10
11.6405637
20
65.7879098
11
11.6405637
21
65.7882479
0
ARC
8
DEFAULT_255_2_778
10
12.9953882
20
66.1814267
40
1.3548867
50
167.1341673
51
180.5488615
0
ARC
8
DEFAULT_255_2_778
10
12.4860194
20
66.3031446
40
0.8312198
50
141.9603357
51
167.4954626
0
ARC
8
DEFAULT_255_2_778
10
12.3241091
20
66.423713
40
0.6294251
50
88.390759
51
141.5222637
0
ARC
8
DEFAULT_255_2_778
10
12.3520644
20
66.1451497
40
0.9077984
50
90.0000485
51
90.6487903
0
ARC
8
DEFAULT_255_2_778
10
12.3652413
20
66.3107002
40
0.7423647
50
69.7929918
51
91.0171014
0
ARC
8
DEFAULT_255_2_778
10
12.4348954
20
66.5172632
40
0.5244901
50
42.3585529
51
69.1394374
0
ARC
8
DEFAULT_255_2_778
10
12.3265452
20
66.4330188
40
0.6614033
50
13.1937312
51
41.4271696
0
ARC
8
DEFAULT_255_2_778
10
11.8734366
20
66.3115212
40
1.1303805
50
1.9481165
51
13.9475265
0
ARC
8
DEFAULT_255_2_778
10
11.6510544
20
66.2890418
40
1.0874163
50
3.2108091
51
13.6791735
0
ARC
8
DEFAULT_255_2_778
10
12.2621245
20
66.4444192
40
0.4569803
50
12.8690438
51
34.2949582
0
ARC
8
DEFAULT_255_2_778
10
12.4117783
20
66.5363556
40
0.2816666
50
35.9977886
51
39.6135345
0
ARC
8
DEFAULT_255_2_778
10
12.3930903
20
66.5102378
40
0.3128235
50
41.1164313
51
87.0227043
0
ARC
8
DEFAULT_255_2_778
10
12.3533961
20
66.2671747
40
0.5582745
50
84.2489797
51
90.1162201
0
ARC
8
DEFAULT_255_2_778
10
12.3359109
20
66.4494011
40
0.3764022
50
87.5100071
51
146.409319
0
ARC
8
DEFAULT_255_2_778
10
12.5338106
20
66.3216566
40
0.611938
50
146.6973831
51
168.5045053
0
ARC
8
DEFAULT_255_2_778
10
13.1208882
20
66.1897398
40
1.2135907
50
167.925141
51
179.2985076
0
ARC
8
DEFAULT_255_2_778
10
13.6487325
20
66.1661308
40
1.7417689
50
178.7345182
51
180.009307
0
ARC
8
DEFAULT_255_2_778
10
13.2854351
20
65.7686172
40
1.3785283
50
179.4791785
51
189.9255786
0
ARC
8
DEFAULT_255_2_778
10
12.6189405
20
65.6463185
40
0.7009514
50
189.4690316
51
208.278329
0
ARC
8
DEFAULT_255_2_778
10
12.4303398
20
65.5554089
40
0.4918778
50
209.3605866
51
212.2758867
0
ARC
8
DEFAULT_255_2_778
10
12.3136774
20
65.470084
40
0.3478174
50
210.6541043
51
272.3045708
0
ARC
8
DEFAULT_255_2_778
10
12.3400258
20
65.661146
40
0.53874
50
268.6851533
51
288.340721
0
ARC
8
DEFAULT_255_2_778
10
12.4216831
20
65.409775
40
0.2744479
50
288.6724349
51
317.6660236
0
ARC
8
DEFAULT_255_2_778
10
12.3338845
20
65.4640359
40
0.3763741
50
320.562194
51
344.3133849
0
ARC
8
DEFAULT_255_2_778
10
11.7712427
20
65.6400965
40
0.9658192
50
343.2823628
51
354.2030669
0
ARC
8
DEFAULT_255_2_778
10
11.1621712
20
65.7205404
40
1.5800095
50
353.5316643
51
355.3426091
0
LINE
8
DEFAULT_255_2_778
10
3.9546637
20
65.7477479
11
3.5310637
21
65.7477479
0
LINE
8
DEFAULT_255_2_778
10
3.5310637
20
65.7477479
11
3.5310637
21
64.9265479
0
LINE
8
DEFAULT_255_2_778
10
3.5310637
20
64.9265479
11
3.2675637
21
64.9265479
0
LINE
8
DEFAULT_255_2_778
10
3.2675637
20
64.9265479
11
3.2675637
21
67.0241479
0
LINE
8
DEFAULT_255_2_778
10
3.2675637
20
67.0241479
11
3.9358637
21
67.0241479
0
LINE
8
DEFAULT_255_2_778
10
3.9546637
20
65.7477479
11
3.9546637
21
65.7477479
0
LINE
8
DEFAULT_255_2_778
10
3.5310637
20
66.7966479
11
3.5310637
21
65.9740479
0
LINE
8
DEFAULT_255_2_778
10
3.5310637
20
65.9740479
11
3.9358637
21
65.9740479
0
LINE
8
DEFAULT_255_2_778
10
3.9372637
20
66.7963479
11
3.5310637
21
66.7963479
0
LINE
8
DEFAULT_255_2_778
10
3.5310637
20
66.7963479
11
3.5310637
21
66.7966479
0
LINE
8
DEFAULT_255_2_778
10
5.6040637
20
67.0342479
11
5.6040637
21
64.9265479
0
LINE
8
DEFAULT_255_2_778
10
5.6040637
20
64.9265479
11
5.3477637
21
64.9265479
0
LINE
8
DEFAULT_255_2_778
10
5.3477637
20
64.9265479
11
5.3477637
21
66.7029479
0
LINE
8
DEFAULT_255_2_778
10
5.3477637
20
66.7029479
11
4.9069637
21
66.5055479
0
LINE
8
DEFAULT_255_2_778
10
4.9069637
20
66.5055479
11
4.9069637
21
66.7476479
0
LINE
8
DEFAULT_255_2_778
10
4.9069637
20
66.7476479
11
5.5638637
21
67.0344479
0
LINE
8
DEFAULT_255_2_778
10
5.5638637
20
67.0344479
11
5.6040637
21
67.0344479
0
LINE
8
DEFAULT_255_2_778
10
5.6040637
20
67.0344479
11
5.6040637
21
67.0342479
0
LINE
8
DEFAULT_255_2_778
10
6.7957637
20
65.9263479
11
6.7957637
21
65.7089479
0
LINE
8
DEFAULT_255_2_778
10
6.7957637
20
65.7089479
11
6.2007637
21
65.7089479
0
LINE
8
DEFAULT_255_2_778
10
6.2007637
20
65.7089479
11
6.2007637
21
65.9263479
0
LINE
8
DEFAULT_255_2_778
10
6.2007637
20
65.9263479
11
6.7957637
21
65.9263479
0
LINE
8
DEFAULT_255_2_778
10
6.7957637
20
65.9263479
11
6.7957637
21
65.9263479
0
LINE
8
DEFAULT_255_2_778
10
8.1541637
20
66.1885479
11
8.1541637
21
65.8213479
0
LINE
8
DEFAULT_255_2_778
10
7.0307637
20
65.7811479
11
7.0307637
21
66.1412479
0
LINE
8
DEFAULT_255_2_778
10
8.1546637
20
66.1888479
11
8.1541637
21
66.1885479
0
LINE
8
DEFAULT_255_2_778
10
7.8990637
20
65.7520479
11
7.8990637
21
66.1856479
0
LINE
8
DEFAULT_255_2_778
10
7.2836637
20
66.2116479
11
7.2836637
21
65.7795479
0
LINE
8
DEFAULT_255_2_778
10
7.8990637
20
65.7520479
11
7.8990637
21
65.7520479
0
LINE
8
DEFAULT_255_2_778
10
9.6625637
20
65.1440479
11
9.6625637
21
64.9265479
0
LINE
8
DEFAULT_255_2_778
10
9.6625637
20
64.9265479
11
8.4898637
21
64.9265479
0
LINE
8
DEFAULT_255_2_778
10
8.4898637
20
64.9265479
11
8.4898637
21
65.1180479
0
LINE
8
DEFAULT_255_2_778
10
8.4898637
20
65.1180479
11
9.0878637
21
65.9105479
0
LINE
8
DEFAULT_255_2_778
10
8.7121637
20
66.4058479
11
8.4570637
21
66.4058479
0
LINE
8
DEFAULT_255_2_778
10
9.2608637
20
65.7546479
11
8.7941637
21
65.1437479
0
LINE
8
DEFAULT_255_2_778
10
8.7941637
20
65.1437479
11
9.6627637
21
65.1437479
0
LINE
8
DEFAULT_255_2_778
10
9.6627637
20
65.1437479
11
9.6625637
21
65.1440479
0
LINE
8
DEFAULT_255_2_778
10
11.1478637
20
64.9265479
11
10.9822637
21
65.4739479
0
LINE
8
DEFAULT_255_2_778
10
10.9822637
20
65.4739479
11
10.2734637
21
65.4739479
0
LINE
8
DEFAULT_255_2_778
10
10.2734637
20
65.4739479
11
10.1107637
21
64.9265479
0
LINE
8
DEFAULT_255_2_778
10
10.1107637
20
64.9265479
11
9.8397637
21
64.9265479
0
LINE
8
DEFAULT_255_2_778
10
9.8397637
20
64.9265479
11
10.5155637
21
67.0241479
0
LINE
8
DEFAULT_255_2_778
10
10.5155637
20
67.0241479
11
10.7417637
21
67.0241479
0
LINE
8
DEFAULT_255_2_778
10
10.7417637
20
67.0241479
11
11.4188637
21
64.9265479
0
LINE
8
DEFAULT_255_2_778
10
11.4188637
20
64.9265479
11
11.1478637
21
64.9265479
0
LINE
8
DEFAULT_255_2_778
10
11.1478637
20
64.9265479
11
11.1478637
21
64.9265479
0
LINE
8
DEFAULT_255_2_778
10
10.6277637
20
66.6553479
11
10.3425637
21
65.7014479
0
LINE
8
DEFAULT_255_2_778
10
10.3425637
20
65.7014479
11
10.9145637
21
65.7014479
0
LINE
8
DEFAULT_255_2_778
10
10.9145637
20
65.7014479
11
10.6277637
21
66.6553479
0
LINE
8
DEFAULT_255_2_778
10
10.6277637
20
66.6553479
11
10.6277637
21
66.6553479
0
LINE
8
DEFAULT_255_2_778
10
12.7369637
20
65.5922479
11
13.0034637
21
65.5922479
0
LINE
8
DEFAULT_255_2_778
10
11.6405637
20
65.7882479
11
11.6405637
21
66.1684479
0
LINE
8
DEFAULT_255_2_778
10
13.0031637
20
66.3499479
11
12.7367637
21
66.3499479
0
LINE
8
DEFAULT_255_2_778
10
11.9069637
20
66.1658479
11
11.9069637
21
65.7811479
0
LINE
8
DEFAULT_255_2_778
10
12.7369637
20
65.5922479
11
12.7369637
21
65.5922479
0
ARC
8
DEFAULT_255_2_778
10
23.3259107
20
20.9772259
40
0.9964183
50
359.9169263
51
41.6191447
0
ARC
8
DEFAULT_255_2_778
10
23.3234751
20
20.9783792
40
0.9974763
50
41.4767055
51
88.2290085
0
ARC
8
DEFAULT_255_2_778
10
23.3223043
20
20.9571979
40
1.0186836
50
88.2000019
51
89.9592945
0
ARC
8
DEFAULT_255_2_778
10
12.1311722
20
20.9767724
40
0.9991088
50
90.002537
51
135.0217127
0
ARC
8
DEFAULT_255_2_778
10
12.1320562
20
20.9760733
40
1.0002283
50
135.0291774
51
179.9951113
0
LINE
8
DEFAULT_255_2_778
10
11.1318279
20
20.9761586
11
11.131828
21
20.9757812
0
ARC
8
DEFAULT_255_2_778
10
1.2249162
20
56.3217188
40
0.6326392
50
269.9574076
51
270.1278581
0
ARC
8
DEFAULT_255_2_778
10
1.2244664
20
56.6862382
40
0.9971588
50
224.9723142
51
269.9988226
0
ARC
8
DEFAULT_255_2_778
10
1.22426
20
56.686552
40
0.9972347
50
179.990364
51
224.9934476
0
ARC
8
DEFAULT_255_2_778
10
1.1404311
20
56.6868003
40
0.9134057
50
179.8631962
51
180.0050566
0
ARC
8
DEFAULT_255_2_778
10
1.2249157
20
58.1222258
40
0.6331461
50
269.9574257
51
270.1278038
0
ARC
8
DEFAULT_255_2_778
10
1.2243903
20
58.4862964
40
0.997217
50
224.9737063
51
270.0031527
0
ARC
8
DEFAULT_255_2_778
10
1.2243836
20
58.4865045
40
0.9973593
50
179.9976656
51
224.9824366
0
ARC
8
DEFAULT_255_2_778
10
1.1923327
20
58.4866182
40
0.9653082
50
179.8478721
51
180.0043359
0
ARC
8
DEFAULT_255_2_778
10
34.2616233
20
56.6866182
40
0.9653081
50
359.9956641
51
0.1521279
0
ARC
8
DEFAULT_255_2_778
10
34.2299783
20
56.6864364
40
0.9969532
50
315.0079031
51
0.0062486
0
ARC
8
DEFAULT_255_2_778
10
34.2294013
20
56.6864517
40
0.9973722
50
270.00048
51
315.0307165
0
ARC
8
DEFAULT_255_2_778
10
34.2289395
20
56.3216062
40
0.6325269
50
269.8721419
51
270.0425924
0
ARC
8
DEFAULT_255_2_778
10
34.2180107
20
75.7404259
40
0.9964183
50
359.9169263
51
41.6191447
0
ARC
8
DEFAULT_255_2_778
10
34.2155751
20
75.7415792
40
0.9974763
50
41.4767055
51
88.2290085
0
ARC
8
DEFAULT_255_2_778
10
34.2144043
20
75.7203979
40
1.0186836
50
88.2000019
51
89.9592945
0
ARC
8
DEFAULT_255_2_778
10
1.2263722
20
75.7399725
40
0.9991087
50
90.0025354
51
135.0217133
0
ARC
8
DEFAULT_255_2_778
10
1.2272562
20
75.7392733
40
1.0002283
50
135.0291774
51
179.9951113
0
LINE
8
DEFAULT_255_2_778
10
0.2270279
20
75.7393586
11
0.227028
21
75.7389812
0
ARC
8
DEFAULT_255_2_778
10
1.2234486
20
0.7374265
40
0.9964217
50
179.9163525
51
221.6220493
0
ARC
8
DEFAULT_255_2_778
10
1.226083
20
0.7364565
40
0.9977499
50
221.4799266
51
268.2181926
0
ARC
8
DEFAULT_255_2_778
10
1.2272408
20
0.7578382
40
1.0191574
50
268.1905123
51
269.9486843
0
ARC
8
DEFAULT_255_2_778
10
34.2284053
20
0.7351524
40
0.9964713
50
269.9668023
51
311.6696697
0
ARC
8
DEFAULT_255_2_778
10
34.2294128
20
0.737675
40
0.9976887
50
311.5301359
51
358.2729756
0
ARC
8
DEFAULT_255_2_778
10
34.2082528
20
0.7388651
40
1.0188753
50
358.241943
51
0.0009086
0
ARC
8
DEFAULT_255_2_778
10
1.2397512
20
75.7391336
40
1.0003233
50
135.0233142
51
180.0087286
0
ARC
8
DEFAULT_255_2_778
10
1.2388721
20
75.7399726
40
0.9991086
50
90.0025321
51
135.0217144
0
ARC
8
DEFAULT_255_2_778
10
1.2382711
20
0.7356503
40
0.9966692
50
228.3354935
51
270.0320154
0
ARC
8
DEFAULT_255_2_778
10
1.2369856
20
0.7379466
40
0.9975333
50
181.731089
51
228.478329
0
ARC
8
DEFAULT_255_2_778
10
1.2579386
20
0.7390651
40
1.0185106
50
179.9990914
51
181.7583732
0
ARC
8
DEFAULT_255_2_778
10
12.4414915
20
20.9917476
40
0.9977667
50
119.9721648
51
179.9967983
0
ARC
8
DEFAULT_255_2_778
10
12.4378609
20
20.9918036
40
0.9941361
50
180.000012
51
180.1453748
0
ARC
8
DEFAULT_255_2_778
10
11.4447647
20
20.9931815
40
0.9962
50
48.3287066
51
90.0423711
0
ARC
8
DEFAULT_255_2_778
10
11.4456264
20
20.990442
40
0.9976763
50
1.7293418
51
48.4702713
0
ARC
8
DEFAULT_255_2_778
10
11.424814
20
20.9892974
40
1.0185141
50
359.9990922
51
1.7583738
0
ARC
8
DEFAULT_255_2_778
10
11.4469137
20
0.7378951
40
0.9964154
50
318.3807927
51
0.0854519
0
ARC
8
DEFAULT_255_2_778
10
11.4445139
20
0.7367796
40
0.9974714
50
271.7687708
51
318.5202487
0
ARC
8
DEFAULT_255_2_778
10
11.4433043
20
0.7579645
40
1.0186837
50
270.0407054
51
271.799998
0
ARC
8
DEFAULT_255_2_778
10
34.2299616
20
55.6921213
40
0.996761
50
29.9256515
51
86.1693814
0
ARC
8
DEFAULT_255_2_778
10
34.2276153
20
55.6661701
40
1.0228111
50
86.1353577
51
90.0048909
0
ARC
8
DEFAULT_255_2_778
10
24.0093711
20
0.7356503
40
0.9966692
50
228.3354935
51
270.0320154
0
ARC
8
DEFAULT_255_2_778
10
24.0080856
20
0.7379466
40
0.9975333
50
181.731089
51
228.478329
0
ARC
8
DEFAULT_255_2_778
10
24.0290386
20
0.7390651
40
1.0185106
50
179.9990914
51
181.7583732
0
ARC
8
DEFAULT_255_2_778
10
24.0108506
20
20.9891342
40
1.0003226
50
135.0233138
51
180.0087647
0
ARC
8
DEFAULT_255_2_778
10
24.0097558
20
20.9904948
40
0.9985864
50
89.9901206
51
135.0341361
0
ARC
8
DEFAULT_255_2_778
10
34.2289408
20
21.3554295
40
0.6336533
50
89.9574437
51
90.1277495
0
ARC
8
DEFAULT_255_2_778
10
34.2295417
20
20.9918084
40
0.9972746
50
44.9750783
51
90.0074811
0
ARC
8
DEFAULT_255_2_778
10
34.2295723
20
20.9916579
40
0.9973593
50
359.9976656
51
44.9824366
0
ARC
8
DEFAULT_255_2_778
10
34.2616233
20
20.9915442
40
0.9653082
50
359.8478721
51
0.0043359
0
ARC
8
DEFAULT_255_2_778
10
34.2289404
20
58.1224639
40
0.6333842
50
269.8722324
51
270.0426105
0
ARC
8
DEFAULT_255_2_778
10
34.2295417
20
58.4863541
40
0.9972746
50
269.9925189
51
315.0249217
0
ARC
8
DEFAULT_255_2_778
10
34.2295723
20
58.4865045
40
0.9973593
50
315.0175634
51
0.0023344
0
ARC
8
DEFAULT_255_2_778
10
34.2616233
20
58.4866182
40
0.9653082
50
359.9956641
51
0.1521279
0
ARC
8
DEFAULT_255_2_778
10
34.9769315
20
1.2912954
40
0.2499964
50
359.9967601
51
89.4736818
0
ARC
8
DEFAULT_255_2_778
10
26.6580244
20
1.864067
40
0.2499963
50
179.9967403
51
269.47369
0
ARC
8
DEFAULT_255_2_778
10
26.6580243
20
19.8642955
40
0.2499964
50
90.5263016
51
180.0032632
0
LINE
8
DEFAULT_255_2_778
10
24.322328
20
-0.2610188
11
24.322328
21
20.9757812
0
LINE
8
DEFAULT_255_2_778
10
24.322328
20
20.9757812
11
24.322328
21
20.9757812
0
LINE
8
DEFAULT_255_2_778
10
23.323028
20
21.9758812
11
23.323028
21
21.9758812
0
LINE
8
DEFAULT_255_2_778
10
23.323028
20
21.9758812
11
12.131128
21
21.9758812
0
LINE
8
DEFAULT_255_2_778
10
12.131128
20
21.9758812
11
12.131128
21
21.9758812
0
LINE
8
DEFAULT_255_2_778
10
11.131828
20
20.9757812
11
11.131828
21
20.9757812
0
LINE
8
DEFAULT_255_2_778
10
11.131828
20
20.9757812
11
11.131828
21
-0.2610188
0
LINE
8
DEFAULT_255_2_778
10
28.755228
20
32.5967812
11
28.755228
21
32.5967812
0
LINE
8
DEFAULT_255_2_778
10
29.113928
20
32.5967812
11
29.113928
21
32.5967812
0
LINE
8
DEFAULT_255_2_778
10
17.689528
20
55.6890812
11
17.689528
21
55.6890812
0
LINE
8
DEFAULT_255_2_778
10
17.689528
20
55.6890812
11
1.226328
21
55.6890812
0
LINE
8
DEFAULT_255_2_778
10
1.226328
20
55.6890812
11
1.226328
21
55.6890812
0
LINE
8
DEFAULT_255_2_778
10
1.226328
20
55.6890812
11
1.226328
21
55.6890812
0
LINE
8
DEFAULT_255_2_778
10
0.227028
20
56.6889812
11
0.227028
21
56.6889812
0
LINE
8
DEFAULT_255_2_778
10
17.689528
20
57.4890812
11
17.689528
21
57.4890812
0
LINE
8
DEFAULT_255_2_778
10
17.689528
20
57.4890812
11
1.226328
21
57.4890812
0
LINE
8
DEFAULT_255_2_778
10
1.226328
20
57.4890812
11
1.226328
21
57.4890812
0
LINE
8
DEFAULT_255_2_778
10
1.226328
20
57.4890812
11
1.226328
21
57.4890812
0
LINE
8
DEFAULT_255_2_778
10
0.227028
20
58.4891812
11
0.227028
21
58.4891812
0
LINE
8
DEFAULT_255_2_778
10
35.226928
20
56.6891812
11
35.226928
21
56.6891812
0
LINE
8
DEFAULT_255_2_778
10
35.226928
20
56.6891812
11
35.226928
21
56.6891812
0
LINE
8
DEFAULT_255_2_778
10
34.227528
20
55.6890812
11
34.227528
21
55.6890812
0
LINE
8
DEFAULT_255_2_778
10
34.227528
20
55.6890812
11
17.764428
21
55.6890812
0
LINE
8
DEFAULT_255_2_778
10
17.764428
20
55.6890812
11
17.764428
21
55.6890812
0
LINE
8
DEFAULT_255_2_778
10
17.764428
20
57.4890812
11
35.226928
21
57.4890812
0
LINE
8
DEFAULT_255_2_778
10
33.528028
20
0.9123812
11
33.515628
21
0.9123812
0
LINE
8
DEFAULT_255_2_778
10
33.515628
20
0.9123812
11
33.515628
21
75.0391812
0
LINE
8
DEFAULT_255_2_778
10
33.515628
20
75.0391812
11
1.967428
21
75.0391812
0
LINE
8
DEFAULT_255_2_778
10
1.967428
20
75.0391812
11
2.077828
21
0.5432812
0
LINE
8
DEFAULT_255_2_778
10
35.226128
20
0.7335812
11
35.214428
21
75.7389812
0
LINE
8
DEFAULT_255_2_778
10
34.215128
20
76.7390812
11
1.238828
21
76.7390812
0
LINE
8
DEFAULT_255_2_778
10
1.238828
20
76.7390812
11
1.226328
21
76.7390812
0
LINE
8
DEFAULT_255_2_778
10
0.227028
20
75.7389812
11
0.227028
21
0.7388812
0
LINE
8
DEFAULT_255_2_778
10
1.226328
20
-0.2613188
11
1.238828
21
-0.2613188
0
LINE
8
DEFAULT_255_2_778
10
1.238828
20
-0.2613188
11
34.227828
21
-0.2613188
0
LINE
8
DEFAULT_255_2_778
10
1.238828
20
76.7390812
11
1.238828
21
75.7389812
0
LINE
8
DEFAULT_255_2_778
10
1.238828
20
75.7389812
11
0.239428
21
75.7389812
0
LINE
8
DEFAULT_255_2_778
10
0.239428
20
75.7389812
11
0.239428
21
0.7388812
0
LINE
8
DEFAULT_255_2_778
10
0.239428
20
0.7388812
11
34.215128
21
0.7388812
0
LINE
8
DEFAULT_255_2_778
10
34.215128
20
0.7388812
11
34.215128
21
75.7389812
0
LINE
8
DEFAULT_255_2_778
10
34.215128
20
75.7389812
11
1.238828
21
75.7389812
0
LINE
8
DEFAULT_255_2_778
10
1.238828
20
75.7389812
11
1.238828
21
-0.2610188
0
LINE
8
DEFAULT_255_2_778
10
11.443728
20
20.9892812
11
11.443728
21
20.9892812
0
LINE
8
DEFAULT_255_2_778
10
11.443728
20
20.9892812
11
11.443728
21
0.7393812
0
LINE
8
DEFAULT_255_2_778
10
11.443728
20
0.7393812
11
1.226328
21
0.7393812
0
LINE
8
DEFAULT_255_2_778
10
1.226328
20
0.7393812
11
1.226328
21
20.9892812
0
LINE
8
DEFAULT_255_2_778
10
1.226328
20
20.9892812
11
11.444028
21
20.9892812
0
LINE
8
DEFAULT_255_2_778
10
10.844528
20
21.9893812
11
11.444028
21
21.9893812
0
LINE
8
DEFAULT_255_2_778
10
12.443328
20
20.9892812
11
12.443328
21
0.7393812
0
LINE
8
DEFAULT_255_2_778
10
11.444028
20
-0.2607188
11
11.444028
21
-0.2607188
0
LINE
8
DEFAULT_255_2_778
10
17.689528
20
56.6889812
11
1.226328
21
56.6889812
0
LINE
8
DEFAULT_255_2_778
10
1.226328
20
56.6889812
11
1.226328
21
75.7389812
0
LINE
8
DEFAULT_255_2_778
10
1.226328
20
75.7389812
11
10.919328
21
75.7389812
0
LINE
8
DEFAULT_255_2_778
10
10.919328
20
75.7389812
11
10.919328
21
76.7390812
0
LINE
8
DEFAULT_255_2_778
10
10.919328
20
76.7390812
11
10.919328
21
76.7390812
0
LINE
8
DEFAULT_255_2_778
10
0.227028
20
57.4890812
11
1.226328
21
57.4890812
0
LINE
8
DEFAULT_255_2_778
10
1.226328
20
57.4890812
11
1.226328
21
21.9890812
0
LINE
8
DEFAULT_255_2_778
10
1.226328
20
21.9890812
11
10.844528
21
21.9890812
0
LINE
8
DEFAULT_255_2_778
10
10.844528
20
21.9890812
11
10.844528
21
0.7390812
0
LINE
8
DEFAULT_255_2_778
10
10.844528
20
0.7390812
11
17.689528
21
0.7390812
0
LINE
8
DEFAULT_255_2_778
10
24.534528
20
75.7389812
11
34.227528
21
75.7389812
0
LINE
8
DEFAULT_255_2_778
10
34.227528
20
75.7389812
11
34.227528
21
56.6889812
0
LINE
8
DEFAULT_255_2_778
10
34.227528
20
56.6889812
11
17.764428
21
56.6889812
0
LINE
8
DEFAULT_255_2_778
10
24.009928
20
-0.2610188
11
24.009928
21
-0.2610188
0
LINE
8
DEFAULT_255_2_778
10
23.010528
20
0.7390812
11
23.010528
21
20.9889812
0
LINE
8
DEFAULT_255_2_778
10
24.009928
20
21.9890812
11
24.009928
21
21.9890812
0
LINE
8
DEFAULT_255_2_778
10
24.009928
20
21.9890812
11
34.227528
21
21.9890812
0
LINE
8
DEFAULT_255_2_778
10
35.226928
20
20.9889812
11
35.226928
21
20.9889812
0
LINE
8
DEFAULT_255_2_778
10
35.226928
20
20.9889812
11
24.009928
21
20.9889812
0
LINE
8
DEFAULT_255_2_778
10
24.009928
20
20.9889812
11
24.009928
21
0.7390812
0
LINE
8
DEFAULT_255_2_778
10
24.009928
20
0.7390812
11
34.227528
21
0.7390812
0
LINE
8
DEFAULT_255_2_778
10
34.227528
20
0.7390812
11
34.227528
21
57.4890812
0
LINE
8
DEFAULT_255_2_778
10
35.226928
20
58.4891812
11
35.226928
21
58.4891812
0
LINE
8
DEFAULT_255_2_778
10
35.226928
20
1.2912812
11
35.226928
21
1.2912812
0
LINE
8
DEFAULT_255_2_778
10
34.979228
20
1.5412812
11
34.979228
21
1.5412812
0
LINE
8
DEFAULT_255_2_778
10
34.979228
20
1.5412812
11
34.980028
21
1.6143812
0
LINE
8
DEFAULT_255_2_778
10
34.980028
20
1.6143812
11
34.979228
21
1.7767812
0
LINE
8
DEFAULT_255_2_778
10
34.979228
20
1.7767812
11
34.979228
21
1.7913812
0
LINE
8
DEFAULT_255_2_778
10
34.979228
20
1.7913812
11
34.979228
21
1.7913812
0
LINE
8
DEFAULT_255_2_778
10
34.979228
20
1.7913812
11
34.979228
21
1.5412812
0
LINE
8
DEFAULT_255_2_778
10
34.979228
20
1.5412812
11
34.979228
21
1.5412812
0
LINE
8
DEFAULT_255_2_778
10
34.979228
20
1.5412812
11
34.979228
21
1.5412812
0
LINE
8
DEFAULT_255_2_778
10
34.979228
20
1.5412812
11
26.655728
21
1.6140812
0
LINE
8
DEFAULT_255_2_778
10
26.655728
20
1.6140812
11
26.655728
21
1.6140812
0
LINE
8
DEFAULT_255_2_778
10
26.408028
20
1.8640812
11
26.408028
21
19.8642812
0
LINE
8
DEFAULT_255_2_778
10
26.408028
20
19.8642812
11
26.655728
21
19.8642812
0
LINE
8
DEFAULT_255_2_778
10
26.655728
20
19.8642812
11
26.655728
21
1.8638812
0
LINE
8
DEFAULT_255_2_778
10
26.655728
20
1.8638812
11
34.979228
21
1.7910812
0
LINE
8
DEFAULT_255_2_778
10
34.979228
20
1.7910812
11
34.979228
21
19.9367812
0
LINE
8
DEFAULT_255_2_778
10
34.979228
20
19.9367812
11
34.979228
21
1.7910812
0
LINE
8
DEFAULT_255_2_778
10
34.979228
20
1.7910812
11
26.655728
21
1.8638812
0
LINE
8
DEFAULT_255_2_778
10
26.655728
20
1.8638812
11
26.655728
21
19.8642812
0
LINE
8
DEFAULT_255_2_778
10
26.655728
20
19.8642812
11
34.979228
21
19.9369812
0
LINE
8
DEFAULT_255_2_778
10
34.979228
20
19.9369812
11
26.655728
21
19.8642812
0
LINE
8
DEFAULT_255_2_778
10
26.655728
20
19.8642812
11
26.408028
21
19.8642812
0
LINE
8
DEFAULT_255_2_778
10
26.655728
20
20.1142812
11
26.655728
21
20.1142812
0
LINE
8
DEFAULT_255_2_778
10
26.655728
20
20.1142812
11
34.979228
21
20.1870812
0
LINE
8
DEFAULT_255_2_778
10
34.979228
20
20.1870812
11
34.979228
21
20.1870812
0
LINE
8
DEFAULT_255_2_778
10
34.979228
20
20.1870812
11
34.979228
21
20.1870812
0
LINE
8
DEFAULT_255_2_778
10
34.979228
20
20.1870812
11
34.979228
21
19.9369812
0
LINE
8
DEFAULT_255_2_778
10
34.979228
20
19.9369812
11
34.979228
21
19.9369812
0
LINE
8
DEFAULT_255_2_778
10
34.979228
20
19.9369812
11
35.226928
21
19.9369812
0
LINE
8
DEFAULT_255_2_778
10
35.226928
20
19.9369812
11
34.979228
21
19.9369812
0
LINE
8
DEFAULT_255_2_778
10
34.979228
20
19.9369812
11
34.979228
21
19.9515812
0
LINE
8
DEFAULT_255_2_778
10
34.979228
20
19.9515812
11
34.980028
21
20.1139812
0
ENDSEC
0
EOF