0
SECTION
2
HEADER
9
$MEASUREMENT
70
1
0
ENDSEC
0
SECTION
2
TABLES
0
TABLE
2
LTYPE
0
LTYPE
72
65
70
64
2
CONTINUOUS
3
______
73
0
40
0
0
ENDTAB
0
TABLE
2
LAYER
0
LAYER
2
DEFAULT_255_2_778
70
0
62
255
6
CONTINUOUS
0
LAYER
2
DEFAULT_255_1_234
70
0
62
255
6
CONTINUOUS
0
ENDTAB
0
ENDSEC
0
SECTION
2
ENTITIES
0
ARC
8
DEFAULT_255_2_778
10
3.5700693
20
36.1176536
40
0.7914215
50
129.1312896
51
180.1450914
0
ARC
8
DEFAULT_255_2_778
10
3.5703345
20
36.1181407
40
0.7912112
50
89.854026
51
129.1684493
0
ARC
8
DEFAULT_255_2_778
10
25.7993937
20
36.1178272
40
0.7915249
50
39.4792447
51
90.147911
0
ARC
8
DEFAULT_255_2_778
10
25.7999935
20
36.1176739
40
0.7911595
50
359.8533901
51
39.5154338
0
ARC
8
DEFAULT_255_2_778
10
25.7996693
20
-1.9863987
40
0.7914836
50
309.4761667
51
0.1482649
0
ARC
8
DEFAULT_255_2_778
10
25.799398
20
-1.9868298
40
0.7913235
50
269.8517415
51
309.511178
0
ARC
8
DEFAULT_255_2_778
10
3.570342
20
-1.9867716
40
0.7913815
50
219.1282118
51
270.1454017
0
ARC
8
DEFAULT_255_2_778
10
3.5700247
20
-1.9863891
40
0.7913769
50
179.8524075
51
219.1641908
0
LINE
8
DEFAULT_255_2_778
10
3.5723503
20
36.9093494
11
25.7973503
21
36.9093494
0
LINE
8
DEFAULT_255_2_778
10
26.5911503
20
36.1156494
11
26.5911503
21
-1.9843506
0
LINE
8
DEFAULT_255_2_778
10
25.7973503
20
-2.7781506
11
3.5723503
21
-2.7781506
0
LINE
8
DEFAULT_255_2_778
10
2.7786503
20
-1.9843506
11
2.7786503
21
36.1156494
0
LINE
8
DEFAULT_255_1_234
10
11.5220344
20
-0.1934909
11
11.2465458
21
-0.1934909
0
LINE
8
DEFAULT_255_1_234
10
11.2465458
20
-0.1934909
11
11.2465458
21
-0.6513
0
LINE
8
DEFAULT_255_1_234
10
11.2465458
20
-0.6513
11
11.0923364
21
-0.6513
0
LINE
8
DEFAULT_255_1_234
10
11.0923364
20
-0.6513
11
11.0923364
21
0.5181211
0
LINE
8
DEFAULT_255_1_234
10
11.0923364
20
0.5181211
11
11.5236407
21
0.5181211
0
LINE
8
DEFAULT_255_1_234
10
11.2465458
20
0.3912196
11
11.2465458
21
-0.0673926
0
LINE
8
DEFAULT_255_1_234
10
11.2465458
20
-0.0673926
11
11.5236407
21
-0.0673926
0
LINE
8
DEFAULT_255_1_234
10
11.5324756
20
0.3912196
11
11.2465458
21
0.3912196
0
ARC
8
DEFAULT_255_1_234
10
11.5278534
20
-0.0877805
40
0.6059162
50
78.8378113
51
90.3983573
0
ARC
8
DEFAULT_255_1_234
10
11.5694548
20
0.1142879
40
0.3996205
50
58.9632738
51
79.0810598
0
ARC
8
DEFAULT_255_1_234
10
11.599609
20
0.1702721
40
0.3361177
50
48.0197965
51
58.447194
0
ARC
8
DEFAULT_255_1_234
10
11.6084951
20
0.1788225
40
0.3238191
50
3.3375044
51
48.1766626
0
ARC
8
DEFAULT_255_1_234
10
11.485479
20
0.1611171
40
0.4477806
50
359.9477528
51
4.6829065
0
ARC
8
DEFAULT_255_1_234
10
11.4978107
20
0.1568628
40
0.4354656
50
346.1877825
51
0.5060252
0
ARC
8
DEFAULT_255_1_234
10
11.6336975
20
0.1215731
40
0.295089
50
310.8831995
51
346.5426355
0
ARC
8
DEFAULT_255_1_234
10
11.6028395
20
0.1632695
40
0.3468331
50
286.6925341
51
310.2288297
0
ARC
8
DEFAULT_255_1_234
10
11.5459226
20
0.3422882
40
0.5346654
50
274.6850312
51
287.0245141
0
ARC
8
DEFAULT_255_1_234
10
11.5233949
20
0.5631932
40
0.7566852
50
269.8969846
51
275.018904
0
ARC
8
DEFAULT_255_1_234
10
11.526154
20
0.3552707
40
0.4226708
50
269.6593078
51
279.4153575
0
ARC
8
DEFAULT_255_1_234
10
11.5518815
20
0.2062133
40
0.2714146
50
279.2049762
51
294.9900808
0
ARC
8
DEFAULT_255_1_234
10
11.5809141
20
0.1414508
40
0.2004525
50
295.2888114
51
311.2911209
0
ARC
8
DEFAULT_255_1_234
10
11.5880035
20
0.130922
40
0.1878703
50
311.7854996
51
347.2861051
0
ARC
8
DEFAULT_255_1_234
10
11.4896194
20
0.1562092
40
0.2894234
50
346.6893224
51
0.1059443
0
ARC
8
DEFAULT_255_1_234
10
11.4141089
20
0.1590685
40
0.3649409
50
359.6350983
51
0.0053152
0
ARC
8
DEFAULT_255_1_234
10
11.5111417
20
0.1615937
40
0.2679199
50
359.4672059
51
15.5933957
0
ARC
8
DEFAULT_255_1_234
10
11.5736306
20
0.1784779
40
0.2031932
50
15.7442113
51
46.6203375
0
ARC
8
DEFAULT_255_1_234
10
11.5588527
20
0.1614484
40
0.2257226
50
46.8628658
51
75.6676503
0
ARC
8
DEFAULT_255_1_234
10
11.5294347
20
0.0555718
40
0.3355939
50
75.276167
51
88.2915297
0
ARC
8
DEFAULT_255_1_234
10
11.5236054
20
-0.0322476
40
0.4235602
50
87.8575022
51
88.8000139
0
LINE
8
DEFAULT_255_1_234
10
12.5798143
20
0.5237433
11
12.5798143
21
-0.6513
0
LINE
8
DEFAULT_255_1_234
10
12.5798143
20
-0.6513
11
12.430424
21
-0.6513
0
LINE
8
DEFAULT_255_1_234
10
12.430424
20
-0.6513
11
12.430424
21
0.3390133
0
LINE
8
DEFAULT_255_1_234
10
12.430424
20
0.3390133
11
12.1308401
21
0.2289785
0
LINE
8
DEFAULT_255_1_234
10
12.1308401
20
0.2289785
11
12.1308401
21
0.3639117
0
LINE
8
DEFAULT_255_1_234
10
12.1308401
20
0.3639117
11
12.5565223
21
0.5237433
0
LINE
8
DEFAULT_255_1_234
10
12.5565223
20
0.5237433
11
12.5798143
21
0.5237433
0
LINE
8
DEFAULT_255_1_234
10
13.3396167
20
-0.0938974
11
13.3396167
21
-0.2151766
0
LINE
8
DEFAULT_255_1_234
10
13.3396167
20
-0.2151766
11
12.9476679
21
-0.2151766
0
LINE
8
DEFAULT_255_1_234
10
12.9476679
20
-0.2151766
11
12.9476679
21
-0.0938974
0
LINE
8
DEFAULT_255_1_234
10
12.9476679
20
-0.0938974
11
13.3396167
21
-0.0938974
0
LINE
8
DEFAULT_255_1_234
10
14.2022254
20
0.0402327
11
14.2022254
21
-0.1525291
0
LINE
8
DEFAULT_255_1_234
10
13.4641087
20
-0.1726084
11
13.4641087
21
0.0257755
0
LINE
8
DEFAULT_255_1_234
10
14.0536383
20
-0.1926877
11
14.0536383
21
0.0506739
0
LINE
8
DEFAULT_255_1_234
10
13.6126958
20
0.0619184
11
13.6126958
21
-0.1758211
0
ARC
8
DEFAULT_255_1_234
10
12.9775144
20
-0.1574195
40
1.2247208
50
353.8441951
51
0.2287902
0
ARC
8
DEFAULT_255_1_234
10
13.4414648
20
-0.2092194
40
0.7578929
50
344.4934747
51
353.9765454
0
ARC
8
DEFAULT_255_1_234
10
13.7407238
20
-0.2943019
40
0.4467846
50
329.2803592
51
344.7472793
0
ARC
8
DEFAULT_255_1_234
10
13.8400063
20
-0.3487982
40
0.3336173
50
324.9352394
51
328.6160465
0
ARC
8
DEFAULT_255_1_234
10
13.8777171
20
-0.3751573
40
0.2876076
50
280.580143
51
324.9173126
0
ARC
8
DEFAULT_255_1_234
10
13.8375964
20
-0.2080901
40
0.4592847
50
269.5977311
51
281.6734359
0
ARC
8
DEFAULT_255_1_234
10
13.830387
20
-0.2200827
40
0.4472986
50
256.6228859
51
270.51044
0
ARC
8
DEFAULT_255_1_234
10
13.7901847
20
-0.3749123
40
0.2873874
50
215.8618325
51
257.2788573
0
ARC
8
DEFAULT_255_1_234
10
13.8922879
20
-0.3064023
40
0.4102928
50
197.9693508
51
215.2623606
0
ARC
8
DEFAULT_255_1_234
10
14.1407995
20
-0.2225291
40
0.6725652
50
187.8816417
51
198.2346507
0
ARC
8
DEFAULT_255_1_234
10
14.5366203
20
-0.1653921
40
1.0724845
50
180.8976217
51
188.0055519
0
ARC
8
DEFAULT_255_1_234
10
14.8166391
20
-0.1550223
40
1.3526448
50
180.7449369
51
181.1510016
0
ARC
8
DEFAULT_255_1_234
10
14.658912
20
0.0306042
40
1.1948131
50
173.7675579
51
180.231553
0
ARC
8
DEFAULT_255_1_234
10
14.2071267
20
0.0816666
40
0.7401564
50
164.3058563
51
173.9002247
0
ARC
8
DEFAULT_255_1_234
10
13.9159336
20
0.1655656
40
0.4371288
50
148.7922025
51
164.568378
0
ARC
8
DEFAULT_255_1_234
10
13.8207788
20
0.2186929
40
0.3282386
50
144.5883898
51
148.1176286
0
ARC
8
DEFAULT_255_1_234
10
13.7864686
20
0.2426315
40
0.2864044
50
101.6440918
51
144.514236
0
ARC
8
DEFAULT_255_1_234
10
13.8289752
20
0.0737069
40
0.4604934
50
89.5284041
51
102.5819763
0
ARC
8
DEFAULT_255_1_234
10
13.836884
20
0.0698018
40
0.464401
50
77.0437873
51
90.5081339
0
ARC
8
DEFAULT_255_1_234
10
13.8770842
20
0.2340615
40
0.2953195
50
48.2778575
51
77.4994676
0
ARC
8
DEFAULT_255_1_234
10
13.8843473
20
0.2469746
40
0.2808655
50
36.3142134
51
47.6305865
0
ARC
8
DEFAULT_255_1_234
10
13.797478
20
0.1884515
40
0.3855453
50
18.2931786
51
35.6769206
0
ARC
8
DEFAULT_255_1_234
10
13.5431539
20
0.1011593
40
0.654423
50
8.024666
51
18.5605216
0
ARC
8
DEFAULT_255_1_234
10
13.1268459
20
0.0396792
40
1.0752407
50
1.1274072
51
8.1718305
0
ARC
8
DEFAULT_255_1_234
10
12.803265
20
0.0269885
40
1.3990231
50
0.5424119
51
1.3863029
0
ARC
8
DEFAULT_255_1_234
10
12.9854027
20
0.0542342
40
1.0682415
50
359.8090433
51
4.9407866
0
ARC
8
DEFAULT_255_1_234
10
13.4064041
20
0.0918113
40
0.6455691
50
4.8362157
51
12.2904523
0
ARC
8
DEFAULT_255_1_234
10
13.6819156
20
0.1531965
40
0.3633074
50
12.0805627
51
23.8173984
0
ARC
8
DEFAULT_255_1_234
10
13.7992862
20
0.2028919
40
0.2358723
50
24.2871213
51
31.3935614
0
ARC
8
DEFAULT_255_1_234
10
13.8517559
20
0.2372233
40
0.1732111
50
30.7407893
51
82.4657128
0
ARC
8
DEFAULT_255_1_234
10
13.8337693
20
0.1488691
40
0.263235
50
81.1060089
51
90.2184952
0
ARC
8
DEFAULT_255_1_234
10
13.8301992
20
0.1746924
40
0.2374236
50
89.3806855
51
105.6762551
0
ARC
8
DEFAULT_255_1_234
10
13.8118623
20
0.2413567
40
0.1682847
50
105.7981136
51
149.7388061
0
ARC
8
DEFAULT_255_1_234
10
13.9182701
20
0.177395
40
0.2924306
50
149.4208916
51
163.6286378
0
ARC
8
DEFAULT_255_1_234
10
14.1273589
20
0.113625
40
0.5110213
50
163.3763315
51
172.1410975
0
ARC
8
DEFAULT_255_1_234
10
14.4574308
20
0.0663518
40
0.8444586
50
172.0259487
51
178.0703232
0
ARC
8
DEFAULT_255_1_234
10
14.7604397
20
0.0519906
40
1.1477868
50
177.8631668
51
179.5044149
0
ARC
8
DEFAULT_255_1_234
10
14.6531802
20
-0.1794611
40
1.0404907
50
179.7995573
51
185.2460446
0
ARC
8
DEFAULT_255_1_234
10
14.2488841
20
-0.2177487
40
0.6343885
50
185.1411642
51
193.0079639
0
ARC
8
DEFAULT_255_1_234
10
13.9845314
20
-0.2802359
40
0.3627568
50
192.7897626
51
205.2507664
0
ARC
8
DEFAULT_255_1_234
10
13.8798861
20
-0.3269585
40
0.2481908
50
205.8005384
51
211.2537509
0
ARC
8
DEFAULT_255_1_234
10
13.8275301
20
-0.362042
40
0.1852521
50
210.3789793
51
238.4008143
0
ARC
8
DEFAULT_255_1_234
10
13.8255823
20
-0.3573624
40
0.1882621
50
239.6520629
51
265.9793761
0
ARC
8
DEFAULT_255_1_234
10
13.8341023
20
-0.2901573
40
0.2559272
50
265.1315437
51
270.060332
0
ARC
8
DEFAULT_255_1_234
10
13.8369802
20
-0.3225466
40
0.2235528
50
269.3314664
51
287.2178029
0
ARC
8
DEFAULT_255_1_234
10
13.8507654
20
-0.3728721
40
0.1714108
50
287.7958004
51
329.080874
0
ARC
8
DEFAULT_255_1_234
10
13.7550111
20
-0.313107
40
0.2842745
50
328.6634704
51
343.3325132
0
ARC
8
DEFAULT_255_1_234
10
13.5377131
20
-0.2454137
40
0.5118644
50
343.0499468
51
351.9393422
0
ARC
8
DEFAULT_255_1_234
10
13.1910431
20
-0.1943051
40
0.8622784
50
351.8069023
51
357.7959224
0
ARC
8
DEFAULT_255_1_234
10
12.8674987
20
-0.1775279
40
1.1862365
50
357.5871873
51
359.2677531
0
LINE
8
DEFAULT_255_1_234
10
14.8809073
20
0.5237433
11
14.8809073
21
-0.6513
0
LINE
8
DEFAULT_255_1_234
10
14.8809073
20
-0.6513
11
14.731517
21
-0.6513
0
LINE
8
DEFAULT_255_1_234
10
14.731517
20
-0.6513
11
14.731517
21
0.3390133
0
LINE
8
DEFAULT_255_1_234
10
14.731517
20
0.3390133
11
14.4319332
21
0.2289785
0
LINE
8
DEFAULT_255_1_234
10
14.4319332
20
0.2289785
11
14.4319332
21
0.3639117
0
LINE
8
DEFAULT_255_1_234
10
14.4319332
20
0.3639117
11
14.8576153
21
0.5237433
0
LINE
8
DEFAULT_255_1_234
10
14.8576153
20
0.5237433
11
14.8809073
21
0.5237433
0
LINE
8
DEFAULT_255_1_234
10
16.1121728
20
-0.6513
11
16.0005316
21
-0.3460939
0
LINE
8
DEFAULT_255_1_234
10
16.0005316
20
-0.3460939
11
15.5105956
21
-0.3460939
0
LINE
8
DEFAULT_255_1_234
10
15.5105956
20
-0.3460939
11
15.4005608
21
-0.6513
0
LINE
8
DEFAULT_255_1_234
10
15.4005608
20
-0.6513
11
15.2415324
21
-0.6513
0
LINE
8
DEFAULT_255_1_234
10
15.2415324
20
-0.6513
11
15.688097
21
0.5181211
0
LINE
8
DEFAULT_255_1_234
10
15.688097
20
0.5181211
11
15.8230302
21
0.5181211
0
LINE
8
DEFAULT_255_1_234
10
15.8230302
20
0.5181211
11
16.270398
21
-0.6513
0
LINE
8
DEFAULT_255_1_234
10
16.270398
20
-0.6513
11
16.1121728
21
-0.6513
0
LINE
8
DEFAULT_255_1_234
10
15.7555636
20
0.3277689
11
15.5571797
21
-0.2191925
0
LINE
8
DEFAULT_255_1_234
10
15.5571797
20
-0.2191925
11
15.9547507
21
-0.2191925
0
LINE
8
DEFAULT_255_1_234
10
15.9547507
20
-0.2191925
11
15.7555636
21
0.3277689
0
LINE
8
DEFAULT_255_1_234
10
17.1241718
20
-0.2802337
11
17.2791844
21
-0.2802337
0
LINE
8
DEFAULT_255_1_234
10
16.3788265
20
-0.1212053
11
16.3788265
21
-0.0087609
0
LINE
8
DEFAULT_255_1_234
10
17.2791844
20
0.1422357
11
17.1241718
21
0.1422357
0
LINE
8
DEFAULT_255_1_234
10
16.5338391
20
-0.0127768
11
16.5338391
21
-0.1260243
0
ARC
8
DEFAULT_255_1_234
10
16.7311231
20
-0.2205154
40
0.5513052
50
340.1774281
51
353.7814284
0
ARC
8
DEFAULT_255_1_234
10
16.8882583
20
-0.2790418
40
0.3836379
50
311.4558989
51
340.4421614
0
ARC
8
DEFAULT_255_1_234
10
16.8849251
20
-0.2679472
40
0.3941894
50
282.4333181
51
310.7513653
0
ARC
8
DEFAULT_255_1_234
10
16.8409991
20
-0.0864321
40
0.5809175
50
269.9358511
51
282.809604
0
ARC
8
DEFAULT_255_1_234
10
16.8358057
20
0.0593212
40
0.7266847
50
270.0021091
51
270.3581957
0
ARC
8
DEFAULT_255_1_234
10
16.8305474
20
-0.2007415
40
0.4666519
50
250.7884749
51
270.6489167
0
ARC
8
DEFAULT_255_1_234
10
16.8137308
20
-0.2644681
40
0.4009729
50
219.3627325
51
250.0611886
0
ARC
8
DEFAULT_255_1_234
10
16.8966519
20
-0.1939958
40
0.5097822
50
193.5479632
51
219.5756669
0
ARC
8
DEFAULT_255_1_234
10
17.133814
20
-0.1324081
40
0.7547848
50
181.1218675
51
193.87563
0
ARC
8
DEFAULT_255_1_234
10
17.3408321
20
-0.121342
40
0.9620055
50
179.9918545
51
181.5394234
0
ARC
8
DEFAULT_255_1_234
10
17.1557423
20
-0.0050212
40
0.7769248
50
169.5837241
51
180.2757934
0
ARC
8
DEFAULT_255_1_234
10
16.9720361
20
0.0289229
40
0.590109
50
155.0365899
51
169.6003176
0
ARC
8
DEFAULT_255_1_234
10
16.8584825
20
0.0836677
40
0.4640625
50
136.783148
51
155.2472683
0
ARC
8
DEFAULT_255_1_234
10
16.8195302
20
0.1167562
40
0.4130255
50
121.7633186
51
136.428115
0
ARC
8
DEFAULT_255_1_234
10
16.8330264
20
0.0918227
40
0.4413323
50
95.6459699
51
121.5490577
0
ARC
8
DEFAULT_255_1_234
10
16.8487546
20
-0.0190051
40
0.55319
50
89.924208
51
96.1377933
0
ARC
8
DEFAULT_255_1_234
10
16.8537979
20
-0.0071458
40
0.5413475
50
76.6779277
51
90.4563316
0
ARC
8
DEFAULT_255_1_234
10
16.8931602
20
0.1519114
40
0.3775041
50
47.485847
51
76.9287264
0
ARC
8
DEFAULT_255_1_234
10
16.8784575
20
0.1419159
40
0.3948286
50
16.5424086
51
46.8933463
0
ARC
8
DEFAULT_255_1_234
10
16.7176732
20
0.0890861
40
0.564021
50
5.4072051
51
17.0365086
0
ARC
8
DEFAULT_255_1_234
10
16.5737749
20
0.0659679
40
0.5556559
50
7.8891745
51
15.9239216
0
ARC
8
DEFAULT_255_1_234
10
16.7724763
20
0.1236631
40
0.3487515
50
15.7653144
51
27.9410532
0
ARC
8
DEFAULT_255_1_234
10
16.8828981
20
0.182779
40
0.2235026
50
27.8166557
51
46.4008329
0
ARC
8
DEFAULT_255_1_234
10
16.8878623
20
0.1822082
40
0.2205286
50
47.4371857
51
75.0698205
0
ARC
8
DEFAULT_255_1_234
10
16.8570018
20
0.0747765
40
0.3322915
50
74.7008593
51
87.8124495
0
ARC
8
DEFAULT_255_1_234
10
16.8496705
20
-0.0308156
40
0.4380987
50
87.3814673
51
90.0240855
0
ARC
8
DEFAULT_255_1_234
10
16.8458249
20
0.0869291
40
0.3203749
50
89.3451631
51
108.5745436
0
ARC
8
DEFAULT_255_1_234
10
16.8321354
20
0.1382908
40
0.2673494
50
109.2998449
51
143.3037509
0
ARC
8
DEFAULT_255_1_234
10
16.9083427
20
0.0796881
40
0.3634757
50
143.0753173
51
163.1916937
0
ARC
8
DEFAULT_255_1_234
10
17.1035154
20
0.0180967
40
0.5681262
50
162.9373603
51
174.6208611
0
ARC
8
DEFAULT_255_1_234
10
17.3661196
20
-0.010699
40
0.8322832
50
174.3419979
51
180.1430411
0
ARC
8
DEFAULT_255_1_234
10
17.2730353
20
-0.1301302
40
0.7392076
50
179.6817502
51
189.150529
0
ARC
8
DEFAULT_255_1_234
10
17.0229601
20
-0.171781
40
0.4856932
50
188.9910863
51
203.5773039
0
ARC
8
DEFAULT_255_1_234
10
16.9149934
20
-0.2165789
40
0.3688271
50
203.9077269
51
215.1312379
0
ARC
8
DEFAULT_255_1_234
10
16.8227027
20
-0.2881059
40
0.2522457
50
213.9071664
51
263.8849284
0
ARC
8
DEFAULT_255_1_234
10
16.8352357
20
-0.2096482
40
0.3316174
50
263.1758525
51
270.1031083
0
ARC
8
DEFAULT_255_1_234
10
16.8384448
20
-0.0849635
40
0.4563091
50
269.6719807
51
279.0609165
0
ARC
8
DEFAULT_255_1_234
10
16.8651216
20
-0.2462093
40
0.2928759
50
278.8750225
51
293.6346586
0
ARC
8
DEFAULT_255_1_234
10
16.8971424
20
-0.32141
40
0.2111472
50
293.8553404
51
310.0518804
0
ARC
8
DEFAULT_255_1_234
10
16.8976278
20
-0.3276484
40
0.2060917
50
311.0646779
51
332.0108348
0
ARC
8
DEFAULT_255_1_234
10
16.7784005
20
-0.2619022
40
0.3422352
50
331.6588543
51
343.2878891
0
ARC
8
DEFAULT_255_1_234
10
16.572152
20
-0.1985202
40
0.5580003
50
343.1446044
51
351.010618
0
ARC
8
DEFAULT_255_1_234
10
16.4180166
20
-0.1704129
40
0.7146438
50
350.7157277
51
351.1602153
0
LINE
8
DEFAULT_255_1_234
10
8.5441344
20
30.8950091
11
8.2686458
21
30.8950091
0
LINE
8
DEFAULT_255_1_234
10
8.2686458
20
30.8950091
11
8.2686458
21
30.4372
0
LINE
8
DEFAULT_255_1_234
10
8.2686458
20
30.4372
11
8.1144364
21
30.4372
0
LINE
8
DEFAULT_255_1_234
10
8.1144364
20
30.4372
11
8.1144364
21
31.6066211
0
LINE
8
DEFAULT_255_1_234
10
8.1144364
20
31.6066211
11
8.5457407
21
31.6066211
0
LINE
8
DEFAULT_255_1_234
10
8.2686458
20
31.4797196
11
8.2686458
21
31.0211074
0
LINE
8
DEFAULT_255_1_234
10
8.2686458
20
31.0211074
11
8.5457407
21
31.0211074
0
LINE
8
DEFAULT_255_1_234
10
8.5545756
20
31.4797196
11
8.2686458
21
31.4797196
0
ARC
8
DEFAULT_255_1_234
10
8.5499534
20
31.0007195
40
0.6059162
50
78.8378113
51
90.3983573
0
ARC
8
DEFAULT_255_1_234
10
8.5915548
20
31.2027879
40
0.3996205
50
58.9632738
51
79.0810598
0
ARC
8
DEFAULT_255_1_234
10
8.621709
20
31.2587721
40
0.3361177
50
48.0197965
51
58.447194
0
ARC
8
DEFAULT_255_1_234
10
8.6305951
20
31.2673225
40
0.3238191
50
3.3375044
51
48.1766626
0
ARC
8
DEFAULT_255_1_234
10
8.507579
20
31.2496171
40
0.4477806
50
359.9477528
51
4.6829065
0
ARC
8
DEFAULT_255_1_234
10
8.5199107
20
31.2453628
40
0.4354656
50
346.1877825
51
0.5060252
0
ARC
8
DEFAULT_255_1_234
10
8.6557975
20
31.2100731
40
0.295089
50
310.8831995
51
346.5426355
0
ARC
8
DEFAULT_255_1_234
10
8.6249395
20
31.2517695
40
0.3468331
50
286.6925341
51
310.2288297
0
ARC
8
DEFAULT_255_1_234
10
8.5680226
20
31.4307882
40
0.5346654
50
274.6850312
51
287.0245141
0
ARC
8
DEFAULT_255_1_234
10
8.5454949
20
31.6516932
40
0.7566852
50
269.8969846
51
275.018904
0
ARC
8
DEFAULT_255_1_234
10
8.548254
20
31.4437707
40
0.4226708
50
269.6593078
51
279.4153575
0
ARC
8
DEFAULT_255_1_234
10
8.5739815
20
31.2947133
40
0.2714146
50
279.2049762
51
294.9900808
0
ARC
8
DEFAULT_255_1_234
10
8.6030141
20
31.2299508
40
0.2004525
50
295.2888114
51
311.2911209
0
ARC
8
DEFAULT_255_1_234
10
8.6101035
20
31.219422
40
0.1878703
50
311.7854996
51
347.2861051
0
ARC
8
DEFAULT_255_1_234
10
8.5117194
20
31.2447092
40
0.2894234
50
346.6893224
51
0.1059443
0
ARC
8
DEFAULT_255_1_234
10
8.4362089
20
31.2475685
40
0.3649409
50
359.6350983
51
0.0053152
0
ARC
8
DEFAULT_255_1_234
10
8.5332417
20
31.2500937
40
0.2679199
50
359.4672059
51
15.5933957
0
ARC
8
DEFAULT_255_1_234
10
8.5957306
20
31.2669779
40
0.2031932
50
15.7442113
51
46.6203375
0
ARC
8
DEFAULT_255_1_234
10
8.5809527
20
31.2499484
40
0.2257226
50
46.8628658
51
75.6676503
0
ARC
8
DEFAULT_255_1_234
10
8.5515347
20
31.1440718
40
0.3355939
50
75.276167
51
88.2915297
0
ARC
8
DEFAULT_255_1_234
10
8.5457054
20
31.0562524
40
0.4235602
50
87.8575022
51
88.8000139
0
LINE
8
DEFAULT_255_1_234
10
9.5489048
20
31.3110531
11
9.5489048
21
31.1729072
0
LINE
8
DEFAULT_255_1_234
10
9.2774321
20
31.0540375
11
9.2774321
21
30.4372
0
LINE
8
DEFAULT_255_1_234
10
9.2774321
20
30.4372
11
9.1288449
21
30.4372
0
LINE
8
DEFAULT_255_1_234
10
9.1288449
20
30.4372
11
9.1288449
21
31.3062341
0
LINE
8
DEFAULT_255_1_234
10
9.1288449
20
31.3062341
11
9.2734162
21
31.3062341
0
LINE
8
DEFAULT_255_1_234
10
9.2734162
20
31.3062341
11
9.2758257
21
31.2058374
0
ARC
8
DEFAULT_255_1_234
10
9.4822454
20
30.7669342
40
0.4114092
50
80.6754243
51
86.8932892
0
ARC
8
DEFAULT_255_1_234
10
9.4761988
20
30.67017
40
0.5083596
50
86.8038578
51
90.0431435
0
ARC
8
DEFAULT_255_1_234
10
9.4724969
20
30.9158866
40
0.2626638
50
89.2759698
51
106.6213787
0
ARC
8
DEFAULT_255_1_234
10
9.4520533
20
30.990183
40
0.1856317
50
107.1346045
51
157.6458115
0
ARC
8
DEFAULT_255_1_234
10
9.5212134
20
30.9518311
40
0.2643398
50
155.6586782
51
157.2539184
0
ARC
8
DEFAULT_255_1_234
10
9.5007337
20
31.0687157
40
0.2634121
50
127.8165941
51
148.6302098
0
ARC
8
DEFAULT_255_1_234
10
9.4753806
20
31.0947218
40
0.2273596
50
91.3329982
51
126.7875809
0
ARC
8
DEFAULT_255_1_234
10
9.4829746
20
31.0232195
40
0.299078
50
89.986594
51
92.4688449
0
ARC
8
DEFAULT_255_1_234
10
9.4838141
20
31.0507078
40
0.2715908
50
85.3589899
51
90.1623399
0
ARC
8
DEFAULT_255_1_234
10
9.4922657
20
31.1511164
40
0.1708278
50
78.401942
51
85.4594656
0
ARC
8
DEFAULT_255_1_234
10
9.5067541
20
31.2202236
40
0.1002194
50
67.7858312
51
78.5728455
0
ARC
8
DEFAULT_255_1_234
10
9.5175393
20
31.2481887
40
0.0702548
50
63.4835954
51
67.3062642
0
LINE
8
DEFAULT_255_1_234
10
9.6300254
20
30.8693075
11
9.6300254
21
30.8797488
0
LINE
8
DEFAULT_255_1_234
10
10.4211516
20
30.8725202
11
10.4211516
21
30.862079
0
ARC
8
DEFAULT_255_1_234
10
10.1886433
20
30.8829837
40
0.5586273
50
166.3003825
51
180.3317926
0
ARC
8
DEFAULT_255_1_234
10
10.1023593
20
30.9022964
40
0.4702272
50
153.8608245
51
166.0967125
0
ARC
8
DEFAULT_255_1_234
10
10.0357995
20
30.937975
40
0.3947658
50
135.1316692
51
154.253643
0
ARC
8
DEFAULT_255_1_234
10
10.0079555
20
30.9625666
40
0.3576898
50
121.7044358
51
134.776924
0
ARC
8
DEFAULT_255_1_234
10
10.0146548
20
30.9496867
40
0.3721701
50
93.4002104
51
121.5398234
0
ARC
8
DEFAULT_255_1_234
10
10.0241504
20
30.8671228
40
0.4551749
50
89.9706281
51
93.9769836
0
ARC
8
DEFAULT_255_1_234
10
10.0288596
20
30.9061362
40
0.4161854
50
71.3323442
51
90.6161982
0
ARC
8
DEFAULT_255_1_234
10
10.0451293
20
30.9663578
40
0.3539455
50
41.1815071
51
70.707185
0
ARC
8
DEFAULT_255_1_234
10
9.9973693
20
30.9229919
40
0.4184468
50
12.1971897
51
41.3445735
0
ARC
8
DEFAULT_255_1_234
10
9.80477
20
30.8771425
40
0.616399
50
359.5703439
51
12.5804035
0
ARC
8
DEFAULT_255_1_234
10
9.8520775
20
30.8589116
40
0.5690829
50
347.0197749
51
0.3188898
0
ARC
8
DEFAULT_255_1_234
10
9.9479277
20
30.8382808
40
0.4710501
50
334.3504053
51
346.846361
0
ARC
8
DEFAULT_255_1_234
10
10.0324701
20
30.7943805
40
0.3758475
50
310.422922
51
334.8045033
0
ARC
8
DEFAULT_255_1_234
10
10.0406526
20
30.7879782
40
0.3656736
50
301.8486886
51
310.097356
0
ARC
8
DEFAULT_255_1_234
10
10.0374252
20
30.7955638
40
0.3738224
50
274.307774
51
301.655379
0
ARC
8
DEFAULT_255_1_234
10
10.026356
20
30.8833361
40
0.4621997
50
269.9546461
51
274.8588071
0
ARC
8
DEFAULT_255_1_234
10
10.0214493
20
30.8332249
40
0.4121134
50
250.888809
51
270.631312
0
ARC
8
DEFAULT_255_1_234
10
10.0064413
20
30.7773277
40
0.3544073
50
221.1701932
51
250.2227191
0
ARC
8
DEFAULT_255_1_234
10
10.0548568
20
30.8214439
40
0.4198961
50
191.6263638
51
221.3526367
0
ARC
8
DEFAULT_255_1_234
10
10.2436563
20
30.8651329
40
0.6136451
50
179.610213
51
192.0693181
0
ARC
8
DEFAULT_255_1_234
10
10.2859791
20
30.8588633
40
0.5065736
50
179.636298
51
190.6162791
0
ARC
8
DEFAULT_255_1_234
10
10.1217459
20
30.826859
40
0.3392576
50
190.4136628
51
208.7170242
0
ARC
8
DEFAULT_255_1_234
10
10.0707084
20
30.8015366
40
0.2823401
50
209.1867941
51
217.4225593
0
ARC
8
DEFAULT_255_1_234
10
10.0177918
20
30.7549558
40
0.2120636
50
216.1156896
51
265.2575835
0
ARC
8
DEFAULT_255_1_234
10
10.0257066
20
30.8123109
40
0.2698952
50
264.5897417
51
270.0601757
0
ARC
8
DEFAULT_255_1_234
10
10.0290127
20
30.7743185
40
0.2319225
50
269.2532621
51
291.8792492
0
ARC
8
DEFAULT_255_1_234
10
10.0319348
20
30.7565238
40
0.2143562
50
292.9269754
51
323.1776747
0
ARC
8
DEFAULT_255_1_234
10
9.992617
20
30.7913452
40
0.2667346
50
322.2518483
51
323.0930371
0
ARC
8
DEFAULT_255_1_234
10
9.9631829
20
30.809499
40
0.3011886
50
323.6941278
51
343.8493282
0
ARC
8
DEFAULT_255_1_234
10
9.8053372
20
30.857535
40
0.4661719
50
343.5748474
51
355.0079071
0
ARC
8
DEFAULT_255_1_234
10
9.6045618
20
30.8783424
40
0.6680042
50
354.7285225
51
0.1206288
0
ARC
8
DEFAULT_255_1_234
10
9.7814084
20
30.8829751
40
0.4911667
50
359.623636
51
11.2015604
0
ARC
8
DEFAULT_255_1_234
10
9.9348311
20
30.914564
40
0.3345323
50
10.9989411
51
30.8319188
0
ARC
8
DEFAULT_255_1_234
10
9.9744184
20
30.9354297
40
0.2898553
50
31.3008956
51
37.3959224
0
ARC
8
DEFAULT_255_1_234
10
10.0240762
20
30.9773653
40
0.2249582
50
36.5915954
51
62.2442953
0
ARC
8
DEFAULT_255_1_234
10
10.0287216
20
30.9770602
40
0.2231053
50
63.3365542
51
89.7195421
0
ARC
8
DEFAULT_255_1_234
10
10.0244069
20
30.9201884
40
0.2800267
50
88.8936788
51
90.0047485
0
ARC
8
DEFAULT_255_1_234
10
10.0212429
20
30.9774787
40
0.2227586
50
89.1921125
51
114.7099455
0
ARC
8
DEFAULT_255_1_234
10
10.0241193
20
30.9812628
40
0.2205633
50
115.7997161
51
142.2900762
0
ARC
8
DEFAULT_255_1_234
10
10.0679925
20
30.9422658
40
0.2791541
50
141.4658779
51
142.3795754
0
ARC
8
DEFAULT_255_1_234
10
10.078883
20
30.9379557
40
0.2904292
50
143.0175714
51
163.234115
0
ARC
8
DEFAULT_255_1_234
10
10.2367002
20
30.8880054
40
0.4559523
50
162.9447461
51
174.3732162
0
ARC
8
DEFAULT_255_1_234
10
10.4512816
20
30.8639143
40
0.6718682
50
174.1228657
51
180.1565175
0
LINE
8
DEFAULT_255_1_234
10
10.5713451
20
30.8677012
11
10.5713451
21
30.8789456
0
LINE
8
DEFAULT_255_1_234
10
11.1560557
20
31.217885
11
11.1560557
21
31.670875
0
LINE
8
DEFAULT_255_1_234
10
11.1560557
20
31.670875
11
11.3046428
21
31.670875
0
LINE
8
DEFAULT_255_1_234
10
11.3046428
20
31.670875
11
11.3046428
21
30.4372
0
LINE
8
DEFAULT_255_1_234
10
11.3046428
20
30.4372
11
11.1681033
21
30.4372
0
LINE
8
DEFAULT_255_1_234
10
11.1681033
20
30.4372
11
11.1608747
21
30.5303682
0
LINE
8
DEFAULT_255_1_234
10
11.1560557
20
30.6741363
11
11.1560557
21
31.0733137
0
ARC
8
DEFAULT_255_1_234
10
11.2588605
20
30.8833457
40
0.6875294
50
169.1661407
51
180.3666851
0
ARC
8
DEFAULT_255_1_234
10
11.039225
20
30.9271387
40
0.4635805
50
150.2838427
51
169.3798909
0
ARC
8
DEFAULT_255_1_234
10
10.9758867
20
30.9595238
40
0.392532
50
142.1062393
51
149.806405
0
ARC
8
DEFAULT_255_1_234
10
10.9186599
20
31.0093749
40
0.3167807
50
118.4283255
51
142.8643566
0
ARC
8
DEFAULT_255_1_234
10
10.9087944
20
31.0156137
40
0.3066506
50
89.9199246
51
117.3621547
0
ARC
8
DEFAULT_255_1_234
10
10.9142923
20
30.9398731
40
0.3824245
50
89.9987914
51
90.7595231
0
ARC
8
DEFAULT_255_1_234
10
10.9180314
20
30.9633667
40
0.3589502
50
72.8978905
51
90.5955712
0
ARC
8
DEFAULT_255_1_234
10
10.9378262
20
31.0348123
40
0.2848505
50
39.9932841
51
72.477307
0
ARC
8
DEFAULT_255_1_234
10
10.934901
20
30.7135579
40
0.2908996
50
275.084999
51
320.969419
0
ARC
8
DEFAULT_255_1_234
10
10.913473
20
30.8402893
40
0.4191533
50
269.8935077
51
276.4672393
0
ARC
8
DEFAULT_255_1_234
10
10.9066745
20
30.7135703
40
0.2924958
50
222.0839186
51
271.1792213
0
ARC
8
DEFAULT_255_1_234
10
10.9677255
20
30.7760816
40
0.3797413
50
217.5160585
51
222.9101888
0
ARC
8
DEFAULT_255_1_234
10
11.0171094
20
30.8100781
40
0.4396261
50
193.0962774
51
217.1109254
0
ARC
8
DEFAULT_255_1_234
10
11.2128193
20
30.8589128
40
0.6413192
50
181.1070734
51
193.3838631
0
ARC
8
DEFAULT_255_1_234
10
11.3794252
20
30.8675869
40
0.8080801
50
179.9919009
51
181.4937549
0
ARC
8
DEFAULT_255_1_234
10
11.2977854
20
30.858972
40
0.5778615
50
179.6919417
51
188.6549204
0
ARC
8
DEFAULT_255_1_234
10
11.095827
20
30.8271672
40
0.3734182
50
188.4936033
51
202.2187731
0
ARC
8
DEFAULT_255_1_234
10
10.9990978
20
30.7888391
40
0.2693801
50
202.4517848
51
215.9307642
0
ARC
8
DEFAULT_255_1_234
10
10.9398424
20
30.7416191
40
0.1937215
50
214.9062306
51
264.2077075
0
ARC
8
DEFAULT_255_1_234
10
10.9492252
20
30.801415
40
0.2541804
50
263.4637896
51
270.0934907
0
ARC
8
DEFAULT_255_1_234
10
10.9532169
20
30.7922045
40
0.2449958
50
269.1634649
51
291.0931088
0
ARC
8
DEFAULT_255_1_234
10
10.9613874
20
30.7589994
40
0.2111194
50
292.2674853
51
328.1937478
0
ARC
8
DEFAULT_255_1_234
10
10.8922292
20
30.8089026
40
0.2962539
50
327.0410354
51
332.9414029
0
ARC
8
DEFAULT_255_1_234
10
10.933549
20
30.9565886
40
0.2512647
50
27.6811062
51
48.7893196
0
ARC
8
DEFAULT_255_1_234
10
10.9618771
20
30.9826916
40
0.2130039
50
49.8959006
51
87.010286
0
ARC
8
DEFAULT_255_1_234
10
10.9514629
20
30.9039504
40
0.292249
50
85.7764096
51
90.0424572
0
ARC
8
DEFAULT_255_1_234
10
10.9485345
20
30.9699006
40
0.2263149
50
89.313423
51
109.4265906
0
ARC
8
DEFAULT_255_1_234
10
10.9411056
20
31.0003962
40
0.1951098
50
110.3478057
51
145.1577858
0
ARC
8
DEFAULT_255_1_234
10
11.0064849
20
30.952775
40
0.2759807
50
144.7982748
51
162.8715388
0
ARC
8
DEFAULT_255_1_234
10
11.1759499
20
30.8982842
40
0.453983
50
162.5984223
51
173.3418672
0
ARC
8
DEFAULT_255_1_234
10
11.4427277
20
30.8651851
40
0.7228019
50
173.1877442
51
180.2462216
0
LINE
8
DEFAULT_255_1_234
10
12.0748865
20
30.4372
11
12.0716738
21
30.5231396
0
LINE
8
DEFAULT_255_1_234
10
11.531941
20
30.7407997
11
11.531941
21
31.3062341
0
LINE
8
DEFAULT_255_1_234
10
11.531941
20
31.3062341
11
11.6805282
21
31.3062341
0
LINE
8
DEFAULT_255_1_234
10
11.6805282
20
31.3062341
11
11.6805282
21
30.7448156
0
LINE
8
DEFAULT_255_1_234
10
12.067658
20
30.6741363
11
12.067658
21
31.3062341
0
LINE
8
DEFAULT_255_1_234
10
12.067658
20
31.3062341
11
12.2162451
21
31.3062341
0
LINE
8
DEFAULT_255_1_234
10
12.2162451
20
31.3062341
11
12.2162451
21
30.4372
0
LINE
8
DEFAULT_255_1_234
10
12.2162451
20
30.4372
11
12.0748865
21
30.4372
0
ARC
8
DEFAULT_255_1_234
10
11.8601203
20
30.704906
40
0.2789157
50
282.5436552
51
319.3308843
0
ARC
8
DEFAULT_255_1_234
10
11.8214036
20
30.8555137
40
0.4343667
50
269.8917857
51
283.214153
0
ARC
8
DEFAULT_255_1_234
10
11.8170721
20
30.9715183
40
0.5503818
50
269.9995424
51
270.3655186
0
ARC
8
DEFAULT_255_1_234
10
11.8140197
20
30.802453
40
0.3813286
50
257.7355913
51
270.4579866
0
ARC
8
DEFAULT_255_1_234
10
11.7842896
20
30.6725503
40
0.2480795
50
233.3384413
51
258.0721298
0
ARC
8
DEFAULT_255_1_234
10
11.7708503
20
30.6506041
40
0.2224626
50
221.9626381
51
232.7401232
0
ARC
8
DEFAULT_255_1_234
10
11.7988552
20
30.672133
40
0.2576959
50
197.9450831
51
221.3585622
0
ARC
8
DEFAULT_255_1_234
10
11.9383747
20
30.7197997
40
0.4051213
50
185.8088195
51
198.2790125
0
ARC
8
DEFAULT_255_1_234
10
12.127555
20
30.7422963
40
0.5956158
50
180.1439627
51
186.1199408
0
ARC
8
DEFAULT_255_1_234
10
12.0374418
20
30.741256
40
0.3569313
50
179.4285986
51
191.0735588
0
ARC
8
DEFAULT_255_1_234
10
11.8690846
20
30.7065017
40
0.1850421
50
190.5251661
51
212.6990766
0
ARC
8
DEFAULT_255_1_234
10
11.8226639
20
30.680883
40
0.1321852
50
214.2246197
51
264.4398755
0
ARC
8
DEFAULT_255_1_234
10
11.8403975
20
30.7718426
40
0.224609
50
262.1850223
51
270.1952455
0
ARC
8
DEFAULT_255_1_234
10
11.8445865
20
30.8994524
40
0.3522342
50
269.4431043
51
282.9585023
0
ARC
8
DEFAULT_255_1_234
10
11.8782555
20
30.7624561
40
0.2111871
50
282.391263
51
311.9722193
0
ARC
8
DEFAULT_255_1_234
10
11.8790152
20
30.7551809
40
0.2053153
50
313.1724425
51
336.7506893
0
LINE
8
DEFAULT_255_1_234
10
12.9953237
20
30.7110823
11
13.1358792
21
30.7110823
0
LINE
8
DEFAULT_255_1_234
10
12.4033846
20
30.8636853
11
12.4033846
21
30.8885837
0
LINE
8
DEFAULT_255_1_234
10
13.1358792
20
31.0074534
11
12.9953237
21
31.0074534
0
LINE
8
DEFAULT_255_1_234
10
12.5519718
20
30.8829615
11
12.5519718
21
30.8548504
0
ARC
8
DEFAULT_255_1_234
10
12.7941273
20
30.7564121
40
0.2140268
50
269.0327816
51
309.2224514
0
ARC
8
DEFAULT_255_1_234
10
12.8151027
20
30.7349108
40
0.1841255
50
308.396669
51
329.6984113
0
ARC
8
DEFAULT_255_1_234
10
12.8288882
20
30.724482
40
0.166974
50
330.401383
51
355.3970571
0
ARC
8
DEFAULT_255_1_234
10
12.8745748
20
30.7262082
40
0.2617417
50
329.2357853
51
356.6870514
0
ARC
8
DEFAULT_255_1_234
10
12.819577
20
30.7552971
40
0.3238945
50
324.8706984
51
329.7905871
0
ARC
8
DEFAULT_255_1_234
10
12.8117489
20
30.7620106
40
0.3341614
50
298.8769168
51
324.7016144
0
ARC
8
DEFAULT_255_1_234
10
12.778568
20
30.8148917
40
0.3965068
50
296.9023738
51
299.385174
0
ARC
8
DEFAULT_255_1_234
10
12.7915294
20
30.7861422
40
0.365007
50
269.8406811
51
297.1299281
0
ARC
8
DEFAULT_255_1_234
10
12.786195
20
30.8499407
40
0.4288259
50
253.315473
51
270.5771285
0
ARC
8
DEFAULT_255_1_234
10
12.7614985
20
30.7605739
40
0.3361372
50
221.1002312
51
252.9744583
0
ARC
8
DEFAULT_255_1_234
10
12.8074983
20
30.800059
40
0.3967576
50
194.5394537
51
221.0302238
0
ARC
8
DEFAULT_255_1_234
10
12.9923804
20
30.8515952
40
0.5886672
50
182.0499201
51
194.8773585
0
ARC
8
DEFAULT_255_1_234
10
13.1694002
20
30.863406
40
0.7660157
50
179.9791086
51
182.4591564
0
ARC
8
DEFAULT_255_1_234
10
12.9956046
20
30.8915498
40
0.5922274
50
168.614861
51
180.2869651
0
ARC
8
DEFAULT_255_1_234
10
12.8754191
20
30.9151269
40
0.4697532
50
154.9162259
51
168.5402336
0
ARC
8
DEFAULT_255_1_234
10
12.7832699
20
30.960663
40
0.3669966
50
133.5746694
51
155.2558665
0
ARC
8
DEFAULT_255_1_234
10
12.7669857
20
30.9745467
40
0.3457206
50
122.0165146
51
133.2055214
0
ARC
8
DEFAULT_255_1_234
10
12.7705696
20
30.9657361
40
0.355095
50
97.8731644
51
121.7531281
0
ARC
8
DEFAULT_255_1_234
10
12.7884779
20
30.8600159
40
0.4622833
50
89.8471353
51
98.2769494
0
ARC
8
DEFAULT_255_1_234
10
12.7933531
20
30.9210091
40
0.401305
50
73.3760412
51
90.5199766
0
ARC
8
DEFAULT_255_1_234
10
12.8129895
20
30.9932516
40
0.3264695
50
47.7085968
51
73.0509704
0
ARC
8
DEFAULT_255_1_234
10
12.8259765
20
31.0045128
40
0.309407
50
3.7443473
51
48.0843753
0
ARC
8
DEFAULT_255_1_234
10
12.7272714
20
30.9887614
40
0.4090351
50
2.6192045
51
5.0432185
0
ARC
8
DEFAULT_255_1_234
10
12.7729568
20
30.9927592
40
0.2228519
50
3.780656
51
23.9356886
0
ARC
8
DEFAULT_255_1_234
10
12.7958184
20
31.0008155
40
0.198697
50
24.4869552
51
46.9440088
0
ARC
8
DEFAULT_255_1_234
10
12.7959034
20
31.0031484
40
0.1969404
50
46.498716
51
89.3298174
0
ARC
8
DEFAULT_255_1_234
10
12.7897388
20
30.9436723
40
0.2565428
50
88.1083975
51
90.0061569
0
ARC
8
DEFAULT_255_1_234
10
12.7869818
20
30.9490759
40
0.251154
50
89.3773333
51
107.2071161
0
ARC
8
DEFAULT_255_1_234
10
12.7726941
20
31.000819
40
0.1975072
50
107.6883219
51
143.3583002
0
ARC
8
DEFAULT_255_1_234
10
12.8294325
20
30.9581873
40
0.2684762
50
143.2846717
51
162.935323
0
ARC
8
DEFAULT_255_1_234
10
12.9799926
20
30.9098652
40
0.4265927
50
162.6650068
51
174.0805419
0
ARC
8
DEFAULT_255_1_234
10
13.1942766
20
30.8849636
40
0.6423078
50
173.8423985
51
180.1785963
0
ARC
8
DEFAULT_255_1_234
10
13.1394866
20
30.8518039
40
0.5875227
50
179.7028978
51
188.2277152
0
ARC
8
DEFAULT_255_1_234
10
12.9293167
20
30.8203247
40
0.3750127
50
188.0629871
51
201.1160002
0
ARC
8
DEFAULT_255_1_234
10
12.8195366
20
30.7784238
40
0.2575093
50
201.2187293
51
216.9761968
0
ARC
8
DEFAULT_255_1_234
10
12.7743929
20
30.7445993
40
0.2010998
50
217.0135981
51
265.2056839
0
ARC
8
DEFAULT_255_1_234
10
12.7899788
20
30.8367695
40
0.2943543
50
263.681807
51
270.104251
0
LINE
8
DEFAULT_255_1_234
10
13.3559488
20
31.5166656
11
13.5045359
21
31.5166656
0
LINE
8
DEFAULT_255_1_234
10
13.5045359
20
31.5166656
11
13.5045359
21
31.3062341
0
LINE
8
DEFAULT_255_1_234
10
13.5045359
20
31.3062341
11
13.6667771
21
31.3062341
0
LINE
8
DEFAULT_255_1_234
10
13.6667771
20
31.3062341
11
13.6667771
21
31.1913802
0
LINE
8
DEFAULT_255_1_234
10
13.6667771
20
31.1913802
11
13.5045359
21
31.1913802
0
LINE
8
DEFAULT_255_1_234
10
13.5045359
20
31.1913802
11
13.5045359
21
30.6524506
0
LINE
8
DEFAULT_255_1_234
10
13.6707929
20
30.5576761
11
13.6707929
21
30.4372
0
LINE
8
DEFAULT_255_1_234
10
13.3559488
20
30.6524506
11
13.3559488
21
31.1913802
0
LINE
8
DEFAULT_255_1_234
10
13.3559488
20
31.1913802
11
13.1977235
21
31.1913802
0
LINE
8
DEFAULT_255_1_234
10
13.1977235
20
31.1913802
11
13.1977235
21
31.3062341
0
LINE
8
DEFAULT_255_1_234
10
13.1977235
20
31.3062341
11
13.3559488
21
31.3062341
0
LINE
8
DEFAULT_255_1_234
10
13.3559488
20
31.3062341
11
13.3559488
21
31.5166656
0
ARC
8
DEFAULT_255_1_234
10
13.7052862
20
30.6514084
40
0.200753
50
179.7025659
51
187.917967
0
ARC
8
DEFAULT_255_1_234
10
13.6306888
20
30.6406724
40
0.1253883
50
187.7545981
51
200.2447476
0
ARC
8
DEFAULT_255_1_234
10
13.5886209
20
30.6249859
40
0.0804913
50
200.130383
51
219.174133
0
ARC
8
DEFAULT_255_1_234
10
13.5750386
20
30.6157515
40
0.0641445
50
220.4434483
51
249.6172
0
ARC
8
DEFAULT_255_1_234
10
13.5905236
20
30.6546968
40
0.1060489
50
249.1032952
51
262.775154
0
ARC
8
DEFAULT_255_1_234
10
13.5993408
20
30.7175715
40
0.1695354
50
262.4913187
51
270.2611758
0
ARC
8
DEFAULT_255_1_234
10
13.5990825
20
30.7391103
40
0.191075
50
270.3091804
51
275.6625139
0
ARC
8
DEFAULT_255_1_234
10
13.584805
20
30.8892435
40
0.3418851
50
275.5610264
51
279.0879356
0
ARC
8
DEFAULT_255_1_234
10
13.5517927
20
31.0987699
40
0.5539959
50
279.0365489
51
281.5011378
0
ARC
8
DEFAULT_255_1_234
10
13.5161004
20
31.2791423
40
0.7378639
50
281.4243939
51
282.1017894
0
ARC
8
DEFAULT_255_1_234
10
13.5504251
20
30.8709858
40
0.4501761
50
275.2597045
51
285.5083879
0
ARC
8
DEFAULT_255_1_234
10
13.5565576
20
30.8153606
40
0.3942242
50
270.0268409
51
275.1132796
0
ARC
8
DEFAULT_255_1_234
10
13.5545541
20
30.6826614
40
0.261534
50
257.3573315
51
270.479383
0
ARC
8
DEFAULT_255_1_234
10
13.5332431
20
30.5928406
40
0.1692304
50
230.8037497
51
257.741658
0
ARC
8
DEFAULT_255_1_234
10
13.5264335
20
30.5818777
40
0.1564393
50
219.974146
51
230.1990686
0
ARC
8
DEFAULT_255_1_234
10
13.5596281
20
30.6072579
40
0.1981916
50
196.5084186
51
219.4318458
0
ARC
8
DEFAULT_255_1_234
10
13.6611727
20
30.6391194
40
0.3046086
50
184.6404872
51
196.8269686
0
ARC
8
DEFAULT_255_1_234
10
13.7856791
20
30.6516908
40
0.4297309
50
179.8986958
51
184.9681077
0
LINE
8
DEFAULT_255_1_234
10
14.0017005
20
31.3062341
11
14.0017005
21
30.4372
0
LINE
8
DEFAULT_255_1_234
10
14.0017005
20
30.4372
11
13.8531134
21
30.4372
0
LINE
8
DEFAULT_255_1_234
10
13.8531134
20
30.4372
11
13.8531134
21
31.3062341
0
LINE
8
DEFAULT_255_1_234
10
13.8531134
20
31.3062341
11
14.0017005
21
31.3062341
0
ARC
8
DEFAULT_255_1_234
10
13.9389282
20
31.5376889
40
0.097867
50
161.415052
51
180.5526306
0
ARC
8
DEFAULT_255_1_234
10
13.9265061
20
31.5411077
40
0.0850062
50
138.1827368
51
160.9307106
0
ARC
8
DEFAULT_255_1_234
10
13.9155006
20
31.5506588
40
0.0704362
50
104.6368899
51
138.0039868
0
ARC
8
DEFAULT_255_1_234
10
13.9262161
20
31.5139963
40
0.1086221
50
92.0600725
51
105.2189128
0
ARC
8
DEFAULT_255_1_234
10
13.9285509
20
31.4797117
40
0.1429728
50
89.9756393
51
92.5012496
0
ARC
8
DEFAULT_255_1_234
10
13.9295529
20
31.5022731
40
0.1204151
50
78.0235316
51
90.4478182
0
ARC
8
DEFAULT_255_1_234
10
13.9387621
20
31.5436295
40
0.0780493
50
55.051506
51
78.3369085
0
ARC
8
DEFAULT_255_1_234
10
13.9437895
20
31.5520711
40
0.0682538
50
42.0501187
51
54.4513741
0
ARC
8
DEFAULT_255_1_234
10
13.9302762
20
31.5396798
40
0.0865878
50
1.7497075
51
42.1496013
0
ARC
8
DEFAULT_255_1_234
10
13.9048095
20
31.5367738
40
0.1121515
50
359.9852656
51
2.8364544
0
ARC
8
DEFAULT_255_1_234
10
13.9214087
20
31.5358229
40
0.0955566
50
342.1070653
51
0.552888
0
ARC
8
DEFAULT_255_1_234
10
13.9356784
20
31.5318904
40
0.0807713
50
316.7107116
51
341.6516965
0
ARC
8
DEFAULT_255_1_234
10
13.9423822
20
31.5258823
40
0.0717724
50
285.4397031
51
316.5324284
0
ARC
8
DEFAULT_255_1_234
10
13.9313739
20
31.5624554
40
0.1099597
50
272.3547054
51
285.8953117
0
ARC
8
DEFAULT_255_1_234
10
13.9286897
20
31.5990048
40
0.1465932
50
269.9695369
51
272.8160237
0
ARC
8
DEFAULT_255_1_234
10
13.9277078
20
31.5770863
40
0.1246779
50
258.8431134
51
270.4153935
0
ARC
8
DEFAULT_255_1_234
10
13.918712
20
31.5335414
40
0.0802162
50
238.5431189
51
259.1288175
0
ARC
8
DEFAULT_255_1_234
10
13.9119005
20
31.5211856
40
0.0661247
50
222.5062634
51
237.9906969
0
ARC
8
DEFAULT_255_1_234
10
13.9246593
20
31.5327889
40
0.0833707
50
184.1069131
51
222.460413
0
ARC
8
DEFAULT_255_1_234
10
13.9515833
20
31.5366349
40
0.1105176
50
179.9429482
51
185.0960898
0
LINE
8
DEFAULT_255_1_234
10
14.3053002
20
31.3062341
11
14.526173
21
30.6387966
0
LINE
8
DEFAULT_255_1_234
10
14.526173
20
30.6387966
11
14.7414236
21
31.3062341
0
LINE
8
DEFAULT_255_1_234
10
14.7414236
20
31.3062341
11
14.8932235
21
31.3062341
0
LINE
8
DEFAULT_255_1_234
10
14.8932235
20
31.3062341
11
14.581592
21
30.4372
0
LINE
8
DEFAULT_255_1_234
10
14.581592
20
30.4372
11
14.4683445
21
30.4372
0
LINE
8
DEFAULT_255_1_234
10
14.4683445
20
30.4372
11
14.1535004
21
31.3062341
0
LINE
8
DEFAULT_255_1_234
10
14.1535004
20
31.3062341
11
14.3053002
21
31.3062341
0
LINE
8
DEFAULT_255_1_234
10
15.1976264
20
31.3062341
11
15.1976264
21
30.4372
0
LINE
8
DEFAULT_255_1_234
10
15.1976264
20
30.4372
11
15.0490392
21
30.4372
0
LINE
8
DEFAULT_255_1_234
10
15.0490392
20
30.4372
11
15.0490392
21
31.3062341
0
LINE
8
DEFAULT_255_1_234
10
15.0490392
20
31.3062341
11
15.1976264
21
31.3062341
0
ARC
8
DEFAULT_255_1_234
10
15.1348541
20
31.5376889
40
0.097867
50
161.415052
51
180.5526306
0
ARC
8
DEFAULT_255_1_234
10
15.1224319
20
31.5411077
40
0.0850062
50
138.1827368
51
160.9307106
0
ARC
8
DEFAULT_255_1_234
10
15.1114265
20
31.5506588
40
0.0704362
50
104.6368899
51
138.0039868
0
ARC
8
DEFAULT_255_1_234
10
15.1221419
20
31.5139963
40
0.1086221
50
92.0600725
51
105.2189128
0
ARC
8
DEFAULT_255_1_234
10
15.1244768
20
31.4797117
40
0.1429728
50
89.9756393
51
92.5012496
0
ARC
8
DEFAULT_255_1_234
10
15.1254787
20
31.5022731
40
0.1204151
50
78.0235316
51
90.4478182
0
ARC
8
DEFAULT_255_1_234
10
15.1346879
20
31.5436295
40
0.0780493
50
55.051506
51
78.3369085
0
ARC
8
DEFAULT_255_1_234
10
15.1397153
20
31.5520711
40
0.0682538
50
42.0501187
51
54.4513741
0
ARC
8
DEFAULT_255_1_234
10
15.126202
20
31.5396798
40
0.0865878
50
1.7497075
51
42.1496013
0
ARC
8
DEFAULT_255_1_234
10
15.1007353
20
31.5367738
40
0.1121515
50
359.9852656
51
2.8364544
0
ARC
8
DEFAULT_255_1_234
10
15.1173345
20
31.5358229
40
0.0955566
50
342.1070653
51
0.552888
0
ARC
8
DEFAULT_255_1_234
10
15.1316043
20
31.5318904
40
0.0807713
50
316.7107116
51
341.6516965
0
ARC
8
DEFAULT_255_1_234
10
15.138308
20
31.5258823
40
0.0717724
50
285.4397031
51
316.5324284
0
ARC
8
DEFAULT_255_1_234
10
15.1272997
20
31.5624554
40
0.1099597
50
272.3547054
51
285.8953117
0
ARC
8
DEFAULT_255_1_234
10
15.1246155
20
31.5990048
40
0.1465932
50
269.9695369
51
272.8160237
0
ARC
8
DEFAULT_255_1_234
10
15.1236336
20
31.5770863
40
0.1246779
50
258.8431134
51
270.4153935
0
ARC
8
DEFAULT_255_1_234
10
15.1146379
20
31.5335414
40
0.0802162
50
238.5431189
51
259.1288175
0
ARC
8
DEFAULT_255_1_234
10
15.1078264
20
31.5211856
40
0.0661247
50
222.5062634
51
237.9906969
0
ARC
8
DEFAULT_255_1_234
10
15.1205851
20
31.5327889
40
0.0833707
50
184.1069131
51
222.460413
0
ARC
8
DEFAULT_255_1_234
10
15.1475092
20
31.5366349
40
0.1105176
50
179.9429482
51
185.0960898
0
LINE
8
DEFAULT_255_1_234
10
15.4883753
20
31.5166656
11
15.6369625
21
31.5166656
0
LINE
8
DEFAULT_255_1_234
10
15.6369625
20
31.5166656
11
15.6369625
21
31.3062341
0
LINE
8
DEFAULT_255_1_234
10
15.6369625
20
31.3062341
11
15.7992036
21
31.3062341
0
LINE
8
DEFAULT_255_1_234
10
15.7992036
20
31.3062341
11
15.7992036
21
31.1913802
0
LINE
8
DEFAULT_255_1_234
10
15.7992036
20
31.1913802
11
15.6369625
21
31.1913802
0
LINE
8
DEFAULT_255_1_234
10
15.6369625
20
31.1913802
11
15.6369625
21
30.6524506
0
LINE
8
DEFAULT_255_1_234
10
15.8032194
20
30.5576761
11
15.8032194
21
30.4372
0
LINE
8
DEFAULT_255_1_234
10
15.4883753
20
30.6524506
11
15.4883753
21
31.1913802
0
LINE
8
DEFAULT_255_1_234
10
15.4883753
20
31.1913802
11
15.33015
21
31.1913802
0
LINE
8
DEFAULT_255_1_234
10
15.33015
20
31.1913802
11
15.33015
21
31.3062341
0
LINE
8
DEFAULT_255_1_234
10
15.33015
20
31.3062341
11
15.4883753
21
31.3062341
0
LINE
8
DEFAULT_255_1_234
10
15.4883753
20
31.3062341
11
15.4883753
21
31.5166656
0
ARC
8
DEFAULT_255_1_234
10
15.8377127
20
30.6514084
40
0.200753
50
179.7025659
51
187.917967
0
ARC
8
DEFAULT_255_1_234
10
15.7631153
20
30.6406724
40
0.1253883
50
187.7545981
51
200.2447476
0
ARC
8
DEFAULT_255_1_234
10
15.7210474
20
30.6249859
40
0.0804913
50
200.130383
51
219.174133
0
ARC
8
DEFAULT_255_1_234
10
15.7074651
20
30.6157515
40
0.0641445
50
220.4434483
51
249.6172
0
ARC
8
DEFAULT_255_1_234
10
15.7229501
20
30.6546968
40
0.1060489
50
249.1032952
51
262.775154
0
ARC
8
DEFAULT_255_1_234
10
15.7317673
20
30.7175715
40
0.1695354
50
262.4913187
51
270.2611758
0
ARC
8
DEFAULT_255_1_234
10
15.7315091
20
30.7391103
40
0.191075
50
270.3091804
51
275.6625139
0
ARC
8
DEFAULT_255_1_234
10
15.7172315
20
30.8892435
40
0.3418851
50
275.5610264
51
279.0879356
0
ARC
8
DEFAULT_255_1_234
10
15.6842192
20
31.0987699
40
0.5539959
50
279.0365489
51
281.5011378
0
ARC
8
DEFAULT_255_1_234
10
15.6485269
20
31.2791423
40
0.7378639
50
281.4243939
51
282.1017894
0
ARC
8
DEFAULT_255_1_234
10
15.6828516
20
30.8709858
40
0.4501761
50
275.2597045
51
285.5083879
0
ARC
8
DEFAULT_255_1_234
10
15.6889841
20
30.8153606
40
0.3942242
50
270.0268409
51
275.1132796
0
ARC
8
DEFAULT_255_1_234
10
15.6869806
20
30.6826614
40
0.261534
50
257.3573315
51
270.479383
0
ARC
8
DEFAULT_255_1_234
10
15.6656697
20
30.5928406
40
0.1692304
50
230.8037497
51
257.741658
0
ARC
8
DEFAULT_255_1_234
10
15.65886
20
30.5818777
40
0.1564393
50
219.974146
51
230.1990686
0
ARC
8
DEFAULT_255_1_234
10
15.6920546
20
30.6072579
40
0.1981916
50
196.5084186
51
219.4318458
0
ARC
8
DEFAULT_255_1_234
10
15.7935992
20
30.6391194
40
0.3046086
50
184.6404872
51
196.8269686
0
ARC
8
DEFAULT_255_1_234
10
15.9181056
20
30.6516908
40
0.4297309
50
179.8986958
51
184.9681077
0
LINE
8
DEFAULT_255_1_234
10
16.0401557
20
31.3062341
11
16.2570126
21
30.6548601
0
LINE
8
DEFAULT_255_1_234
10
16.2570126
20
30.6548601
11
16.4594125
21
31.3062341
0
LINE
8
DEFAULT_255_1_234
10
16.4594125
20
31.3062341
11
16.6184409
21
31.3062341
0
LINE
8
DEFAULT_255_1_234
10
16.6184409
20
31.3062341
11
16.2690603
21
30.30307
0
LINE
8
DEFAULT_255_1_234
10
16.0112415
20
30.086213
11
15.9831304
21
30.0886226
0
LINE
8
DEFAULT_255_1_234
10
15.9831304
20
30.0886226
11
15.9277114
21
30.0990638
0
LINE
8
DEFAULT_255_1_234
10
15.9277114
20
30.0990638
11
15.9277114
21
30.2195399
0
LINE
8
DEFAULT_255_1_234
10
15.9277114
20
30.2195399
11
15.9678701
21
30.2163272
0
LINE
8
DEFAULT_255_1_234
10
16.1550096
20
30.358489
11
16.1879397
21
30.4468381
0
LINE
8
DEFAULT_255_1_234
10
16.1879397
20
30.4468381
11
15.8779146
21
31.3062341
0
LINE
8
DEFAULT_255_1_234
10
15.8779146
20
31.3062341
11
16.0401557
21
31.3062341
0
ARC
8
DEFAULT_255_1_234
10
15.8055945
20
30.4715403
40
0.4931356
50
327.7224013
51
340.0237316
0
ARC
8
DEFAULT_255_1_234
10
15.9808161
20
30.358372
40
0.2845645
50
305.2163759
51
328.1469174
0
ARC
8
DEFAULT_255_1_234
10
16.0153212
20
30.3174893
40
0.2313123
50
268.9893887
51
304.0733175
0
ARC
8
DEFAULT_255_1_234
10
15.9693414
20
30.5198864
40
0.3035628
50
269.7222887
51
278.0404605
0
ARC
8
DEFAULT_255_1_234
10
15.9849237
20
30.4138823
40
0.1964222
50
277.8648378
51
290.8634365
0
ARC
8
DEFAULT_255_1_234
10
16.0057226
20
30.3583422
40
0.1371168
50
291.0076295
51
305.5967213
0
ARC
8
DEFAULT_255_1_234
10
16.0038417
20
30.3567702
40
0.1369553
50
306.6194038
51
324.1023288
0
ARC
8
DEFAULT_255_1_234
10
15.9291231
20
30.41222
40
0.2299972
50
323.8264381
51
334.2987676
0
ARC
8
DEFAULT_255_1_234
10
15.804734
20
30.4733087
40
0.3685747
50
334.1277399
51
340.8153554
0
ARC
8
DEFAULT_255_1_234
10
15.7071275
20
30.5092465
40
0.4725741
50
340.5889714
51
341.3967148
0
LINE
8
DEFAULT_255_1_234
10
17.2240339
20
31.6122433
11
17.2240339
21
30.4372
0
LINE
8
DEFAULT_255_1_234
10
17.2240339
20
30.4372
11
17.0746436
21
30.4372
0
LINE
8
DEFAULT_255_1_234
10
17.0746436
20
30.4372
11
17.0746436
21
31.4275133
0
LINE
8
DEFAULT_255_1_234
10
17.0746436
20
31.4275133
11
16.7750598
21
31.3174785
0
LINE
8
DEFAULT_255_1_234
10
16.7750598
20
31.3174785
11
16.7750598
21
31.4524117
0
LINE
8
DEFAULT_255_1_234
10
16.7750598
20
31.4524117
11
17.2007419
21
31.6122433
0
LINE
8
DEFAULT_255_1_234
10
17.2007419
20
31.6122433
11
17.2240339
21
31.6122433
0
LINE
8
DEFAULT_255_1_234
10
18.3926519
20
31.1287327
11
18.3926519
21
30.9359709
0
LINE
8
DEFAULT_255_1_234
10
17.6545351
20
30.9158916
11
17.6545351
21
31.1142755
0
LINE
8
DEFAULT_255_1_234
10
18.2440647
20
30.8958123
11
18.2440647
21
31.1391739
0
LINE
8
DEFAULT_255_1_234
10
17.8031223
20
31.1504184
11
17.8031223
21
30.9126789
0
ARC
8
DEFAULT_255_1_234
10
17.1679408
20
30.9310805
40
1.2247208
50
353.8441951
51
0.2287902
0
ARC
8
DEFAULT_255_1_234
10
17.6318912
20
30.8792806
40
0.7578929
50
344.4934747
51
353.9765454
0
ARC
8
DEFAULT_255_1_234
10
17.9311502
20
30.7941981
40
0.4467846
50
329.2803592
51
344.7472793
0
ARC
8
DEFAULT_255_1_234
10
18.0304327
20
30.7397018
40
0.3336173
50
324.9352394
51
328.6160465
0
ARC
8
DEFAULT_255_1_234
10
18.0681436
20
30.7133427
40
0.2876076
50
280.580143
51
324.9173126
0
ARC
8
DEFAULT_255_1_234
10
18.0280228
20
30.8804099
40
0.4592847
50
269.5977311
51
281.6734359
0
ARC
8
DEFAULT_255_1_234
10
18.0208134
20
30.8684173
40
0.4472986
50
256.6228859
51
270.51044
0
ARC
8
DEFAULT_255_1_234
10
17.9806112
20
30.7135877
40
0.2873874
50
215.8618325
51
257.2788573
0
ARC
8
DEFAULT_255_1_234
10
18.0827143
20
30.7820977
40
0.4102928
50
197.9693508
51
215.2623606
0
ARC
8
DEFAULT_255_1_234
10
18.3312259
20
30.8659709
40
0.6725652
50
187.8816417
51
198.2346507
0
ARC
8
DEFAULT_255_1_234
10
18.7270467
20
30.9231079
40
1.0724845
50
180.8976217
51
188.0055519
0
ARC
8
DEFAULT_255_1_234
10
19.0070655
20
30.9334777
40
1.3526448
50
180.7449369
51
181.1510016
0
ARC
8
DEFAULT_255_1_234
10
18.8493384
20
31.1191042
40
1.1948131
50
173.7675579
51
180.231553
0
ARC
8
DEFAULT_255_1_234
10
18.3975531
20
31.1701666
40
0.7401564
50
164.3058563
51
173.9002247
0
ARC
8
DEFAULT_255_1_234
10
18.10636
20
31.2540656
40
0.4371288
50
148.7922025
51
164.568378
0
ARC
8
DEFAULT_255_1_234
10
18.0112052
20
31.3071929
40
0.3282386
50
144.5883898
51
148.1176286
0
ARC
8
DEFAULT_255_1_234
10
17.976895
20
31.3311315
40
0.2864044
50
101.6440918
51
144.514236
0
ARC
8
DEFAULT_255_1_234
10
18.0194017
20
31.1622069
40
0.4604934
50
89.5284041
51
102.5819763
0
ARC
8
DEFAULT_255_1_234
10
18.0273104
20
31.1583018
40
0.464401
50
77.0437873
51
90.5081339
0
ARC
8
DEFAULT_255_1_234
10
18.0675106
20
31.3225615
40
0.2953195
50
48.2778575
51
77.4994676
0
ARC
8
DEFAULT_255_1_234
10
18.0747737
20
31.3354746
40
0.2808655
50
36.3142134
51
47.6305865
0
ARC
8
DEFAULT_255_1_234
10
17.9879044
20
31.2769515
40
0.3855453
50
18.2931786
51
35.6769206
0
ARC
8
DEFAULT_255_1_234
10
17.7335803
20
31.1896593
40
0.654423
50
8.024666
51
18.5605216
0
ARC
8
DEFAULT_255_1_234
10
17.3172723
20
31.1281792
40
1.0752407
50
1.1274072
51
8.1718305
0
ARC
8
DEFAULT_255_1_234
10
16.9936914
20
31.1154885
40
1.3990231
50
0.5424119
51
1.3863029
0
ARC
8
DEFAULT_255_1_234
10
17.1758292
20
31.1427342
40
1.0682415
50
359.8090433
51
4.9407866
0
ARC
8
DEFAULT_255_1_234
10
17.5968306
20
31.1803113
40
0.6455691
50
4.8362157
51
12.2904523
0
ARC
8
DEFAULT_255_1_234
10
17.872342
20
31.2416965
40
0.3633074
50
12.0805627
51
23.8173984
0
ARC
8
DEFAULT_255_1_234
10
17.9897126
20
31.2913919
40
0.2358723
50
24.2871213
51
31.3935614
0
ARC
8
DEFAULT_255_1_234
10
18.0421823
20
31.3257233
40
0.1732111
50
30.7407893
51
82.4657128
0
ARC
8
DEFAULT_255_1_234
10
18.0241957
20
31.2373691
40
0.263235
50
81.1060089
51
90.2184952
0
ARC
8
DEFAULT_255_1_234
10
18.0206256
20
31.2631924
40
0.2374236
50
89.3806855
51
105.6762551
0
ARC
8
DEFAULT_255_1_234
10
18.0022887
20
31.3298567
40
0.1682847
50
105.7981136
51
149.7388061
0
ARC
8
DEFAULT_255_1_234
10
18.1086965
20
31.265895
40
0.2924306
50
149.4208916
51
163.6286378
0
ARC
8
DEFAULT_255_1_234
10
18.3177853
20
31.202125
40
0.5110213
50
163.3763315
51
172.1410975
0
ARC
8
DEFAULT_255_1_234
10
18.6478572
20
31.1548518
40
0.8444586
50
172.0259487
51
178.0703232
0
ARC
8
DEFAULT_255_1_234
10
18.9508662
20
31.1404906
40
1.1477868
50
177.8631668
51
179.5044149
0
ARC
8
DEFAULT_255_1_234
10
18.8436066
20
30.9090389
40
1.0404907
50
179.7995573
51
185.2460446
0
ARC
8
DEFAULT_255_1_234
10
18.4393105
20
30.8707513
40
0.6343885
50
185.1411642
51
193.0079639
0
ARC
8
DEFAULT_255_1_234
10
18.1749578
20
30.8082641
40
0.3627568
50
192.7897626
51
205.2507664
0
ARC
8
DEFAULT_255_1_234
10
18.0703125
20
30.7615415
40
0.2481908
50
205.8005384
51
211.2537509
0
ARC
8
DEFAULT_255_1_234
10
18.0179565
20
30.726458
40
0.1852521
50
210.3789793
51
238.4008143
0
ARC
8
DEFAULT_255_1_234
10
18.0160087
20
30.7311376
40
0.1882621
50
239.6520629
51
265.9793761
0
ARC
8
DEFAULT_255_1_234
10
18.0245288
20
30.7983427
40
0.2559272
50
265.1315437
51
270.060332
0
ARC
8
DEFAULT_255_1_234
10
18.0274066
20
30.7659534
40
0.2235528
50
269.3314664
51
287.2178029
0
ARC
8
DEFAULT_255_1_234
10
18.0411918
20
30.7156279
40
0.1714108
50
287.7958004
51
329.080874
0
ARC
8
DEFAULT_255_1_234
10
17.9454375
20
30.775393
40
0.2842745
50
328.6634704
51
343.3325132
0
ARC
8
DEFAULT_255_1_234
10
17.7281395
20
30.8430863
40
0.5118644
50
343.0499468
51
351.9393422
0
ARC
8
DEFAULT_255_1_234
10
17.3814695
20
30.8941949
40
0.8622784
50
351.8069023
51
357.7959224
0
ARC
8
DEFAULT_255_1_234
10
17.0579251
20
30.9109721
40
1.1862365
50
357.5871873
51
359.2677531
0
LINE
8
DEFAULT_255_1_234
10
19.3163018
20
31.1287327
11
19.3163018
21
30.9359709
0
LINE
8
DEFAULT_255_1_234
10
18.578185
20
30.9158916
11
18.578185
21
31.1142755
0
LINE
8
DEFAULT_255_1_234
10
19.1677146
20
30.8958123
11
19.1677146
21
31.1391739
0
LINE
8
DEFAULT_255_1_234
10
18.7267722
20
31.1504184
11
18.7267722
21
30.9126789
0
ARC
8
DEFAULT_255_1_234
10
18.0915907
20
30.9310805
40
1.2247208
50
353.8441951
51
0.2287902
0
ARC
8
DEFAULT_255_1_234
10
18.5555411
20
30.8792806
40
0.7578929
50
344.4934747
51
353.9765454
0
ARC
8
DEFAULT_255_1_234
10
18.8548001
20
30.7941981
40
0.4467846
50
329.2803592
51
344.7472793
0
ARC
8
DEFAULT_255_1_234
10
18.9540826
20
30.7397018
40
0.3336173
50
324.9352394
51
328.6160465
0
ARC
8
DEFAULT_255_1_234
10
18.9917935
20
30.7133427
40
0.2876076
50
280.580143
51
324.9173126
0
ARC
8
DEFAULT_255_1_234
10
18.9516727
20
30.8804099
40
0.4592847
50
269.5977311
51
281.6734359
0
ARC
8
DEFAULT_255_1_234
10
18.9444633
20
30.8684173
40
0.4472986
50
256.6228859
51
270.51044
0
ARC
8
DEFAULT_255_1_234
10
18.9042611
20
30.7135877
40
0.2873874
50
215.8618325
51
257.2788573
0
ARC
8
DEFAULT_255_1_234
10
19.0063642
20
30.7820977
40
0.4102928
50
197.9693508
51
215.2623606
0
ARC
8
DEFAULT_255_1_234
10
19.2548758
20
30.8659709
40
0.6725652
50
187.8816417
51
198.2346507
0
ARC
8
DEFAULT_255_1_234
10
19.6506966
20
30.9231079
40
1.0724845
50
180.8976217
51
188.0055519
0
ARC
8
DEFAULT_255_1_234
10
19.9307154
20
30.9334777
40
1.3526448
50
180.7449369
51
181.1510016
0
ARC
8
DEFAULT_255_1_234
10
19.7729883
20
31.1191042
40
1.1948131
50
173.7675579
51
180.231553
0
ARC
8
DEFAULT_255_1_234
10
19.321203
20
31.1701666
40
0.7401564
50
164.3058563
51
173.9002247
0
ARC
8
DEFAULT_255_1_234
10
19.0300099
20
31.2540656
40
0.4371288
50
148.7922025
51
164.568378
0
ARC
8
DEFAULT_255_1_234
10
18.9348551
20
31.3071929
40
0.3282386
50
144.5883898
51
148.1176286
0
ARC
8
DEFAULT_255_1_234
10
18.9005449
20
31.3311315
40
0.2864044
50
101.6440918
51
144.514236
0
ARC
8
DEFAULT_255_1_234
10
18.9430516
20
31.1622069
40
0.4604934
50
89.5284041
51
102.5819763
0
ARC
8
DEFAULT_255_1_234
10
18.9509603
20
31.1583018
40
0.464401
50
77.0437873
51
90.5081339
0
ARC
8
DEFAULT_255_1_234
10
18.9911605
20
31.3225615
40
0.2953195
50
48.2778575
51
77.4994676
0
ARC
8
DEFAULT_255_1_234
10
18.9984236
20
31.3354746
40
0.2808655
50
36.3142134
51
47.6305865
0
ARC
8
DEFAULT_255_1_234
10
18.9115543
20
31.2769515
40
0.3855453
50
18.2931786
51
35.6769206
0
ARC
8
DEFAULT_255_1_234
10
18.6572302
20
31.1896593
40
0.654423
50
8.024666
51
18.5605216
0
ARC
8
DEFAULT_255_1_234
10
18.2409222
20
31.1281792
40
1.0752407
50
1.1274072
51
8.1718305
0
ARC
8
DEFAULT_255_1_234
10
17.9173413
20
31.1154885
40
1.3990231
50
0.5424119
51
1.3863029
0
ARC
8
DEFAULT_255_1_234
10
18.0994791
20
31.1427342
40
1.0682415
50
359.8090433
51
4.9407866
0
ARC
8
DEFAULT_255_1_234
10
18.5204805
20
31.1803113
40
0.6455691
50
4.8362157
51
12.2904523
0
ARC
8
DEFAULT_255_1_234
10
18.795992
20
31.2416965
40
0.3633074
50
12.0805627
51
23.8173984
0
ARC
8
DEFAULT_255_1_234
10
18.9133625
20
31.2913919
40
0.2358723
50
24.2871213
51
31.3935614
0
ARC
8
DEFAULT_255_1_234
10
18.9658322
20
31.3257233
40
0.1732111
50
30.7407893
51
82.4657128
0
ARC
8
DEFAULT_255_1_234
10
18.9478456
20
31.2373691
40
0.263235
50
81.1060089
51
90.2184952
0
ARC
8
DEFAULT_255_1_234
10
18.9442755
20
31.2631924
40
0.2374236
50
89.3806855
51
105.6762551
0
ARC
8
DEFAULT_255_1_234
10
18.9259386
20
31.3298567
40
0.1682847
50
105.7981136
51
149.7388061
0
ARC
8
DEFAULT_255_1_234
10
19.0323464
20
31.265895
40
0.2924306
50
149.4208916
51
163.6286378
0
ARC
8
DEFAULT_255_1_234
10
19.2414352
20
31.202125
40
0.5110213
50
163.3763315
51
172.1410975
0
ARC
8
DEFAULT_255_1_234
10
19.5715071
20
31.1548518
40
0.8444586
50
172.0259487
51
178.0703232
0
ARC
8
DEFAULT_255_1_234
10
19.8745161
20
31.1404906
40
1.1477868
50
177.8631668
51
179.5044149
0
ARC
8
DEFAULT_255_1_234
10
19.7672565
20
30.9090389
40
1.0404907
50
179.7995573
51
185.2460446
0
ARC
8
DEFAULT_255_1_234
10
19.3629604
20
30.8707513
40
0.6343885
50
185.1411642
51
193.0079639
0
ARC
8
DEFAULT_255_1_234
10
19.0986077
20
30.8082641
40
0.3627568
50
192.7897626
51
205.2507664
0
ARC
8
DEFAULT_255_1_234
10
18.9939624
20
30.7615415
40
0.2481908
50
205.8005384
51
211.2537509
0
ARC
8
DEFAULT_255_1_234
10
18.9416064
20
30.726458
40
0.1852521
50
210.3789793
51
238.4008143
0
ARC
8
DEFAULT_255_1_234
10
18.9396586
20
30.7311376
40
0.1882621
50
239.6520629
51
265.9793761
0
ARC
8
DEFAULT_255_1_234
10
18.9481787
20
30.7983427
40
0.2559272
50
265.1315437
51
270.060332
0
ARC
8
DEFAULT_255_1_234
10
18.9510565
20
30.7659534
40
0.2235528
50
269.3314664
51
287.2178029
0
ARC
8
DEFAULT_255_1_234
10
18.9648417
20
30.7156279
40
0.1714108
50
287.7958004
51
329.080874
0
ARC
8
DEFAULT_255_1_234
10
18.8690874
20
30.775393
40
0.2842745
50
328.6634704
51
343.3325132
0
ARC
8
DEFAULT_255_1_234
10
18.6517894
20
30.8430863
40
0.5118644
50
343.0499468
51
351.9393422
0
ARC
8
DEFAULT_255_1_234
10
18.3051194
20
30.8941949
40
0.8622784
50
351.8069023
51
357.7959224
0
ARC
8
DEFAULT_255_1_234
10
17.981575
20
30.9109721
40
1.1862365
50
357.5871873
51
359.2677531
0
LINE
8
DEFAULT_255_1_234
10
20.2399517
20
31.1287327
11
20.2399517
21
30.9359709
0
LINE
8
DEFAULT_255_1_234
10
19.5018349
20
30.9158916
11
19.5018349
21
31.1142755
0
LINE
8
DEFAULT_255_1_234
10
20.0913645
20
30.8958123
11
20.0913645
21
31.1391739
0
LINE
8
DEFAULT_255_1_234
10
19.6504221
20
31.1504184
11
19.6504221
21
30.9126789
0
ARC
8
DEFAULT_255_1_234
10
19.0152406
20
30.9310805
40
1.2247208
50
353.8441951
51
0.2287902
0
ARC
8
DEFAULT_255_1_234
10
19.479191
20
30.8792806
40
0.7578929
50
344.4934747
51
353.9765454
0
ARC
8
DEFAULT_255_1_234
10
19.77845
20
30.7941981
40
0.4467846
50
329.2803592
51
344.7472793
0
ARC
8
DEFAULT_255_1_234
10
19.8777325
20
30.7397018
40
0.3336173
50
324.9352394
51
328.6160465
0
ARC
8
DEFAULT_255_1_234
10
19.9154434
20
30.7133427
40
0.2876076
50
280.580143
51
324.9173126
0
ARC
8
DEFAULT_255_1_234
10
19.8753226
20
30.8804099
40
0.4592847
50
269.5977311
51
281.6734359
0
ARC
8
DEFAULT_255_1_234
10
19.8681132
20
30.8684173
40
0.4472986
50
256.6228859
51
270.51044
0
ARC
8
DEFAULT_255_1_234
10
19.827911
20
30.7135877
40
0.2873874
50
215.8618325
51
257.2788573
0
ARC
8
DEFAULT_255_1_234
10
19.9300141
20
30.7820977
40
0.4102928
50
197.9693508
51
215.2623606
0
ARC
8
DEFAULT_255_1_234
10
20.1785257
20
30.8659709
40
0.6725652
50
187.8816417
51
198.2346507
0
ARC
8
DEFAULT_255_1_234
10
20.5743465
20
30.9231079
40
1.0724845
50
180.8976217
51
188.0055519
0
ARC
8
DEFAULT_255_1_234
10
20.8543653
20
30.9334777
40
1.3526448
50
180.7449369
51
181.1510016
0
ARC
8
DEFAULT_255_1_234
10
20.6966382
20
31.1191042
40
1.1948131
50
173.7675579
51
180.231553
0
ARC
8
DEFAULT_255_1_234
10
20.2448529
20
31.1701666
40
0.7401564
50
164.3058563
51
173.9002247
0
ARC
8
DEFAULT_255_1_234
10
19.9536598
20
31.2540656
40
0.4371288
50
148.7922025
51
164.568378
0
ARC
8
DEFAULT_255_1_234
10
19.858505
20
31.3071929
40
0.3282386
50
144.5883898
51
148.1176286
0
ARC
8
DEFAULT_255_1_234
10
19.8241948
20
31.3311315
40
0.2864044
50
101.6440918
51
144.514236
0
ARC
8
DEFAULT_255_1_234
10
19.8667015
20
31.1622069
40
0.4604934
50
89.5284041
51
102.5819763
0
ARC
8
DEFAULT_255_1_234
10
19.8746102
20
31.1583018
40
0.464401
50
77.0437873
51
90.5081339
0
ARC
8
DEFAULT_255_1_234
10
19.9148104
20
31.3225615
40
0.2953195
50
48.2778575
51
77.4994676
0
ARC
8
DEFAULT_255_1_234
10
19.9220735
20
31.3354746
40
0.2808655
50
36.3142134
51
47.6305865
0
ARC
8
DEFAULT_255_1_234
10
19.8352042
20
31.2769515
40
0.3855453
50
18.2931786
51
35.6769206
0
ARC
8
DEFAULT_255_1_234
10
19.5808801
20
31.1896593
40
0.654423
50
8.024666
51
18.5605216
0
ARC
8
DEFAULT_255_1_234
10
19.1645721
20
31.1281792
40
1.0752407
50
1.1274072
51
8.1718305
0
ARC
8
DEFAULT_255_1_234
10
18.8409912
20
31.1154885
40
1.3990231
50
0.5424119
51
1.3863029
0
ARC
8
DEFAULT_255_1_234
10
19.023129
20
31.1427342
40
1.0682415
50
359.8090433
51
4.9407866
0
ARC
8
DEFAULT_255_1_234
10
19.4441304
20
31.1803113
40
0.6455691
50
4.8362157
51
12.2904523
0
ARC
8
DEFAULT_255_1_234
10
19.7196419
20
31.2416965
40
0.3633074
50
12.0805627
51
23.8173984
0
ARC
8
DEFAULT_255_1_234
10
19.8370124
20
31.2913919
40
0.2358723
50
24.2871213
51
31.3935614
0
ARC
8
DEFAULT_255_1_234
10
19.8894821
20
31.3257233
40
0.1732111
50
30.7407893
51
82.4657128
0
ARC
8
DEFAULT_255_1_234
10
19.8714955
20
31.2373691
40
0.263235
50
81.1060089
51
90.2184952
0
ARC
8
DEFAULT_255_1_234
10
19.8679254
20
31.2631924
40
0.2374236
50
89.3806855
51
105.6762551
0
ARC
8
DEFAULT_255_1_234
10
19.8495885
20
31.3298567
40
0.1682847
50
105.7981136
51
149.7388061
0
ARC
8
DEFAULT_255_1_234
10
19.9559963
20
31.265895
40
0.2924306
50
149.4208916
51
163.6286378
0
ARC
8
DEFAULT_255_1_234
10
20.1650851
20
31.202125
40
0.5110213
50
163.3763315
51
172.1410975
0
ARC
8
DEFAULT_255_1_234
10
20.495157
20
31.1548518
40
0.8444586
50
172.0259487
51
178.0703232
0
ARC
8
DEFAULT_255_1_234
10
20.798166
20
31.1404906
40
1.1477868
50
177.8631668
51
179.5044149
0
ARC
8
DEFAULT_255_1_234
10
20.6909064
20
30.9090389
40
1.0404907
50
179.7995573
51
185.2460446
0
ARC
8
DEFAULT_255_1_234
10
20.2866104
20
30.8707513
40
0.6343885
50
185.1411642
51
193.0079639
0
ARC
8
DEFAULT_255_1_234
10
20.0222576
20
30.8082641
40
0.3627568
50
192.7897626
51
205.2507664
0
ARC
8
DEFAULT_255_1_234
10
19.9176123
20
30.7615415
40
0.2481908
50
205.8005384
51
211.2537509
0
ARC
8
DEFAULT_255_1_234
10
19.8652564
20
30.726458
40
0.1852521
50
210.3789793
51
238.4008143
0
ARC
8
DEFAULT_255_1_234
10
19.8633085
20
30.7311376
40
0.1882621
50
239.6520629
51
265.9793761
0
ARC
8
DEFAULT_255_1_234
10
19.8718286
20
30.7983427
40
0.2559272
50
265.1315437
51
270.060332
0
ARC
8
DEFAULT_255_1_234
10
19.8747064
20
30.7659534
40
0.2235528
50
269.3314664
51
287.2178029
0
ARC
8
DEFAULT_255_1_234
10
19.8884916
20
30.7156279
40
0.1714108
50
287.7958004
51
329.080874
0
ARC
8
DEFAULT_255_1_234
10
19.7927373
20
30.775393
40
0.2842745
50
328.6634704
51
343.3325132
0
ARC
8
DEFAULT_255_1_234
10
19.5754393
20
30.8430863
40
0.5118644
50
343.0499468
51
351.9393422
0
ARC
8
DEFAULT_255_1_234
10
19.2287693
20
30.8941949
40
0.8622784
50
351.8069023
51
357.7959224
0
ARC
8
DEFAULT_255_1_234
10
18.9052249
20
30.9109721
40
1.1862365
50
357.5871873
51
359.2677531
0
ARC
8
DEFAULT_255_2_778
10
8.509117
20
34.4433756
40
0.4373747
50
56.3665942
51
72.7074496
0
ARC
8
DEFAULT_255_2_778
10
8.5463845
20
34.5569358
40
0.3178747
50
73.036784
51
89.7973226
0
ARC
8
DEFAULT_255_2_778
10
8.5537306
20
34.534549
40
0.3403165
50
91.0475309
51
125.5485458
0
ARC
8
DEFAULT_255_2_778
10
8.7194697
20
34.2856905
40
0.6392287
50
124.6669492
51
139.114563
0
ARC
8
DEFAULT_255_2_778
10
8.9609112
20
34.0622799
40
0.9680575
50
138.4713305
51
142.1157612
0
ARC
8
DEFAULT_255_2_778
10
8.583458
20
34.0930121
40
0.5212765
50
117.7453356
51
135.8758074
0
ARC
8
DEFAULT_255_2_778
10
8.486317
20
34.2753596
40
0.3146729
50
90.4656379
51
117.5483702
0
ARC
8
DEFAULT_255_2_778
10
8.4802065
20
34.2600957
40
0.3299454
50
64.3679478
51
89.3829577
0
ARC
8
DEFAULT_255_2_778
10
8.4478855
20
34.1785224
40
0.4175182
50
64.8738747
51
65.2115951
0
LINE
8
DEFAULT_255_2_778
10
8.1968689
20
34.6567331
11
8.1968689
21
34.8327331
0
LINE
8
DEFAULT_255_2_778
10
8.1968689
20
34.8327331
11
7.8565689
21
34.8327331
0
LINE
8
DEFAULT_255_2_778
10
7.8565689
20
34.8327331
11
7.8565689
21
33.6140331
0
LINE
8
DEFAULT_255_2_778
10
7.8565689
20
33.6140331
11
8.2219689
21
33.6140331
0
LINE
8
DEFAULT_255_2_778
10
8.2219689
20
33.6140331
11
8.2092689
21
34.4559331
0
LINE
8
DEFAULT_255_2_778
10
8.6251689
20
34.5565331
11
8.7513689
21
34.8075331
0
LINE
8
DEFAULT_255_2_778
10
15.2045689
20
33.6137331
11
15.2045689
21
34.8451331
0
LINE
8
DEFAULT_255_2_778
10
15.2045689
20
34.8451331
11
15.5702689
21
34.8451331
0
LINE
8
DEFAULT_255_2_778
10
15.5702689
20
34.8451331
11
15.5702689
21
33.6137331
0
LINE
8
DEFAULT_255_2_778
10
15.5702689
20
33.6137331
11
15.2045689
21
33.6137331
0
ARC
8
DEFAULT_255_2_778
10
15.3896435
20
35.237866
40
0.1978332
50
90.7257917
51
180.9507563
0
ARC
8
DEFAULT_255_2_778
10
15.3846161
20
35.2379493
40
0.1977501
50
359.0247012
51
89.2694187
0
ARC
8
DEFAULT_255_2_778
10
15.3846161
20
35.2312174
40
0.1977501
50
270.7305813
51
0.9752988
0
ARC
8
DEFAULT_255_2_778
10
15.3896435
20
35.2313007
40
0.1978332
50
179.0492437
51
269.2742083
0
LINE
8
DEFAULT_255_2_778
10
15.1918375
20
35.2345833
11
15.1918375
21
35.2345833
0
LINE
8
DEFAULT_255_2_778
10
16.8978729
20
33.6104854
11
16.8978729
21
34.8418854
0
LINE
8
DEFAULT_255_2_778
10
16.8978729
20
34.8418854
11
17.2635729
21
34.8418854
0
LINE
8
DEFAULT_255_2_778
10
17.2635729
20
34.8418854
11
17.2635729
21
33.6104854
0
LINE
8
DEFAULT_255_2_778
10
17.2635729
20
33.6104854
11
16.8978729
21
33.6104854
0
ARC
8
DEFAULT_255_2_778
10
17.0829435
20
35.234666
40
0.1978332
50
90.7257917
51
180.9507563
0
ARC
8
DEFAULT_255_2_778
10
17.0778509
20
35.234686
40
0.1978142
50
359.0433553
51
89.2507851
0
ARC
8
DEFAULT_255_2_778
10
17.077851
20
35.2280805
40
0.197814
50
270.7491796
51
0.9566796
0
ARC
8
DEFAULT_255_2_778
10
17.0829435
20
35.2281007
40
0.1978332
50
179.0492437
51
269.2742083
0
LINE
8
DEFAULT_255_2_778
10
16.8851375
20
35.2313833
11
16.8851375
21
35.2313833
0
ARC
8
DEFAULT_255_2_778
10
22.0788624
20
33.4929788
40
0.399929
50
186.2090497
51
214.6438559
0
ARC
8
DEFAULT_255_2_778
10
21.9921847
20
33.453124
40
0.3064065
50
217.727985
51
266.8306819
0
ARC
8
DEFAULT_255_2_778
10
22.0316252
20
33.6634571
40
0.5193404
50
263.7675625
51
266.8049274
0
ARC
8
DEFAULT_255_2_778
10
22.0082454
20
33.4696919
40
0.2399325
50
195.4006145
51
268.6707088
0
ARC
8
DEFAULT_255_2_778
10
22.2805996
20
33.595676
40
0.5382116
50
193.3258898
51
200.6383232
0
ARC
8
DEFAULT_255_2_778
10
22.0638429
20
33.44269
40
0.3083241
50
141.9083968
51
174.6152863
0
ARC
8
DEFAULT_255_2_778
10
22.0026746
20
33.4686305
40
0.2447935
50
89.9988769
51
137.8510912
0
ARC
8
DEFAULT_255_2_778
10
21.9982309
20
33.4863687
40
0.3117869
50
89.1824841
51
162.3459304
0
ARC
8
DEFAULT_255_2_778
10
22.258036
20
33.3544629
40
0.6011919
50
157.8713755
51
162.5920001
0
ARC
8
DEFAULT_255_2_778
10
13.7766756
20
34.0234305
40
0.434232
50
284.0737984
51
307.1283935
0
ARC
8
DEFAULT_255_2_778
10
13.6851625
20
34.360007
40
0.7829896
50
272.5675489
51
284.5802087
0
ARC
8
DEFAULT_255_2_778
10
13.6592437
20
34.7189017
40
1.1427274
50
269.9523961
51
273.0596894
0
ARC
8
DEFAULT_255_2_778
10
13.6631315
20
35.1005793
40
1.5244123
50
264.3721605
51
269.8181894
0
ARC
8
DEFAULT_255_2_778
10
13.7276162
20
35.7723534
40
2.1992727
50
260.3040359
51
264.4165702
0
ARC
8
DEFAULT_255_2_778
10
13.8169183
20
36.3247771
40
2.75885
50
259.2299789
51
260.4081406
0
ARC
8
DEFAULT_255_2_778
10
13.5378686
20
34.1743398
40
0.6077178
50
188.8927198
51
247.0988028
0
ARC
8
DEFAULT_255_2_778
10
13.8804177
20
34.2654831
40
0.9609548
50
185.1081288
51
191.1050073
0
ARC
8
DEFAULT_255_2_778
10
13.7482073
20
34.1929785
40
0.8250312
50
161.5072483
51
180.9066349
0
ARC
8
DEFAULT_255_2_778
10
13.4992734
20
34.2717242
40
0.5639907
50
120.4701872
51
161.0725957
0
ARC
8
DEFAULT_255_2_778
10
13.5849214
20
34.2049885
40
0.6661417
50
90.0499347
51
123.9108507
0
ARC
8
DEFAULT_255_2_778
10
13.5978311
20
34.0484595
40
0.8227812
50
89.9974966
51
90.9394619
0
ARC
8
DEFAULT_255_2_778
10
13.5918811
20
33.8874209
40
0.9838382
50
77.8335832
51
89.6513936
0
ARC
8
DEFAULT_255_2_778
10
13.5043967
20
33.4695168
40
1.4107957
50
69.8093959
51
77.9373312
0
ARC
8
DEFAULT_255_2_778
10
13.4008346
20
33.1677522
40
1.7297745
50
69.0266426
51
70.0397415
0
ARC
8
DEFAULT_255_2_778
10
13.559202
20
33.1896779
40
1.4359408
50
73.9178594
51
79.2452957
0
ARC
8
DEFAULT_255_2_778
10
13.6567017
20
33.7099721
40
0.9065925
50
79.1629935
51
86.6049203
0
ARC
8
DEFAULT_255_2_778
10
13.6747301
20
33.9612944
40
0.654651
50
86.8774046
51
89.9568351
0
ARC
8
DEFAULT_255_2_778
10
13.6672581
20
34.198564
40
0.4174572
50
88.9067133
51
108.0688095
0
ARC
8
DEFAULT_255_2_778
10
13.6100304
20
34.3723074
40
0.2345328
50
107.942404
51
152.2459688
0
ARC
8
DEFAULT_255_2_778
10
14.3241597
20
34.0420486
40
1.0210941
50
154.5072776
51
162.5682748
0
ARC
8
DEFAULT_255_2_778
10
13.952215
20
34.1567929
40
0.6318603
50
162.3915767
51
174.8213024
0
ARC
8
DEFAULT_255_2_778
10
13.787072
20
34.1756035
40
0.4657093
50
175.2922289
51
179.9490984
0
ARC
8
DEFAULT_255_2_778
10
13.6599161
20
34.1682143
40
0.338643
50
178.6796766
51
234.9381893
0
ARC
8
DEFAULT_255_2_778
10
13.6575594
20
34.1798791
40
0.3469445
50
236.3635337
51
264.9414885
0
ARC
8
DEFAULT_255_2_778
10
13.6836236
20
34.3553656
40
0.5241505
50
263.7947872
51
270.1188666
0
ARC
8
DEFAULT_255_2_778
10
13.6783507
20
34.5927527
40
0.7615633
50
270.4785196
51
281.0719661
0
ARC
8
DEFAULT_255_2_778
10
13.5940398
20
35.0466133
40
1.2231753
50
280.8649891
51
287.2606546
0
ARC
8
DEFAULT_255_2_778
10
14.6487772
20
35.8795389
40
2.2970478
50
276.5245429
51
279.5045514
0
ARC
8
DEFAULT_255_2_778
10
14.7141671
20
35.3019037
40
1.7157236
50
272.7759418
51
276.5469051
0
ARC
8
DEFAULT_255_2_778
10
14.7339562
20
34.9216464
40
1.3349546
50
270.0439674
51
272.7180028
0
ARC
8
DEFAULT_255_2_778
10
14.7253399
20
34.4534869
40
0.8668484
50
258.6359382
51
270.6372354
0
ARC
8
DEFAULT_255_2_778
10
14.6326818
20
34.0175616
40
0.4212409
50
235.5405817
51
259.3086539
0
ARC
8
DEFAULT_255_2_778
10
14.5715943
20
33.9102304
40
0.2983588
50
181.5929591
51
233.550276
0
ARC
8
DEFAULT_255_2_778
10
14.7698134
20
33.9401912
40
0.4979343
50
179.9387066
51
184.4062155
0
ARC
8
DEFAULT_255_2_778
10
14.863071
20
34.0361312
40
0.2330741
50
194.3604277
51
259.8152315
0
ARC
8
DEFAULT_255_2_778
10
14.9677954
20
34.401728
40
0.6126343
50
256.2189254
51
270.9017933
0
ARC
8
DEFAULT_255_2_778
10
14.9769331
20
34.7690407
40
0.9798713
50
270.0294871
51
272.2486365
0
LINE
8
DEFAULT_255_2_778
10
15.6204794
20
34.8387239
11
15.9670794
21
34.8387239
0
LINE
8
DEFAULT_255_2_778
10
15.9670794
20
34.8387239
11
16.2379794
21
34.0974239
0
LINE
8
DEFAULT_255_2_778
10
16.2379794
20
34.0974239
11
16.5088794
21
34.8448239
0
LINE
8
DEFAULT_255_2_778
10
16.5088794
20
34.8448239
11
16.8176794
21
34.8448239
0
LINE
8
DEFAULT_255_2_778
10
16.8176794
20
34.8448239
11
16.3133794
21
33.5946239
0
LINE
8
DEFAULT_255_2_778
10
16.3133794
20
33.5946239
11
16.0926794
21
33.5946239
0
LINE
8
DEFAULT_255_2_778
10
16.0926794
20
33.5946239
11
15.6204794
21
34.8387239
0
LINE
8
DEFAULT_255_2_778
10
19.3386794
20
34.1979239
11
19.3605794
21
34.1161239
0
LINE
8
DEFAULT_255_2_778
10
19.3605794
20
34.1161239
11
19.4960794
21
34.1884239
0
LINE
8
DEFAULT_255_2_778
10
19.4960794
20
34.1884239
11
19.4960794
21
33.5319239
0
LINE
8
DEFAULT_255_2_778
10
19.4960794
20
33.5319239
11
19.5968794
21
33.5319239
0
LINE
8
DEFAULT_255_2_778
10
19.5968794
20
33.5319239
11
19.5904794
21
34.2794239
0
LINE
8
DEFAULT_255_2_778
10
19.5904794
20
34.2794239
11
19.5023794
21
34.2794239
0
LINE
8
DEFAULT_255_2_778
10
19.5023794
20
34.2794239
11
19.3386794
21
34.1979239
0
LINE
8
DEFAULT_255_2_778
10
6.2430794
20
35.4671239
11
6.3250794
21
35.4671239
0
LINE
8
DEFAULT_255_2_778
10
6.3250794
20
35.4671239
11
6.3250794
21
33.5102239
0
LINE
8
DEFAULT_255_2_778
10
6.3250794
20
33.5102239
11
18.5318794
21
33.5071239
0
LINE
8
DEFAULT_255_2_778
10
18.5318794
20
33.5071239
11
18.5350794
21
33.4253239
0
LINE
8
DEFAULT_255_2_778
10
18.5350794
20
33.4253239
11
6.2430794
21
33.4253239
0
LINE
8
DEFAULT_255_2_778
10
6.2430794
20
33.4253239
11
6.2430794
21
35.4608239
0
LINE
8
DEFAULT_255_2_778
10
19.0753794
20
33.5375239
11
19.0753794
21
33.4497239
0
LINE
8
DEFAULT_255_2_778
10
19.0753794
20
33.4497239
11
21.6812794
21
33.4497239
0
LINE
8
DEFAULT_255_2_778
10
22.0026794
20
33.1449239
11
22.0026794
21
33.2298239
0
LINE
8
DEFAULT_255_2_778
10
22.0026794
20
33.7134239
11
22.0026794
21
33.7981239
0
LINE
8
DEFAULT_255_2_778
10
21.6843794
20
33.5343239
11
19.0816794
21
33.5343239
0
LINE
8
DEFAULT_255_2_778
10
13.9630794
20
33.8783239
11
14.0387794
21
33.6772239
0
LINE
8
DEFAULT_255_2_778
10
14.0199794
20
34.7829239
11
13.9569794
21
34.5694239
0
LINE
8
DEFAULT_255_2_778
10
14.2718794
20
33.9407239
11
14.2718794
21
34.6315239
0
LINE
8
DEFAULT_255_2_778
10
14.2718794
20
34.6315239
11
14.0826794
21
34.6315239
0
LINE
8
DEFAULT_255_2_778
10
14.0826794
20
34.6315239
11
14.0826794
21
34.8451239
0
LINE
8
DEFAULT_255_2_778
10
14.0826794
20
34.8451239
11
14.2718794
21
34.8451239
0
LINE
8
DEFAULT_255_2_778
10
14.2718794
20
34.8451239
11
14.4104794
21
35.3475239
0
LINE
8
DEFAULT_255_2_778
10
14.4104794
20
35.3475239
11
14.6247794
21
35.3475239
0
LINE
8
DEFAULT_255_2_778
10
14.6247794
20
35.3475239
11
14.6374794
21
34.8451239
0
LINE
8
DEFAULT_255_2_778
10
14.6374794
20
34.8451239
11
14.9777794
21
34.8451239
0
LINE
8
DEFAULT_255_2_778
10
14.9777794
20
34.8451239
11
14.9777794
21
34.6315239
0
LINE
8
DEFAULT_255_2_778
10
14.9777794
20
34.6315239
11
14.6372794
21
34.6315239
0
LINE
8
DEFAULT_255_2_778
10
14.6372794
20
34.6315239
11
14.6372794
21
33.9783239
0
LINE
8
DEFAULT_255_2_778
10
15.0153794
20
33.7899239
11
15.0280794
21
33.6140239
0
ARC
8
DEFAULT_255_2_778
10
18.3024027
20
33.4732006
40
0.5885618
50
314.1425413
51
331.9270918
0
ARC
8
DEFAULT_255_2_778
10
18.4398834
20
33.3330729
40
0.3922584
50
269.0322425
51
313.9868193
0
ARC
8
DEFAULT_255_2_778
10
18.4381885
20
33.5253771
40
0.5845273
50
255.6360648
51
269.5167247
0
ARC
8
DEFAULT_255_2_778
10
18.5134055
20
33.8288721
40
0.8971981
50
246.6811795
51
255.790956
0
ARC
8
DEFAULT_255_2_778
10
18.6382092
20
34.1319441
40
1.224929
50
243.4462224
51
246.9319367
0
ARC
8
DEFAULT_255_2_778
10
18.3621687
20
33.5614307
40
0.3648127
50
238.6960142
51
269.7522384
0
ARC
8
DEFAULT_255_2_778
10
18.3585706
20
33.5954979
40
0.3988816
50
270.2902271
51
286.0302682
0
ARC
8
DEFAULT_255_2_778
10
18.3439528
20
33.4171393
40
0.2399938
50
301.3239159
51
328.5484084
0
ARC
8
DEFAULT_255_2_778
10
17.8593662
20
33.7433932
40
0.8240117
50
326.7768178
51
337.3925755
0
ARC
8
DEFAULT_255_2_778
10
16.8007869
20
34.2020542
40
1.9776351
50
336.9149998
51
342.1307954
0
ARC
8
DEFAULT_255_2_778
10
18.1252835
20
34.0066636
40
0.1954042
50
190.120766
51
263.958695
0
ARC
8
DEFAULT_255_2_778
10
18.2014334
20
34.3092827
40
0.5062622
50
258.9866291
51
270.5697296
0
ARC
8
DEFAULT_255_2_778
10
18.204321
20
34.6267145
40
0.8236717
50
270.1493118
51
275.0745303
0
ARC
8
DEFAULT_255_2_778
10
18.1872931
20
34.8438127
40
1.0414275
50
274.9512067
51
276.4741818
0
ARC
8
DEFAULT_255_2_778
10
17.9114118
20
36.1000729
40
2.5197089
50
276.512457
51
279.4178429
0
ARC
8
DEFAULT_255_2_778
10
17.9872799
20
35.4297245
40
1.8450814
50
272.9002784
51
276.532699
0
ARC
8
DEFAULT_255_2_778
10
18.0109581
20
34.9874216
40
1.4021477
50
270.0528156
51
272.8484525
0
ARC
8
DEFAULT_255_2_778
10
18.0029255
20
34.4786315
40
0.8934054
50
259.5071449
51
270.5980454
0
ARC
8
DEFAULT_255_2_778
10
17.912813
20
34.0176743
40
0.4237716
50
238.7101736
51
260.1371304
0
ARC
8
DEFAULT_255_2_778
10
17.8289731
20
33.8712213
40
0.2551147
50
181.256628
51
237.7180126
0
LINE
8
DEFAULT_255_2_778
10
18.0906198
20
33.0362265
11
18.1726198
21
33.2497265
0
LINE
8
DEFAULT_255_2_778
10
18.6830198
20
33.5952265
11
18.2544198
21
34.6255265
0
LINE
8
DEFAULT_255_2_778
10
18.2544198
20
34.6255265
11
17.9329198
21
34.6255265
0
LINE
8
DEFAULT_255_2_778
10
17.9329198
20
34.6255265
11
17.9329198
21
33.9723265
0
LINE
8
DEFAULT_255_2_778
10
18.3047198
20
33.8090265
11
18.3237198
21
33.6143265
0
LINE
8
DEFAULT_255_2_778
10
17.5739198
20
33.8656265
11
17.5612198
21
34.6321265
0
LINE
8
DEFAULT_255_2_778
10
17.5612198
20
34.6321265
11
17.3720198
21
34.6321265
0
LINE
8
DEFAULT_255_2_778
10
17.3720198
20
34.6321265
11
17.3720198
21
34.8457265
0
LINE
8
DEFAULT_255_2_778
10
17.3720198
20
34.8457265
11
17.5736198
21
34.8457265
0
LINE
8
DEFAULT_255_2_778
10
17.5736198
20
34.8457265
11
17.6996198
21
35.3481265
0
LINE
8
DEFAULT_255_2_778
10
17.6996198
20
35.3481265
11
17.9139198
21
35.3481265
0
LINE
8
DEFAULT_255_2_778
10
17.9139198
20
35.3481265
11
17.9265198
21
34.8457265
0
LINE
8
DEFAULT_255_2_778
10
17.9265198
20
34.8457265
11
18.5568198
21
34.8457265
0
LINE
8
DEFAULT_255_2_778
10
18.5568198
20
34.8457265
11
18.8592198
21
34.0165265
0
LINE
8
DEFAULT_255_2_778
10
18.8592198
20
34.0165265
11
19.1616198
21
34.8457265
0
LINE
8
DEFAULT_255_2_778
10
19.1616198
20
34.8457265
11
19.4768198
21
34.8457265
0
LINE
8
DEFAULT_255_2_778
10
19.4768198
20
34.8457265
11
18.8214198
21
33.1997265
0
ARC
8
DEFAULT_255_2_778
10
20.4886862
20
33.9104313
40
0.5325132
50
158.8117849
51
180.8166314
0
ARC
8
DEFAULT_255_2_778
10
20.1842351
20
34.0365458
40
0.2032019
50
123.934274
51
160.9412119
0
ARC
8
DEFAULT_255_2_778
10
20.1146708
20
34.1295343
40
0.0874105
50
90.4874929
51
120.1257683
0
ARC
8
DEFAULT_255_2_778
10
20.1002562
20
34.0911743
40
0.1265082
50
24.4554496
51
83.7963195
0
ARC
8
DEFAULT_255_2_778
10
19.838393
20
33.9349289
40
0.4308905
50
5.6598625
51
28.957143
0
ARC
8
DEFAULT_255_2_778
10
19.6526819
20
33.9033841
40
0.6189454
50
359.9497817
51
6.8703696
0
ARC
8
DEFAULT_255_2_778
10
19.739561
20
33.8953406
40
0.532119
50
338.804197
51
0.8077062
0
ARC
8
DEFAULT_255_2_778
10
20.0434041
20
33.7693836
40
0.2034314
50
303.9637337
51
340.9394474
0
ARC
8
DEFAULT_255_2_778
10
20.1131773
20
33.6761817
40
0.0873432
50
270.4918639
51
300.1560267
0
ARC
8
DEFAULT_255_2_778
10
20.1275984
20
33.7146157
40
0.1265149
50
204.4617097
51
263.7964427
0
ARC
8
DEFAULT_255_2_778
10
20.3893028
20
33.8708099
40
0.4307345
50
185.6642403
51
208.9631817
0
ARC
8
DEFAULT_255_2_778
10
20.5745796
20
33.9023017
40
0.6183526
50
179.9499665
51
186.873664
0
ARC
8
DEFAULT_255_2_778
10
20.3794104
20
33.9069257
40
0.5240325
50
152.511927
51
180.7855003
0
ARC
8
DEFAULT_255_2_778
10
20.153316
20
34.0348056
40
0.264594
50
107.9689651
51
154.4798484
0
ARC
8
DEFAULT_255_2_778
10
20.1171586
20
34.1126433
40
0.1796984
50
90.01006
51
104.6572928
0
ARC
8
DEFAULT_255_2_778
10
20.1028885
20
34.061523
40
0.2312574
50
28.2083535
51
86.4700607
0
ARC
8
DEFAULT_255_2_778
10
19.8816202
20
33.9143591
40
0.4964429
50
2.8146136
51
31.1060953
0
ARC
8
DEFAULT_255_2_778
10
19.7786343
20
33.8998264
40
0.6000928
50
359.9919055
51
3.7176902
0
ARC
8
DEFAULT_255_2_778
10
19.8537274
20
33.8925993
40
0.5250483
50
332.6664514
51
0.7794307
0
ARC
8
DEFAULT_255_2_778
10
20.0799829
20
33.7654762
40
0.2658372
50
288.4439106
51
334.6152105
0
ARC
8
DEFAULT_255_2_778
10
20.1170892
20
33.6868069
40
0.1797652
50
270.012078
51
285.1556488
0
ARC
8
DEFAULT_255_2_778
10
20.1313807
20
33.7379594
40
0.2313572
50
208.2191033
51
266.4678588
0
ARC
8
DEFAULT_255_2_778
10
20.3525546
20
33.8851219
40
0.4964632
50
182.8162116
51
211.116011
0
ARC
8
DEFAULT_255_2_778
10
20.4554662
20
33.8996534
40
0.6000391
50
179.9915681
51
183.7193211
0
LINE
8
DEFAULT_255_2_778
10
19.9562271
20
33.9028417
11
19.9562271
21
33.9028417
0
LINE
8
DEFAULT_255_2_778
10
19.8554271
20
33.8997417
11
19.8554271
21
33.8997417
0
ARC
8
DEFAULT_255_2_778
10
21.0810862
20
33.9104313
40
0.5325132
50
158.8117849
51
180.8166314
0
ARC
8
DEFAULT_255_2_778
10
20.7766351
20
34.0365458
40
0.2032019
50
123.934274
51
160.9412119
0
ARC
8
DEFAULT_255_2_778
10
20.7070708
20
34.1295343
40
0.0874105
50
90.4874929
51
120.1257683
0
ARC
8
DEFAULT_255_2_778
10
20.6926562
20
34.0911743
40
0.1265082
50
24.4554496
51
83.7963195
0
ARC
8
DEFAULT_255_2_778
10
20.430793
20
33.9349289
40
0.4308905
50
5.6598625
51
28.957143
0
ARC
8
DEFAULT_255_2_778
10
20.2450819
20
33.9033841
40
0.6189454
50
359.9497817
51
6.8703696
0
ARC
8
DEFAULT_255_2_778
10
20.331961
20
33.8953406
40
0.532119
50
338.804197
51
0.8077062
0
ARC
8
DEFAULT_255_2_778
10
20.6358041
20
33.7693836
40
0.2034314
50
303.9637337
51
340.9394474
0
ARC
8
DEFAULT_255_2_778
10
20.7055773
20
33.6761817
40
0.0873432
50
270.4918639
51
300.1560267
0
ARC
8
DEFAULT_255_2_778
10
20.7199984
20
33.7146157
40
0.1265149
50
204.4617097
51
263.7964427
0
ARC
8
DEFAULT_255_2_778
10
20.9817028
20
33.8708099
40
0.4307345
50
185.6642403
51
208.9631817
0
ARC
8
DEFAULT_255_2_778
10
21.1669796
20
33.9023017
40
0.6183526
50
179.9499665
51
186.873664
0
ARC
8
DEFAULT_255_2_778
10
20.9718104
20
33.9069257
40
0.5240325
50
152.511927
51
180.7855003
0
ARC
8
DEFAULT_255_2_778
10
20.745716
20
34.0348056
40
0.264594
50
107.9689651
51
154.4798484
0
ARC
8
DEFAULT_255_2_778
10
20.7095586
20
34.1126433
40
0.1796984
50
90.01006
51
104.6572928
0
ARC
8
DEFAULT_255_2_778
10
20.6952885
20
34.061523
40
0.2312574
50
28.2083535
51
86.4700607
0
ARC
8
DEFAULT_255_2_778
10
20.4740202
20
33.9143591
40
0.4964429
50
2.8146136
51
31.1060953
0
ARC
8
DEFAULT_255_2_778
10
20.3710343
20
33.8998264
40
0.6000928
50
359.9919055
51
3.7176902
0
ARC
8
DEFAULT_255_2_778
10
20.4461274
20
33.8925993
40
0.5250483
50
332.6664514
51
0.7794307
0
ARC
8
DEFAULT_255_2_778
10
20.6723829
20
33.7654762
40
0.2658372
50
288.4439106
51
334.6152105
0
ARC
8
DEFAULT_255_2_778
10
20.7094892
20
33.6868069
40
0.1797652
50
270.012078
51
285.1556488
0
ARC
8
DEFAULT_255_2_778
10
20.7237807
20
33.7379594
40
0.2313572
50
208.2191033
51
266.4678588
0
ARC
8
DEFAULT_255_2_778
10
20.9449546
20
33.8851219
40
0.4964632
50
182.8162116
51
211.116011
0
ARC
8
DEFAULT_255_2_778
10
21.0478662
20
33.8996534
40
0.6000391
50
179.9915681
51
183.7193211
0
LINE
8
DEFAULT_255_2_778
10
20.5486271
20
33.9028417
11
20.5486271
21
33.9028417
0
LINE
8
DEFAULT_255_2_778
10
20.4478271
20
33.8997417
11
20.4478271
21
33.8997417
0
ARC
8
DEFAULT_255_2_778
10
21.6734862
20
33.9104313
40
0.5325132
50
158.8117849
51
180.8166314
0
ARC
8
DEFAULT_255_2_778
10
21.3690351
20
34.0365458
40
0.2032019
50
123.934274
51
160.9412119
0
ARC
8
DEFAULT_255_2_778
10
21.2994708
20
34.1295343
40
0.0874105
50
90.4874929
51
120.1257683
0
ARC
8
DEFAULT_255_2_778
10
21.2850562
20
34.0911743
40
0.1265082
50
24.4554496
51
83.7963195
0
ARC
8
DEFAULT_255_2_778
10
21.023193
20
33.9349289
40
0.4308905
50
5.6598625
51
28.957143
0
ARC
8
DEFAULT_255_2_778
10
20.8374819
20
33.9033841
40
0.6189454
50
359.9497817
51
6.8703696
0
ARC
8
DEFAULT_255_2_778
10
20.924361
20
33.8953406
40
0.532119
50
338.804197
51
0.8077062
0
ARC
8
DEFAULT_255_2_778
10
21.2282041
20
33.7693836
40
0.2034314
50
303.9637337
51
340.9394474
0
ARC
8
DEFAULT_255_2_778
10
21.2979773
20
33.6761817
40
0.0873432
50
270.4918639
51
300.1560267
0
ARC
8
DEFAULT_255_2_778
10
21.3123984
20
33.7146157
40
0.1265149
50
204.4617097
51
263.7964427
0
ARC
8
DEFAULT_255_2_778
10
21.5741028
20
33.8708099
40
0.4307345
50
185.6642403
51
208.9631817
0
ARC
8
DEFAULT_255_2_778
10
21.7593796
20
33.9023017
40
0.6183526
50
179.9499665
51
186.873664
0
ARC
8
DEFAULT_255_2_778
10
21.5642104
20
33.9069257
40
0.5240325
50
152.511927
51
180.7855003
0
ARC
8
DEFAULT_255_2_778
10
21.338116
20
34.0348056
40
0.264594
50
107.9689651
51
154.4798484
0
ARC
8
DEFAULT_255_2_778
10
21.3019586
20
34.1126433
40
0.1796984
50
90.01006
51
104.6572928
0
ARC
8
DEFAULT_255_2_778
10
21.2876885
20
34.061523
40
0.2312574
50
28.2083535
51
86.4700607
0
ARC
8
DEFAULT_255_2_778
10
21.0664202
20
33.9143591
40
0.4964429
50
2.8146136
51
31.1060953
0
ARC
8
DEFAULT_255_2_778
10
20.9634343
20
33.8998264
40
0.6000928
50
359.9919055
51
3.7176902
0
ARC
8
DEFAULT_255_2_778
10
21.0385274
20
33.8925993
40
0.5250483
50
332.6664514
51
0.7794307
0
ARC
8
DEFAULT_255_2_778
10
21.2647829
20
33.7654762
40
0.2658372
50
288.4439106
51
334.6152105
0
ARC
8
DEFAULT_255_2_778
10
21.3018892
20
33.6868069
40
0.1797652
50
270.012078
51
285.1556488
0
ARC
8
DEFAULT_255_2_778
10
21.3161807
20
33.7379594
40
0.2313572
50
208.2191033
51
266.4678588
0
ARC
8
DEFAULT_255_2_778
10
21.5373546
20
33.8851219
40
0.4964632
50
182.8162116
51
211.116011
0
ARC
8
DEFAULT_255_2_778
10
21.6402662
20
33.8996534
40
0.6000391
50
179.9915681
51
183.7193211
0
LINE
8
DEFAULT_255_2_778
10
21.1410271
20
33.9028417
11
21.1410271
21
33.9028417
0
LINE
8
DEFAULT_255_2_778
10
21.0402271
20
33.8997417
11
21.0402271
21
33.8997417
0
ARC
8
DEFAULT_255_2_778
10
9.3873819
20
34.2358426
40
0.1950108
50
91.6788031
51
181.813939
0
ARC
8
DEFAULT_255_2_778
10
9.375889
20
34.2357798
40
0.1950756
50
358.2051219
51
88.3021655
0
ARC
8
DEFAULT_255_2_778
10
9.3758891
20
34.2235596
40
0.1950754
50
271.6978133
51
1.7949071
0
ARC
8
DEFAULT_255_2_778
10
9.3873819
20
34.2234969
40
0.1950108
50
178.186061
51
268.3211969
0
ARC
8
DEFAULT_255_2_778
10
9.5333727
20
34.2364309
40
0.4668529
50
145.043768
51
180.8298084
0
ARC
8
DEFAULT_255_2_778
10
9.3902029
20
34.3441132
40
0.287883
50
91.6987406
51
146.2830079
0
ARC
8
DEFAULT_255_2_778
10
9.3664457
20
34.3271621
40
0.3050877
50
23.4934874
51
87.1398977
0
ARC
8
DEFAULT_255_2_778
10
9.2119732
20
34.2332629
40
0.484809
50
359.5753549
51
26.3944218
0
ARC
8
DEFAULT_255_2_778
10
9.2302375
20
34.22292
40
0.4665802
50
325.0256173
51
0.8288991
0
ARC
8
DEFAULT_255_2_778
10
9.3731106
20
34.1153699
40
0.2879274
50
271.7032906
51
326.2656695
0
ARC
8
DEFAULT_255_2_778
10
9.3969078
20
34.1324987
40
0.3053095
50
203.3271307
51
267.1389871
0
ARC
8
DEFAULT_255_2_778
10
9.5516258
20
34.226093
40
0.4850703
50
179.5775117
51
206.2433806
0
ARC
8
DEFAULT_255_2_778
10
9.3711242
20
34.2107025
40
0.6700752
50
95.9615992
51
178.9168048
0
ARC
8
DEFAULT_255_2_778
10
9.3941457
20
34.1426302
40
0.7403396
50
89.982733
51
97.186551
0
ARC
8
DEFAULT_255_2_778
10
9.3986015
20
34.1728279
40
0.7101545
50
48.1622127
51
90.3414937
0
ARC
8
DEFAULT_255_2_778
10
9.4447028
20
34.2218697
40
0.6428678
50
0.1336951
51
48.3079447
0
ARC
8
DEFAULT_255_2_778
10
9.4177539
20
34.2359035
40
0.6699322
50
275.9543621
51
358.9279918
0
ARC
8
DEFAULT_255_2_778
10
9.3945956
20
34.3047114
40
0.7409416
50
269.9824665
51
277.1836307
0
ARC
8
DEFAULT_255_2_778
10
9.3901051
20
34.2742743
40
0.7105173
50
228.7495498
51
270.3438303
0
ARC
8
DEFAULT_255_2_778
10
9.3444767
20
34.2248952
40
0.6433097
50
180.1358579
51
228.9051204
0
LINE
8
DEFAULT_255_2_778
10
11.1149688
20
34.5693698
11
11.1149688
21
33.9410698
0
ARC
8
DEFAULT_255_2_778
10
10.4507178
20
35.1342512
40
1.3656176
50
292.8223416
51
299.1049387
0
ARC
8
DEFAULT_255_2_778
10
10.7172229
20
34.4925623
40
0.6708024
50
282.4794629
51
293.1002978
0
ARC
8
DEFAULT_255_2_778
10
10.7905801
20
34.1670416
40
0.3371233
50
270.5838487
51
282.2615078
0
ARC
8
DEFAULT_255_2_778
10
10.7886817
20
34.000428
40
0.1705756
50
241.3798642
51
271.7918735
0
ARC
8
DEFAULT_255_2_778
10
10.7725697
20
33.963612
40
0.1305871
50
222.8095502
51
239.8477433
0
ARC
8
DEFAULT_255_2_778
10
10.8632448
20
34.0881648
40
0.2833162
50
195.5923976
51
228.8379937
0
ARC
8
DEFAULT_255_2_778
10
11.2482514
20
34.2119125
40
0.6875956
50
182.8988217
51
196.901328
0
ARC
8
DEFAULT_255_2_778
10
11.7546763
20
34.2540595
40
1.1956176
50
179.9089191
51
183.6886871
0
ARC
8
DEFAULT_255_2_778
10
12.1230229
20
34.2544544
40
1.5639636
50
177.2544012
51
179.9448392
0
LINE
8
DEFAULT_255_2_778
10
10.5608547
20
34.3293705
11
10.5608688
21
34.3296698
0
ARC
8
DEFAULT_255_2_778
10
11.0254754
20
34.2647208
40
0.4691244
50
149.0121274
51
172.0420019
0
ARC
8
DEFAULT_255_2_778
10
10.8596413
20
34.3551494
40
0.280511
50
88.5440138
51
147.4067729
0
ARC
8
DEFAULT_255_2_778
10
10.7906193
20
33.8049864
40
0.8340669
50
72.0203436
51
84.7616527
0
ARC
8
DEFAULT_255_2_778
10
10.9080282
20
34.1830191
40
0.4382821
50
61.8252032
51
71.3646611
0
ARC
8
DEFAULT_255_2_778
10
10.4986962
20
34.8534032
40
1.2918982
50
287.0682731
51
298.4915226
0
ARC
8
DEFAULT_255_2_778
10
10.6577818
20
34.3304772
40
0.7453122
50
270.6811176
51
287.1763457
0
ARC
8
DEFAULT_255_2_778
10
10.6665525
20
34.1644494
40
0.5792318
50
267.7358327
51
270.0088232
0
ARC
8
DEFAULT_255_2_778
10
10.6470952
20
34.0048768
40
0.4192211
50
203.9093897
51
269.5317059
0
ARC
8
DEFAULT_255_2_778
10
11.1145726
20
34.2642122
40
0.9528801
50
192.6009015
51
206.7737237
0
ARC
8
DEFAULT_255_2_778
10
11.5163822
20
34.3725427
40
1.3687639
50
192.6165694
51
193.3570279
0
ARC
8
DEFAULT_255_2_778
10
11.2164444
20
34.2667151
40
1.05363
50
182.6356817
51
190.5628607
0
ARC
8
DEFAULT_255_2_778
10
11.0629576
20
34.2571692
40
0.89987
50
180.0135228
51
182.4779265
0
ARC
8
DEFAULT_255_2_778
10
10.8371185
20
34.2730664
40
0.6742234
50
136.7456723
51
181.3691273
0
ARC
8
DEFAULT_255_2_778
10
10.687757
20
34.3618873
40
0.5059802
50
89.2314975
51
132.4774114
0
ARC
8
DEFAULT_255_2_778
10
10.6944571
20
34.2511601
40
0.6166618
50
87.8056342
51
89.9919799
0
ARC
8
DEFAULT_255_2_778
10
10.7056164
20
33.7094717
40
1.157965
50
70.3175508
51
89.3838437
0
ARC
8
DEFAULT_255_2_778
10
10.6142508
20
33.4019874
40
1.4783609
50
70.2024224
51
70.9971735
0
ARC
8
DEFAULT_255_2_778
10
6.8356463
20
34.9203908
40
0.4410946
50
358.399361
51
20.0218069
0
ARC
8
DEFAULT_255_2_778
10
7.0501301
20
34.9964859
40
0.2135292
50
20.5419455
51
86.7410997
0
ARC
8
DEFAULT_255_2_778
10
6.965547
20
34.9564555
40
0.314717
50
287.8983612
51
351.2113386
0
ARC
8
DEFAULT_255_2_778
10
7.0636919
20
34.9052198
40
0.618465
50
4.9299985
51
29.9140029
0
ARC
8
DEFAULT_255_2_778
10
7.1679648
20
34.9460178
40
0.5080106
50
31.7908677
51
73.6304902
0
ARC
8
DEFAULT_255_2_778
10
7.032524
20
34.5639821
40
0.9130031
50
72.2320975
51
84.9703096
0
ARC
8
DEFAULT_255_2_778
10
6.9980565
20
35.3287673
40
0.9427779
50
276.9765222
51
292.3131775
0
ARC
8
DEFAULT_255_2_778
10
7.177357
20
34.9212302
40
0.4978062
50
291.0302401
51
353.4987619
0
ARC
8
DEFAULT_255_2_778
10
6.907836
20
34.9765679
40
0.7722473
50
351.6832812
51
358.6496898
0
LINE
8
DEFAULT_255_2_778
10
9.1924688
20
34.2296698
11
9.1924688
21
34.2296698
0
LINE
8
DEFAULT_255_2_778
10
9.0665688
20
34.2296698
11
9.0665688
21
34.2296698
0
LINE
8
DEFAULT_255_2_778
10
8.7011688
20
34.2233698
11
8.7011688
21
34.2233698
0
LINE
8
DEFAULT_255_2_778
10
11.1149688
20
34.5693698
11
11.1149688
21
34.5693698
0
LINE
8
DEFAULT_255_2_778
10
11.1149688
20
34.7927698
11
11.1149688
21
35.5451698
0
LINE
8
DEFAULT_255_2_778
10
11.1149688
20
35.5451698
11
11.4787688
21
35.5864698
0
LINE
8
DEFAULT_255_2_778
10
11.4787688
20
35.5864698
11
11.4787688
21
33.6187698
0
LINE
8
DEFAULT_255_2_778
10
11.4787688
20
33.6187698
11
11.1231688
21
33.6187698
0
LINE
8
DEFAULT_255_2_778
10
11.1231688
20
33.6187698
11
11.1149688
21
33.7179698
0
LINE
8
DEFAULT_255_2_778
10
11.1149688
20
34.7929698
11
11.1149688
21
34.7927698
0
LINE
8
DEFAULT_255_2_778
10
7.0622688
20
35.2096698
11
6.7977688
21
35.2096698
0
LINE
8
DEFAULT_255_2_778
10
6.7977688
20
35.2096698
11
6.7977688
21
34.6569698
0
LINE
8
DEFAULT_255_2_778
10
6.7977688
20
34.6569698
11
7.0622688
21
34.6569698
0
LINE
8
DEFAULT_255_2_778
10
7.2765688
20
34.9083698
11
7.2765688
21
34.9080698
0
LINE
8
DEFAULT_255_2_778
10
7.1125688
20
35.4734698
11
6.4066688
21
35.4734698
0
LINE
8
DEFAULT_255_2_778
10
6.4066688
20
35.4734698
11
6.4066688
21
33.6139698
0
LINE
8
DEFAULT_255_2_778
10
6.4066688
20
33.6139698
11
6.7974688
21
33.6139698
0
LINE
8
DEFAULT_255_2_778
10
6.7974688
20
33.6139698
11
6.7974688
21
34.3929698
0
LINE
8
DEFAULT_255_2_778
10
6.7974688
20
34.3929698
11
7.1125688
21
34.3929698
0
LINE
8
DEFAULT_255_2_778
10
7.6798688
20
34.9583698
11
7.6798688
21
34.9583698
0
ARC
8
DEFAULT_255_2_778
10
19.7178096
20
34.8434316
40
0.1241506
50
90.5265294
51
180.7174335
0
ARC
8
DEFAULT_255_2_778
10
19.7156079
20
34.8434112
40
0.1241704
50
359.2920777
51
89.5104656
0
ARC
8
DEFAULT_255_2_778
10
19.7156079
20
34.8403429
40
0.1241704
50
270.4895344
51
0.7079223
0
ARC
8
DEFAULT_255_2_778
10
19.7178097
20
34.8403225
40
0.1241507
50
179.2825375
51
269.4734631
0
LINE
8
DEFAULT_255_2_778
10
19.5936688
20
34.8418771
11
19.5936688
21
34.8418771
0
ARC
8
DEFAULT_255_2_778
10
19.7159834
20
34.8421527
40
0.1600856
50
89.815832
51
180.0770398
0
ARC
8
DEFAULT_255_2_778
10
19.7170125
20
34.8421527
40
0.1600856
50
359.9229602
51
90.184168
0
ARC
8
DEFAULT_255_2_778
10
19.7169913
20
34.8416436
40
0.1601069
50
269.8234249
51
0.1051606
0
ARC
8
DEFAULT_255_2_778
10
19.7160045
20
34.8416437
40
0.160107
50
179.8948697
51
270.1765625
0
LINE
8
DEFAULT_255_2_778
10
19.5558979
20
34.8419375
11
19.5558979
21
34.8419375
0
ARC
8
DEFAULT_255_2_778
10
19.7173671
20
34.7992562
40
0.0239886
50
28.4465281
51
103.4267637
0
ARC
8
DEFAULT_255_2_778
10
19.6923938
20
34.5869674
40
0.2364193
50
85.2923939
51
90.3233848
0
ARC
8
DEFAULT_255_2_778
10
19.7079096
20
34.1872713
40
0.7359887
50
91.4445043
51
94.5082143
0
ARC
8
DEFAULT_255_2_778
10
19.7011498
20
34.4126253
40
0.510537
50
90.0204411
51
91.3236595
0
ARC
8
DEFAULT_255_2_778
10
19.7067649
20
34.6882348
40
0.234999
50
77.9191012
51
91.4136047
0
ARC
8
DEFAULT_255_2_778
10
19.7539008
20
34.8844923
40
0.0335995
50
19.4828986
51
86.5059996
0
ARC
8
DEFAULT_255_2_778
10
19.7648421
20
34.8921064
40
0.0210433
50
359.8753665
51
9.8287108
0
ARC
8
DEFAULT_255_2_778
10
19.7362646
20
34.8969729
40
0.0498633
50
318.6549341
51
354.3463421
0
ARC
8
DEFAULT_255_2_778
10
19.6181615
20
34.9846499
40
0.1968255
50
312.3913188
51
322.2071703
0
ARC
8
DEFAULT_255_2_778
10
19.7323609
20
34.7964238
40
0.0466808
50
7.8211356
51
66.6544263
0
ARC
8
DEFAULT_255_2_778
10
19.5988118
20
34.768576
40
0.1830194
50
4.3516874
51
10.7699648
0
ARC
8
DEFAULT_255_2_778
10
19.8039496
20
34.7787366
40
0.0229506
50
170.6553415
51
230.4661874
0
ARC
8
DEFAULT_255_2_778
10
19.7917715
20
34.7692121
40
0.0085297
50
253.4430888
51
270.5900942
0
ARC
8
DEFAULT_255_2_778
10
19.7115119
20
34.8656404
40
0.0341371
50
13.1090465
51
106.1583193
0
ARC
8
DEFAULT_255_2_778
10
19.6946118
20
34.7205636
40
0.1780193
50
87.6176468
51
90.0490737
0
ARC
8
DEFAULT_255_2_778
10
19.704515
20
34.9164858
40
0.0658749
50
261.2196532
51
305.0769943
0
ARC
8
DEFAULT_255_2_778
10
19.7330859
20
34.8701357
40
0.0119745
50
320.847334
51
0.7046022
0
LINE
8
DEFAULT_255_2_778
10
19.7921594
20
34.7603829
11
19.7511594
21
34.7603829
0
LINE
8
DEFAULT_255_2_778
10
19.7511594
20
34.7603829
11
19.7384594
21
34.8106829
0
LINE
8
DEFAULT_255_2_778
10
19.6910594
20
34.8233829
11
19.6910594
21
34.7606829
0
LINE
8
DEFAULT_255_2_778
10
19.6910594
20
34.7606829
11
19.6532594
21
34.7606829
0
LINE
8
DEFAULT_255_2_778
10
19.6532594
20
34.7606829
11
19.6500594
21
34.9209829
0
LINE
8
DEFAULT_255_2_778
10
19.7918594
20
34.7606829
11
19.7921594
21
34.7603829
0
LINE
8
DEFAULT_255_2_778
10
19.6944594
20
34.8985829
11
19.6944594
21
34.8513829
0
ARC
8
DEFAULT_255_2_778
10
22.0516426
20
33.4764609
40
0.1859656
50
91.2045372
51
181.4098501
0
ARC
8
DEFAULT_255_2_778
10
22.04384
20
33.4763785
40
0.1860476
50
358.6161552
51
88.8008978
0
ARC
8
DEFAULT_255_2_778
10
22.0437755
20
33.4674541
40
0.1861106
50
271.2185606
51
1.3643499
0
ARC
8
DEFAULT_255_2_778
10
22.0517085
20
33.4670751
40
0.1857322
50
178.57764
51
268.7736356
0
ARC
8
DEFAULT_255_2_778
10
22.9491426
20
33.4886609
40
0.1859656
50
91.2045372
51
181.4098501
0
ARC
8
DEFAULT_255_2_778
10
22.9413241
20
33.4886609
40
0.1859656
50
358.5901499
51
88.7954628
0
ARC
8
DEFAULT_255_2_778
10
22.9413241
20
33.4795099
40
0.1859656
50
271.2045372
51
1.4098501
0
ARC
8
DEFAULT_255_2_778
10
22.9491047
20
33.4792712
40
0.1857262
50
178.6072549
51
268.8056271
0
ARC
8
DEFAULT_255_2_778
10
22.5004267
20
33.4763785
40
0.1860476
50
91.1991022
51
181.3838448
0
ARC
8
DEFAULT_255_2_778
10
22.4926241
20
33.4764609
40
0.1859656
50
358.5901499
51
88.7954628
0
ARC
8
DEFAULT_255_2_778
10
22.4925595
20
33.4673716
40
0.1860286
50
271.2240081
51
1.3903789
0
ARC
8
DEFAULT_255_2_778
10
22.5004923
20
33.4671574
40
0.1858142
50
178.6036506
51
268.7791685
0
LINE
8
DEFAULT_255_2_778
10
21.8660334
20
33.4716854
11
21.8657334
21
33.4718854
0
LINE
8
DEFAULT_255_2_778
10
22.7634334
20
33.4837854
11
22.7632334
21
33.4840854
0
LINE
8
DEFAULT_255_2_778
10
22.3147334
20
33.4716854
11
22.3144334
21
33.4718854
0
ARC
8
DEFAULT_255_2_778
10
12.2412908
20
34.2371179
40
0.3756367
50
270.2518229
51
277.9224239
0
ARC
8
DEFAULT_255_2_778
10
12.2267567
20
34.0246058
40
0.163922
50
191.9135594
51
275.6664103
0
ARC
8
DEFAULT_255_2_778
10
12.2912552
20
34.1521972
40
0.6680449
50
207.8643513
51
221.7718618
0
ARC
8
DEFAULT_255_2_778
10
12.0737789
20
33.9457613
40
0.3684417
50
220.3588923
51
270.0277924
0
ARC
8
DEFAULT_255_2_778
10
12.0683238
20
34.0778085
40
0.5005206
50
270.6449322
51
287.6494066
0
ARC
8
DEFAULT_255_2_778
10
11.977822
20
34.3737608
40
0.8099892
50
287.4026496
51
297.6988649
0
ARC
8
DEFAULT_255_2_778
10
11.7698217
20
34.7769576
40
1.2636684
50
297.5514274
51
304.3018591
0
ARC
8
DEFAULT_255_2_778
10
12.3708589
20
34.0013997
40
0.1058286
50
290.4109967
51
338.4144294
0
ARC
8
DEFAULT_255_2_778
10
12.1869241
20
34.3705041
40
0.5177505
50
282.5203845
51
295.2483499
0
LINE
8
DEFAULT_255_2_778
10
12.0663656
20
33.9907664
11
12.0599656
21
34.8387664
0
LINE
8
DEFAULT_255_2_778
10
12.0599656
20
34.8387664
11
11.7006656
21
34.8387664
0
LINE
8
DEFAULT_255_2_778
10
11.7006656
20
34.8387664
11
11.7006656
21
33.8399664
0
LINE
8
DEFAULT_255_2_778
10
12.4819656
20
33.7330664
11
12.4946656
21
33.6200664
0
LINE
8
DEFAULT_255_2_778
10
12.4946656
20
33.6200664
11
12.8349656
21
33.6200664
0
LINE
8
DEFAULT_255_2_778
10
12.8349656
20
33.6200664
11
12.8349656
21
34.8514664
0
LINE
8
DEFAULT_255_2_778
10
12.8349656
20
34.8514664
11
12.4692656
21
34.8514664
0
LINE
8
DEFAULT_255_2_778
10
12.4692656
20
34.8514664
11
12.4692656
21
33.9592664
0
LINE
8
DEFAULT_255_1_234
10
4.2128489
20
29.6223211
11
4.2128489
21
28.5789983
0
LINE
8
DEFAULT_255_1_234
10
4.2128489
20
28.5789983
11
4.7670389
21
28.5789983
0
LINE
8
DEFAULT_255_1_234
10
4.7670389
20
28.5789983
11
4.7670389
21
28.4529
0
LINE
8
DEFAULT_255_1_234
10
4.7670389
20
28.4529
11
4.0578364
21
28.4529
0
LINE
8
DEFAULT_255_1_234
10
4.0578364
20
28.4529
11
4.0578364
21
29.6223211
0
LINE
8
DEFAULT_255_1_234
10
4.0578364
20
29.6223211
11
4.2128489
21
29.6223211
0
LINE
8
DEFAULT_255_1_234
10
4.5439265
20
21.4840276
11
4.5439265
21
21.1426788
0
LINE
8
DEFAULT_255_1_234
10
4.5439265
20
21.1426788
11
4.870015
21
21.1426788
0
LINE
8
DEFAULT_255_1_234
10
4.870015
20
21.1426788
11
4.870015
21
21.0021233
0
LINE
8
DEFAULT_255_1_234
10
4.870015
20
21.0021233
11
4.5439265
21
21.0021233
0
LINE
8
DEFAULT_255_1_234
10
4.5439265
20
21.0021233
11
4.5439265
21
20.6326634
0
LINE
8
DEFAULT_255_1_234
10
4.5439265
20
20.6326634
11
4.3945361
21
20.6326634
0
LINE
8
DEFAULT_255_1_234
10
4.3945361
20
20.6326634
11
4.3945361
21
21.0021233
0
LINE
8
DEFAULT_255_1_234
10
4.3945361
20
21.0021233
11
4.0684476
21
21.0021233
0
LINE
8
DEFAULT_255_1_234
10
4.0684476
20
21.0021233
11
4.0684476
21
21.1426788
0
LINE
8
DEFAULT_255_1_234
10
4.0684476
20
21.1426788
11
4.3945361
21
21.1426788
0
LINE
8
DEFAULT_255_1_234
10
4.3945361
20
21.1426788
11
4.3945361
21
21.4840276
0
LINE
8
DEFAULT_255_1_234
10
4.3945361
20
21.4840276
11
4.5439265
21
21.4840276
0
LINE
8
DEFAULT_255_1_234
10
5.128637
20
21.6848211
11
5.461151
21
20.7202093
0
LINE
8
DEFAULT_255_1_234
10
5.461151
20
20.7202093
11
5.7952713
21
21.6848211
0
LINE
8
DEFAULT_255_1_234
10
5.7952713
20
21.6848211
11
5.9639378
21
21.6848211
0
LINE
8
DEFAULT_255_1_234
10
5.9639378
20
21.6848211
11
5.5302239
21
20.5154
0
LINE
8
DEFAULT_255_1_234
10
5.5302239
20
20.5154
11
5.3936844
21
20.5154
0
LINE
8
DEFAULT_255_1_234
10
5.3936844
20
20.5154
11
4.9607737
21
21.6848211
0
LINE
8
DEFAULT_255_1_234
10
4.9607737
20
21.6848211
11
5.128637
21
21.6848211
0
LINE
8
DEFAULT_255_1_234
10
24.2621879
20
29.6223211
11
24.2621879
21
28.4529
0
LINE
8
DEFAULT_255_1_234
10
24.2621879
20
28.4529
11
24.1071753
21
28.4529
0
LINE
8
DEFAULT_255_1_234
10
24.1071753
20
28.4529
11
23.5184489
21
29.354061
0
LINE
8
DEFAULT_255_1_234
10
23.5184489
20
29.354061
11
23.5184489
21
28.4529
0
LINE
8
DEFAULT_255_1_234
10
23.5184489
20
28.4529
11
23.3634364
21
28.4529
0
LINE
8
DEFAULT_255_1_234
10
23.3634364
20
28.4529
11
23.3634364
21
29.6223211
0
LINE
8
DEFAULT_255_1_234
10
23.3634364
20
29.6223211
11
23.5184489
21
29.6223211
0
LINE
8
DEFAULT_255_1_234
10
23.5184489
20
29.6223211
11
24.1087817
21
28.7171442
0
LINE
8
DEFAULT_255_1_234
10
24.1087817
20
28.7171442
11
24.1087817
21
29.6223211
0
LINE
8
DEFAULT_255_1_234
10
24.1087817
20
29.6223211
11
24.2621879
21
29.6223211
0
LINE
8
DEFAULT_255_1_234
10
22.6853489
20
5.8098211
11
22.6853489
21
4.7664983
0
LINE
8
DEFAULT_255_1_234
10
22.6853489
20
4.7664983
11
23.2395389
21
4.7664983
0
LINE
8
DEFAULT_255_1_234
10
23.2395389
20
4.7664983
11
23.2395389
21
4.6404
0
LINE
8
DEFAULT_255_1_234
10
23.2395389
20
4.6404
11
22.5303364
21
4.6404
0
LINE
8
DEFAULT_255_1_234
10
22.5303364
20
4.6404
11
22.5303364
21
5.8098211
0
LINE
8
DEFAULT_255_1_234
10
22.5303364
20
5.8098211
11
22.6853489
21
5.8098211
0
LINE
8
DEFAULT_255_1_234
10
24.2266395
20
5.222701
11
24.2266395
21
4.7938062
0
LINE
8
DEFAULT_255_1_234
10
23.3254785
20
5.1688884
11
23.3254785
21
5.2708915
0
LINE
8
DEFAULT_255_1_234
10
24.2266395
20
5.4668659
11
24.0724301
21
5.4668659
0
LINE
8
DEFAULT_255_1_234
10
23.480491
20
5.2749073
11
23.480491
21
5.1793296
0
LINE
8
DEFAULT_255_1_234
10
24.0732333
20
4.8347681
11
24.0732333
21
5.0974059
0
LINE
8
DEFAULT_255_1_234
10
24.0732333
20
5.0974059
11
23.8025637
21
5.0974059
0
LINE
8
DEFAULT_255_1_234
10
23.8025637
20
5.0974059
11
23.8025637
21
5.222701
0
LINE
8
DEFAULT_255_1_234
10
23.8025637
20
5.222701
11
24.2266395
21
5.222701
0
ARC
8
DEFAULT_255_1_234
10
23.9434901
20
4.9931396
40
0.3462765
50
295.8437914
51
324.8549609
0
ARC
8
DEFAULT_255_1_234
10
23.9018868
20
5.0684567
40
0.4322211
50
291.5695085
51
296.4549398
0
ARC
8
DEFAULT_255_1_234
10
23.850812
20
5.2049275
40
0.5779178
50
278.6622409
51
291.3045483
0
ARC
8
DEFAULT_255_1_234
10
23.8168611
20
5.4197408
40
0.7953952
50
270.020006
51
278.7494541
0
ARC
8
DEFAULT_255_1_234
10
23.8130535
20
5.5514036
40
0.927067
50
269.9969998
51
270.2524872
0
ARC
8
DEFAULT_255_1_234
10
23.8092248
20
5.1430589
40
0.5187361
50
253.5786322
51
270.4175299
0
ARC
8
DEFAULT_255_1_234
10
23.7918904
20
5.0759236
40
0.4494451
50
238.8203306
51
253.2788235
0
ARC
8
DEFAULT_255_1_234
10
23.7899278
20
5.0708231
40
0.4440665
50
206.7883783
51
238.6962764
0
ARC
8
DEFAULT_255_1_234
10
23.8673188
20
5.1172405
40
0.5341121
50
206.1129412
51
207.4916643
0
ARC
8
DEFAULT_255_1_234
10
23.9270103
20
5.1426488
40
0.5989041
50
188.6921119
51
205.7821245
0
ARC
8
DEFAULT_255_1_234
10
24.1126465
20
5.174223
40
0.7871862
50
180.3882829
51
188.9219216
0
ARC
8
DEFAULT_255_1_234
10
24.2354279
20
5.2765464
40
0.909967
50
170.2024264
51
180.3560651
0
ARC
8
DEFAULT_255_1_234
10
23.9190797
20
5.3331237
40
0.5886083
50
154.2857445
51
170.3893044
0
ARC
8
DEFAULT_255_1_234
10
23.7909
20
5.391795
40
0.4476743
50
139.8401567
51
153.9332699
0
ARC
8
DEFAULT_255_1_234
10
23.7549736
20
5.4205577
40
0.4016697
50
98.4190291
51
139.6707122
0
ARC
8
DEFAULT_255_1_234
10
23.7929253
20
5.2360328
40
0.5898566
50
89.7659205
51
99.4415478
0
ARC
8
DEFAULT_255_1_234
10
23.7994503
20
5.2425844
40
0.5833147
50
78.0551672
51
90.4042112
0
ARC
8
DEFAULT_255_1_234
10
23.8399013
20
5.4244644
40
0.3970055
50
54.6380464
51
78.3339173
0
ARC
8
DEFAULT_255_1_234
10
23.8589069
20
5.4564795
40
0.3599102
50
50.031736
51
54.1558201
0
ARC
8
DEFAULT_255_1_234
10
23.8481856
20
5.4468766
40
0.3741624
50
18.1092409
51
49.7180913
0
ARC
8
DEFAULT_255_1_234
10
23.7025056
20
5.3935089
40
0.5292424
50
7.9672797
51
18.6984571
0
ARC
8
DEFAULT_255_1_234
10
23.7175534
20
5.4058504
40
0.3600838
50
9.7557294
51
27.3215714
0
ARC
8
DEFAULT_255_1_234
10
23.8303006
20
5.4621912
40
0.2340608
50
27.7361077
51
84.5257964
0
ARC
8
DEFAULT_255_1_234
10
23.7975393
20
5.297864
40
0.4011215
50
82.106034
51
90.2001166
0
ARC
8
DEFAULT_255_1_234
10
23.792561
20
5.3486215
40
0.3503799
50
89.4150119
51
105.5823402
0
ARC
8
DEFAULT_255_1_234
10
23.7668608
20
5.4421867
40
0.2533503
50
105.6678618
51
144.2648758
0
ARC
8
DEFAULT_255_1_234
10
23.8561864
20
5.3786289
40
0.3629787
50
144.3561283
51
162.8564086
0
ARC
8
DEFAULT_255_1_234
10
24.0645773
20
5.3117017
40
0.5818441
50
162.6076014
51
173.6780284
0
ARC
8
DEFAULT_255_1_234
10
24.3706916
20
5.274489
40
0.8902007
50
173.4670142
51
179.9730753
0
ARC
8
DEFAULT_255_1_234
10
24.1798588
20
5.175126
40
0.6993804
50
179.6556203
51
190.0080463
0
ARC
8
DEFAULT_255_1_234
10
23.9482417
20
5.1326375
40
0.4639066
50
189.8116607
51
206.6796816
0
ARC
8
DEFAULT_255_1_234
10
23.8637569
20
5.0932503
40
0.3707421
50
207.1031645
51
217.7074368
0
ARC
8
DEFAULT_255_1_234
10
23.8003257
20
5.0380559
40
0.2868417
50
216.7345547
51
265.6812148
0
ARC
8
DEFAULT_255_1_234
10
23.8134048
20
5.1284855
40
0.3780509
50
264.7366618
51
270.0611241
0
ARC
8
DEFAULT_255_1_234
10
23.8157312
20
5.4125111
40
0.662079
50
269.8335834
51
276.0539546
0
ARC
8
DEFAULT_255_1_234
10
23.8364316
20
5.222356
40
0.4708016
50
275.9894168
51
284.4615085
0
ARC
8
DEFAULT_255_1_234
10
23.8562323
20
5.1390663
40
0.3852094
50
284.7034461
51
286.4953897
0
ARC
8
DEFAULT_255_1_234
10
23.8969337
20
5.0079965
40
0.2479842
50
286.0770838
51
304.2625829
0
ARC
8
DEFAULT_255_1_234
10
23.910275
20
4.9861594
40
0.2224291
50
304.5891602
51
317.1073298
0
LINE
8
DEFAULT_255_1_234
10
24.2788482
20
13.160201
11
24.2788482
21
12.7313062
0
LINE
8
DEFAULT_255_1_234
10
23.3776872
20
13.1063884
11
23.3776872
21
13.2083915
0
LINE
8
DEFAULT_255_1_234
10
24.2788482
20
13.4043659
11
24.1246389
21
13.4043659
0
LINE
8
DEFAULT_255_1_234
10
23.5326998
20
13.2124073
11
23.5326998
21
13.1168296
0
LINE
8
DEFAULT_255_1_234
10
24.125442
20
12.7722681
11
24.125442
21
13.0349059
0
LINE
8
DEFAULT_255_1_234
10
24.125442
20
13.0349059
11
23.8547725
21
13.0349059
0
LINE
8
DEFAULT_255_1_234
10
23.8547725
20
13.0349059
11
23.8547725
21
13.160201
0
LINE
8
DEFAULT_255_1_234
10
23.8547725
20
13.160201
11
24.2788482
21
13.160201
0
ARC
8
DEFAULT_255_1_234
10
23.9956989
20
12.9306396
40
0.3462765
50
295.8437914
51
324.8549609
0
ARC
8
DEFAULT_255_1_234
10
23.9540956
20
13.0059567
40
0.4322211
50
291.5695085
51
296.4549398
0
ARC
8
DEFAULT_255_1_234
10
23.9030207
20
13.1424275
40
0.5779178
50
278.6622409
51
291.3045483
0
ARC
8
DEFAULT_255_1_234
10
23.8690699
20
13.3572408
40
0.7953952
50
270.020006
51
278.7494541
0
ARC
8
DEFAULT_255_1_234
10
23.8652623
20
13.4889036
40
0.927067
50
269.9969998
51
270.2524872
0
ARC
8
DEFAULT_255_1_234
10
23.8614336
20
13.0805589
40
0.5187361
50
253.5786322
51
270.4175299
0
ARC
8
DEFAULT_255_1_234
10
23.8440992
20
13.0134236
40
0.4494451
50
238.8203306
51
253.2788235
0
ARC
8
DEFAULT_255_1_234
10
23.8421365
20
13.0083231
40
0.4440665
50
206.7883783
51
238.6962764
0
ARC
8
DEFAULT_255_1_234
10
23.9195275
20
13.0547405
40
0.5341121
50
206.1129412
51
207.4916643
0
ARC
8
DEFAULT_255_1_234
10
23.979219
20
13.0801488
40
0.5989041
50
188.6921119
51
205.7821245
0
ARC
8
DEFAULT_255_1_234
10
24.1648552
20
13.111723
40
0.7871862
50
180.3882829
51
188.9219216
0
ARC
8
DEFAULT_255_1_234
10
24.2876366
20
13.2140464
40
0.909967
50
170.2024264
51
180.3560651
0
ARC
8
DEFAULT_255_1_234
10
23.9712884
20
13.2706237
40
0.5886083
50
154.2857445
51
170.3893044
0
ARC
8
DEFAULT_255_1_234
10
23.8431087
20
13.329295
40
0.4476743
50
139.8401567
51
153.9332699
0
ARC
8
DEFAULT_255_1_234
10
23.8071823
20
13.3580577
40
0.4016697
50
98.4190291
51
139.6707122
0
ARC
8
DEFAULT_255_1_234
10
23.8451341
20
13.1735328
40
0.5898566
50
89.7659205
51
99.4415478
0
ARC
8
DEFAULT_255_1_234
10
23.851659
20
13.1800844
40
0.5833147
50
78.0551672
51
90.4042112
0
ARC
8
DEFAULT_255_1_234
10
23.89211
20
13.3619644
40
0.3970055
50
54.6380464
51
78.3339173
0
ARC
8
DEFAULT_255_1_234
10
23.9111156
20
13.3939795
40
0.3599102
50
50.031736
51
54.1558201
0
ARC
8
DEFAULT_255_1_234
10
23.9003944
20
13.3843766
40
0.3741624
50
18.1092409
51
49.7180913
0
ARC
8
DEFAULT_255_1_234
10
23.7547144
20
13.3310089
40
0.5292424
50
7.9672797
51
18.6984571
0
ARC
8
DEFAULT_255_1_234
10
23.7697622
20
13.3433504
40
0.3600838
50
9.7557294
51
27.3215714
0
ARC
8
DEFAULT_255_1_234
10
23.8825094
20
13.3996912
40
0.2340608
50
27.7361077
51
84.5257964
0
ARC
8
DEFAULT_255_1_234
10
23.8497481
20
13.235364
40
0.4011215
50
82.106034
51
90.2001166
0
ARC
8
DEFAULT_255_1_234
10
23.8447698
20
13.2861215
40
0.3503799
50
89.4150119
51
105.5823402
0
ARC
8
DEFAULT_255_1_234
10
23.8190696
20
13.3796867
40
0.2533503
50
105.6678618
51
144.2648758
0
ARC
8
DEFAULT_255_1_234
10
23.9083951
20
13.3161289
40
0.3629787
50
144.3561283
51
162.8564086
0
ARC
8
DEFAULT_255_1_234
10
24.116786
20
13.2492017
40
0.5818441
50
162.6076014
51
173.6780284
0
ARC
8
DEFAULT_255_1_234
10
24.4229004
20
13.211989
40
0.8902007
50
173.4670142
51
179.9730753
0
ARC
8
DEFAULT_255_1_234
10
24.2320675
20
13.112626
40
0.6993804
50
179.6556203
51
190.0080463
0
ARC
8
DEFAULT_255_1_234
10
24.0004504
20
13.0701375
40
0.4639066
50
189.8116607
51
206.6796816
0
ARC
8
DEFAULT_255_1_234
10
23.9159656
20
13.0307503
40
0.3707421
50
207.1031645
51
217.7074368
0
ARC
8
DEFAULT_255_1_234
10
23.8525345
20
12.9755559
40
0.2868417
50
216.7345547
51
265.6812148
0
ARC
8
DEFAULT_255_1_234
10
23.8656136
20
13.0659855
40
0.3780509
50
264.7366618
51
270.0611241
0
ARC
8
DEFAULT_255_1_234
10
23.8679399
20
13.3500111
40
0.662079
50
269.8335834
51
276.0539546
0
ARC
8
DEFAULT_255_1_234
10
23.8886404
20
13.159856
40
0.4708016
50
275.9894168
51
284.4615085
0
ARC
8
DEFAULT_255_1_234
10
23.9084411
20
13.0765663
40
0.3852094
50
284.7034461
51
286.4953897
0
ARC
8
DEFAULT_255_1_234
10
23.9491424
20
12.9454965
40
0.2479842
50
286.0770838
51
304.2625829
0
ARC
8
DEFAULT_255_1_234
10
23.9624838
20
12.9236594
40
0.2224291
50
304.5891602
51
317.1073298
0
LINE
8
DEFAULT_255_1_234
10
23.1505663
20
21.0728026
11
23.1505663
21
20.9515234
0
LINE
8
DEFAULT_255_1_234
10
23.1505663
20
20.9515234
11
22.7586174
21
20.9515234
0
LINE
8
DEFAULT_255_1_234
10
22.7586174
20
20.9515234
11
22.7586174
21
21.0728026
0
LINE
8
DEFAULT_255_1_234
10
22.7586174
20
21.0728026
11
23.1505663
21
21.0728026
0
LINE
8
DEFAULT_255_1_234
10
23.3730454
20
21.6848211
11
23.7055594
21
20.7202093
0
LINE
8
DEFAULT_255_1_234
10
23.7055594
20
20.7202093
11
24.0396797
21
21.6848211
0
LINE
8
DEFAULT_255_1_234
10
24.0396797
20
21.6848211
11
24.2083462
21
21.6848211
0
LINE
8
DEFAULT_255_1_234
10
24.2083462
20
21.6848211
11
23.7746323
21
20.5154
0
LINE
8
DEFAULT_255_1_234
10
23.7746323
20
20.5154
11
23.6380928
21
20.5154
0
LINE
8
DEFAULT_255_1_234
10
23.6380928
20
20.5154
11
23.2051821
21
21.6848211
0
LINE
8
DEFAULT_255_1_234
10
23.2051821
20
21.6848211
11
23.3730454
21
21.6848211
0
ENDSEC
0
EOF