0
SECTION
2
HEADER
9
$MEASUREMENT
70
1
0
ENDSEC
0
SECTION
2
TABLES
0
TABLE
2
LTYPE
0
LTYPE
72
65
70
64
2
CONTINUOUS
3
______
73
0
40
0
0
ENDTAB
0
TABLE
2
LAYER
0
LAYER
2
DEFAULT_255_2_778
70
0
62
255
6
CONTINUOUS
0
ENDTAB
0
ENDSEC
0
SECTION
2
ENTITIES
0
LINE
8
DEFAULT_255_2_778
10
13.8335136
20
45.3649958
11
15.8351136
21
45.3649958
0
LINE
8
DEFAULT_255_2_778
10
15.8351136
20
45.3649958
11
15.8351136
21
47.3641958
0
LINE
8
DEFAULT_255_2_778
10
15.8351136
20
47.3641958
11
13.8335136
21
47.3641958
0
LINE
8
DEFAULT_255_2_778
10
13.8335136
20
47.3641958
11
13.8335136
21
45.3649958
0
LINE
8
DEFAULT_255_2_778
10
13.8335136
20
49.1735958
11
15.8351136
21
49.1735958
0
LINE
8
DEFAULT_255_2_778
10
15.8351136
20
49.1735958
11
15.8351136
21
51.1727958
0
LINE
8
DEFAULT_255_2_778
10
15.8351136
20
51.1727958
11
13.8335136
21
51.1727958
0
LINE
8
DEFAULT_255_2_778
10
13.8335136
20
51.1727958
11
13.8335136
21
49.1735958
0
LINE
8
DEFAULT_255_2_778
10
13.8335136
20
52.9820958
11
15.8351136
21
52.9820958
0
LINE
8
DEFAULT_255_2_778
10
15.8351136
20
52.9820958
11
15.8351136
21
54.9812958
0
LINE
8
DEFAULT_255_2_778
10
15.8351136
20
54.9812958
11
13.8335136
21
54.9812958
0
LINE
8
DEFAULT_255_2_778
10
13.8335136
20
54.9812958
11
13.8335136
21
52.9820958
0
LINE
8
DEFAULT_255_2_778
10
13.8335136
20
56.7906958
11
15.8351136
21
56.7906958
0
LINE
8
DEFAULT_255_2_778
10
15.8351136
20
56.7906958
11
15.8351136
21
58.7898958
0
LINE
8
DEFAULT_255_2_778
10
15.8351136
20
58.7898958
11
13.8335136
21
58.7898958
0
LINE
8
DEFAULT_255_2_778
10
13.8335136
20
58.7898958
11
13.8335136
21
56.7906958
0
LINE
8
DEFAULT_255_2_778
10
13.8335136
20
60.5990958
11
15.8351136
21
60.5990958
0
LINE
8
DEFAULT_255_2_778
10
15.8351136
20
60.5990958
11
15.8351136
21
62.5982958
0
LINE
8
DEFAULT_255_2_778
10
15.8351136
20
62.5982958
11
13.8335136
21
62.5982958
0
LINE
8
DEFAULT_255_2_778
10
13.8335136
20
62.5982958
11
13.8335136
21
60.5990958
0
LINE
8
DEFAULT_255_2_778
10
13.8335136
20
64.4077958
11
15.8351136
21
64.4077958
0
LINE
8
DEFAULT_255_2_778
10
15.8351136
20
64.4077958
11
15.8351136
21
66.4069958
0
LINE
8
DEFAULT_255_2_778
10
15.8351136
20
66.4069958
11
13.8335136
21
66.4069958
0
LINE
8
DEFAULT_255_2_778
10
13.8335136
20
66.4069958
11
13.8335136
21
64.4077958
0
LINE
8
DEFAULT_255_2_778
10
13.8335136
20
68.2161958
11
15.8351136
21
68.2161958
0
LINE
8
DEFAULT_255_2_778
10
15.8351136
20
68.2161958
11
15.8351136
21
70.2153958
0
LINE
8
DEFAULT_255_2_778
10
15.8351136
20
70.2153958
11
13.8335136
21
70.2153958
0
LINE
8
DEFAULT_255_2_778
10
13.8335136
20
70.2153958
11
13.8335136
21
68.2161958
0
LINE
8
DEFAULT_255_2_778
10
13.8335136
20
72.0248958
11
15.8351136
21
72.0248958
0
LINE
8
DEFAULT_255_2_778
10
15.8351136
20
72.0248958
11
15.8351136
21
74.0240958
0
LINE
8
DEFAULT_255_2_778
10
15.8351136
20
74.0240958
11
13.8335136
21
74.0240958
0
LINE
8
DEFAULT_255_2_778
10
13.8335136
20
74.0240958
11
13.8335136
21
72.0248958
0
LINE
8
DEFAULT_255_2_778
10
13.8335136
20
22.5136958
11
15.8351136
21
22.5136958
0
LINE
8
DEFAULT_255_2_778
10
15.8351136
20
22.5136958
11
15.8351136
21
24.5128958
0
LINE
8
DEFAULT_255_2_778
10
15.8351136
20
24.5128958
11
13.8335136
21
24.5128958
0
LINE
8
DEFAULT_255_2_778
10
13.8335136
20
24.5128958
11
13.8335136
21
22.5136958
0
LINE
8
DEFAULT_255_2_778
10
13.8335136
20
37.7478958
11
15.8351136
21
37.7478958
0
LINE
8
DEFAULT_255_2_778
10
15.8351136
20
37.7478958
11
15.8351136
21
39.7470958
0
LINE
8
DEFAULT_255_2_778
10
15.8351136
20
39.7470958
11
13.8335136
21
39.7470958
0
LINE
8
DEFAULT_255_2_778
10
13.8335136
20
39.7470958
11
13.8335136
21
37.7478958
0
LINE
8
DEFAULT_255_2_778
10
13.8335136
20
30.1307958
11
15.8351136
21
30.1307958
0
LINE
8
DEFAULT_255_2_778
10
15.8351136
20
30.1307958
11
15.8351136
21
32.1299958
0
LINE
8
DEFAULT_255_2_778
10
15.8351136
20
32.1299958
11
13.8335136
21
32.1299958
0
LINE
8
DEFAULT_255_2_778
10
13.8335136
20
32.1299958
11
13.8335136
21
30.1307958
0
LINE
8
DEFAULT_255_2_778
10
13.8335136
20
26.3220958
11
15.8351136
21
26.3220958
0
LINE
8
DEFAULT_255_2_778
10
15.8351136
20
26.3220958
11
15.8351136
21
28.3212958
0
LINE
8
DEFAULT_255_2_778
10
15.8351136
20
28.3212958
11
13.8335136
21
28.3212958
0
LINE
8
DEFAULT_255_2_778
10
13.8335136
20
28.3212958
11
13.8335136
21
26.3220958
0
LINE
8
DEFAULT_255_2_778
10
13.8335136
20
14.8965958
11
15.8351136
21
14.8965958
0
LINE
8
DEFAULT_255_2_778
10
15.8351136
20
14.8965958
11
15.8351136
21
16.8957958
0
LINE
8
DEFAULT_255_2_778
10
15.8351136
20
16.8957958
11
13.8335136
21
16.8957958
0
LINE
8
DEFAULT_255_2_778
10
13.8335136
20
16.8957958
11
13.8335136
21
14.8965958
0
LINE
8
DEFAULT_255_2_778
10
13.8335136
20
33.9394958
11
15.8351136
21
33.9394958
0
LINE
8
DEFAULT_255_2_778
10
15.8351136
20
33.9394958
11
15.8351136
21
35.9386958
0
LINE
8
DEFAULT_255_2_778
10
15.8351136
20
35.9386958
11
13.8335136
21
35.9386958
0
LINE
8
DEFAULT_255_2_778
10
13.8335136
20
35.9386958
11
13.8335136
21
33.9394958
0
LINE
8
DEFAULT_255_2_778
10
13.8335136
20
18.7049958
11
15.8351136
21
18.7049958
0
LINE
8
DEFAULT_255_2_778
10
15.8351136
20
18.7049958
11
15.8351136
21
20.7041958
0
LINE
8
DEFAULT_255_2_778
10
15.8351136
20
20.7041958
11
13.8335136
21
20.7041958
0
LINE
8
DEFAULT_255_2_778
10
13.8335136
20
20.7041958
11
13.8335136
21
18.7049958
0
ARC
8
DEFAULT_255_2_778
10
4.2218578
20
15.5411925
40
1.4830868
50
359.9922792
51
28.5343958
0
ARC
8
DEFAULT_255_2_778
10
4.2218587
20
15.5407935
40
1.4830862
50
331.4655671
51
0.0076958
0
LINE
8
DEFAULT_255_2_778
10
6.3277948
20
17.2204427
11
5.5247948
21
17.2204427
0
LINE
8
DEFAULT_255_2_778
10
5.5247948
20
17.2204427
11
5.5247948
21
16.2496427
0
LINE
8
DEFAULT_255_2_778
10
5.5247948
20
14.8323427
11
5.5247948
21
13.8615427
0
LINE
8
DEFAULT_255_2_778
10
5.5247948
20
13.8615427
11
6.3277948
21
13.8615427
0
ARC
8
DEFAULT_255_2_778
10
4.2218587
20
11.732825
40
1.4830859
50
359.9922711
51
28.534405
0
ARC
8
DEFAULT_255_2_778
10
4.2218584
20
11.7324258
40
1.4830864
50
331.4655682
51
0.0076926
0
LINE
8
DEFAULT_255_2_778
10
6.3277948
20
13.412075
11
5.5247948
21
13.412075
0
LINE
8
DEFAULT_255_2_778
10
5.5247948
20
13.412075
11
5.5247948
21
12.441275
0
LINE
8
DEFAULT_255_2_778
10
5.5247948
20
11.023975
11
5.5247948
21
10.052975
0
LINE
8
DEFAULT_255_2_778
10
5.5247948
20
10.052975
11
6.3277948
21
10.052975
0
ARC
8
DEFAULT_255_2_778
10
4.2218578
20
30.7705925
40
1.4830868
50
359.9922792
51
28.5343958
0
ARC
8
DEFAULT_255_2_778
10
4.2218587
20
30.7701935
40
1.4830862
50
331.4655671
51
0.0076958
0
LINE
8
DEFAULT_255_2_778
10
6.3277948
20
32.4498427
11
5.5247948
21
32.4498427
0
LINE
8
DEFAULT_255_2_778
10
5.5247948
20
32.4498427
11
5.5247948
21
31.4790427
0
LINE
8
DEFAULT_255_2_778
10
5.5247948
20
30.0617427
11
5.5247948
21
29.0909427
0
LINE
8
DEFAULT_255_2_778
10
5.5247948
20
29.0909427
11
6.3277948
21
29.0909427
0
ARC
8
DEFAULT_255_2_778
10
4.2218578
20
26.9618925
40
1.4830868
50
359.9922792
51
28.5343958
0
ARC
8
DEFAULT_255_2_778
10
4.2218587
20
26.9614935
40
1.4830862
50
331.4655671
51
0.0076958
0
LINE
8
DEFAULT_255_2_778
10
6.3277948
20
28.6411427
11
5.5247948
21
28.6411427
0
LINE
8
DEFAULT_255_2_778
10
5.5247948
20
28.6411427
11
5.5247948
21
27.6703427
0
LINE
8
DEFAULT_255_2_778
10
5.5247948
20
26.2530427
11
5.5247948
21
25.2822427
0
LINE
8
DEFAULT_255_2_778
10
5.5247948
20
25.2822427
11
6.3277948
21
25.2822427
0
ARC
8
DEFAULT_255_2_778
10
4.2218578
20
23.1582925
40
1.4830868
50
359.9922792
51
28.5343958
0
ARC
8
DEFAULT_255_2_778
10
4.2218587
20
23.1578935
40
1.4830862
50
331.4655671
51
0.0076958
0
LINE
8
DEFAULT_255_2_778
10
6.3277948
20
24.8375427
11
5.5247948
21
24.8375427
0
LINE
8
DEFAULT_255_2_778
10
5.5247948
20
24.8375427
11
5.5247948
21
23.8667427
0
LINE
8
DEFAULT_255_2_778
10
5.5247948
20
22.4494427
11
5.5247948
21
21.4786427
0
LINE
8
DEFAULT_255_2_778
10
5.5247948
20
21.4786427
11
6.3277948
21
21.4786427
0
ARC
8
DEFAULT_255_2_778
10
4.2218578
20
19.3498925
40
1.4830868
50
359.9922792
51
28.5343958
0
ARC
8
DEFAULT_255_2_778
10
4.2218587
20
19.3494935
40
1.4830862
50
331.4655671
51
0.0076958
0
LINE
8
DEFAULT_255_2_778
10
6.3277948
20
21.0291427
11
5.5247948
21
21.0291427
0
LINE
8
DEFAULT_255_2_778
10
5.5247948
20
21.0291427
11
5.5247948
21
20.0583427
0
LINE
8
DEFAULT_255_2_778
10
5.5247948
20
18.6410427
11
5.5247948
21
17.6702427
0
LINE
8
DEFAULT_255_2_778
10
5.5247948
20
17.6702427
11
6.3277948
21
17.6702427
0
ARC
8
DEFAULT_255_2_778
10
4.2218587
20
38.3826604
40
1.4830859
50
359.9922711
51
28.534405
0
ARC
8
DEFAULT_255_2_778
10
4.2218584
20
38.3822612
40
1.4830864
50
331.4655682
51
0.0076926
0
LINE
8
DEFAULT_255_2_778
10
6.3277948
20
40.0619104
11
5.5247948
21
40.0619104
0
LINE
8
DEFAULT_255_2_778
10
5.5247948
20
40.0619104
11
5.5247948
21
39.0911104
0
LINE
8
DEFAULT_255_2_778
10
5.5247948
20
37.6738104
11
5.5247948
21
36.7033104
0
LINE
8
DEFAULT_255_2_778
10
5.5247948
20
36.7033104
11
6.3277948
21
36.7033104
0
ARC
8
DEFAULT_255_2_778
10
4.2218587
20
34.5739604
40
1.4830859
50
359.9922711
51
28.534405
0
ARC
8
DEFAULT_255_2_778
10
4.2218584
20
34.5735612
40
1.4830864
50
331.4655682
51
0.0076926
0
LINE
8
DEFAULT_255_2_778
10
6.3277948
20
36.2532104
11
5.5247948
21
36.2532104
0
LINE
8
DEFAULT_255_2_778
10
5.5247948
20
36.2532104
11
5.5247948
21
35.2824104
0
LINE
8
DEFAULT_255_2_778
10
5.5247948
20
33.8651104
11
5.5247948
21
32.8946104
0
LINE
8
DEFAULT_255_2_778
10
5.5247948
20
32.8946104
11
6.3277948
21
32.8946104
0
ARC
8
DEFAULT_255_2_778
10
4.2218587
20
53.6067604
40
1.4830859
50
359.9922711
51
28.534405
0
ARC
8
DEFAULT_255_2_778
10
4.2218584
20
53.6063612
40
1.4830864
50
331.4655682
51
0.0076926
0
LINE
8
DEFAULT_255_2_778
10
6.3277948
20
55.2860104
11
5.5247948
21
55.2860104
0
LINE
8
DEFAULT_255_2_778
10
5.5247948
20
55.2860104
11
5.5247948
21
54.3152104
0
LINE
8
DEFAULT_255_2_778
10
5.5247948
20
52.8979104
11
5.5247948
21
51.9274104
0
LINE
8
DEFAULT_255_2_778
10
5.5247948
20
51.9274104
11
6.3277948
21
51.9274104
0
ARC
8
DEFAULT_255_2_778
10
4.2218587
20
49.7983604
40
1.4830859
50
359.9922711
51
28.534405
0
ARC
8
DEFAULT_255_2_778
10
4.2218584
20
49.7979612
40
1.4830864
50
331.4655682
51
0.0076926
0
LINE
8
DEFAULT_255_2_778
10
6.3277948
20
51.4776104
11
5.5247948
21
51.4776104
0
LINE
8
DEFAULT_255_2_778
10
5.5247948
20
51.4776104
11
5.5247948
21
50.5068104
0
LINE
8
DEFAULT_255_2_778
10
5.5247948
20
49.0895104
11
5.5247948
21
48.1190104
0
LINE
8
DEFAULT_255_2_778
10
5.5247948
20
48.1190104
11
6.3277948
21
48.1190104
0
ARC
8
DEFAULT_255_2_778
10
4.2218578
20
68.8308925
40
1.4830868
50
359.9922792
51
28.5343958
0
ARC
8
DEFAULT_255_2_778
10
4.2218587
20
68.8304935
40
1.4830862
50
331.4655671
51
0.0076958
0
LINE
8
DEFAULT_255_2_778
10
6.3277948
20
70.5101427
11
5.5247948
21
70.5101427
0
LINE
8
DEFAULT_255_2_778
10
5.5247948
20
70.5101427
11
5.5247948
21
69.5393427
0
LINE
8
DEFAULT_255_2_778
10
5.5247948
20
68.1220427
11
5.5247948
21
67.1512427
0
LINE
8
DEFAULT_255_2_778
10
5.5247948
20
67.1512427
11
6.3277948
21
67.1512427
0
ARC
8
DEFAULT_255_2_778
10
4.2218578
20
65.0224925
40
1.4830868
50
359.9922792
51
28.5343958
0
ARC
8
DEFAULT_255_2_778
10
4.2218587
20
65.0220935
40
1.4830862
50
331.4655671
51
0.0076958
0
LINE
8
DEFAULT_255_2_778
10
6.3277948
20
66.7017427
11
5.5247948
21
66.7017427
0
LINE
8
DEFAULT_255_2_778
10
5.5247948
20
66.7017427
11
5.5247948
21
65.7309427
0
LINE
8
DEFAULT_255_2_778
10
5.5247948
20
64.3136427
11
5.5247948
21
63.3428427
0
LINE
8
DEFAULT_255_2_778
10
5.5247948
20
63.3428427
11
6.3277948
21
63.3428427
0
ARC
8
DEFAULT_255_2_778
10
4.2218481
20
72.6344345
40
1.4830968
50
331.4656747
51
0.0080803
0
LINE
8
DEFAULT_255_2_778
10
5.7049448
20
72.6346437
11
5.7049447
21
72.6350432
0
ARC
8
DEFAULT_255_2_778
10
4.221415
20
72.6348184
40
1.4835298
50
0.0086852
51
28.530047
0
ARC
8
DEFAULT_255_2_778
10
4.2218468
20
76.442835
40
1.4830982
50
331.4656815
51
0.0080603
0
LINE
8
DEFAULT_255_2_778
10
5.7049448
20
76.4430437
11
5.7049447
21
76.4434432
0
ARC
8
DEFAULT_255_2_778
10
4.221415
20
76.4432184
40
1.4835298
50
0.0086852
51
28.530047
0
LINE
8
DEFAULT_255_2_778
10
6.3277948
20
70.9551812
11
5.5247948
21
70.9551812
0
LINE
8
DEFAULT_255_2_778
10
5.5247948
20
70.9551812
11
5.5247948
21
71.9259812
0
LINE
8
DEFAULT_255_2_778
10
5.5247948
20
73.3433812
11
5.5247948
21
74.3138812
0
LINE
8
DEFAULT_255_2_778
10
5.5247948
20
74.3138812
11
6.3277948
21
74.3138812
0
LINE
8
DEFAULT_255_2_778
10
6.3277948
20
74.7636812
11
5.5247948
21
74.7636812
0
LINE
8
DEFAULT_255_2_778
10
5.5247948
20
74.7636812
11
5.5247948
21
75.7343812
0
LINE
8
DEFAULT_255_2_778
10
5.5247948
20
77.1517812
11
5.5247948
21
78.1227812
0
LINE
8
DEFAULT_255_2_778
10
5.5247948
20
78.1227812
11
6.3277948
21
78.1227812
0
ARC
8
DEFAULT_255_2_778
10
4.2218578
20
61.2188925
40
1.4830868
50
359.9922792
51
28.5343958
0
ARC
8
DEFAULT_255_2_778
10
4.2218587
20
61.2184935
40
1.4830862
50
331.4655671
51
0.0076958
0
LINE
8
DEFAULT_255_2_778
10
6.3277948
20
62.8981427
11
5.5247948
21
62.8981427
0
LINE
8
DEFAULT_255_2_778
10
5.5247948
20
62.8981427
11
5.5247948
21
61.9273427
0
LINE
8
DEFAULT_255_2_778
10
5.5247948
20
60.5100427
11
5.5247948
21
59.5392427
0
LINE
8
DEFAULT_255_2_778
10
5.5247948
20
59.5392427
11
6.3277948
21
59.5392427
0
ARC
8
DEFAULT_255_2_778
10
4.2218578
20
57.4104925
40
1.4830868
50
359.9922792
51
28.5343958
0
ARC
8
DEFAULT_255_2_778
10
4.2218587
20
57.4100935
40
1.4830862
50
331.4655671
51
0.0076958
0
LINE
8
DEFAULT_255_2_778
10
6.3277948
20
59.0897427
11
5.5247948
21
59.0897427
0
LINE
8
DEFAULT_255_2_778
10
5.5247948
20
59.0897427
11
5.5247948
21
58.1189427
0
LINE
8
DEFAULT_255_2_778
10
5.5247948
20
56.7016427
11
5.5247948
21
55.7308427
0
LINE
8
DEFAULT_255_2_778
10
5.5247948
20
55.7308427
11
6.3277948
21
55.7308427
0
ARC
8
DEFAULT_255_2_778
10
4.2218587
20
45.9947604
40
1.4830859
50
359.9922711
51
28.534405
0
ARC
8
DEFAULT_255_2_778
10
4.2218584
20
45.9943612
40
1.4830864
50
331.4655682
51
0.0076926
0
LINE
8
DEFAULT_255_2_778
10
6.3277948
20
47.6740104
11
5.5247948
21
47.6740104
0
LINE
8
DEFAULT_255_2_778
10
5.5247948
20
47.6740104
11
5.5247948
21
46.7032104
0
LINE
8
DEFAULT_255_2_778
10
5.5247948
20
45.2859104
11
5.5247948
21
44.3154104
0
LINE
8
DEFAULT_255_2_778
10
5.5247948
20
44.3154104
11
6.3277948
21
44.3154104
0
ARC
8
DEFAULT_255_2_778
10
4.2218587
20
42.1860604
40
1.4830859
50
359.9922711
51
28.534405
0
ARC
8
DEFAULT_255_2_778
10
4.2218584
20
42.1856612
40
1.4830864
50
331.4655682
51
0.0076926
0
LINE
8
DEFAULT_255_2_778
10
6.3277948
20
43.8653104
11
5.5247948
21
43.8653104
0
LINE
8
DEFAULT_255_2_778
10
5.5247948
20
43.8653104
11
5.5247948
21
42.8945104
0
LINE
8
DEFAULT_255_2_778
10
5.5247948
20
41.4772104
11
5.5247948
21
40.5067104
0
LINE
8
DEFAULT_255_2_778
10
5.5247948
20
40.5067104
11
6.3277948
21
40.5067104
0
LINE
8
DEFAULT_255_2_778
10
6.3277865
20
78.7421303
11
4.8241865
21
78.7421303
0
LINE
8
DEFAULT_255_2_778
10
4.8241865
20
78.7421303
11
4.8241865
21
9.4334303
0
LINE
8
DEFAULT_255_2_778
10
4.8241865
20
9.4334303
11
6.3277865
21
9.4334303
0
ARC
8
DEFAULT_255_2_778
10
8.8432588
20
6.2688602
40
4.1746487
50
248.9679249
51
255.8301569
0
ARC
8
DEFAULT_255_2_778
10
5.5145336
20
0.6935652
40
0.4473156
50
270.0677616
51
348.4664271
0
ARC
8
DEFAULT_255_2_778
10
5.5151553
20
0.6965194
40
0.4502697
50
262.0034675
51
269.9882051
0
ARC
8
DEFAULT_255_2_778
10
0.8863541
20
0.6968673
40
0.4506176
50
270.0120488
51
277.9934499
0
ARC
8
DEFAULT_255_2_778
10
0.8869402
20
0.6934919
40
0.4472424
50
191.5259123
51
269.9370462
0
ARC
8
DEFAULT_255_2_778
10
0.9489537
20
0.3370845
40
0.5005566
50
225.0501622
51
270.0072346
0
ARC
8
DEFAULT_255_2_778
10
0.9485022
20
0.3364458
40
0.4997854
50
180.0135088
51
225.0350638
0
ARC
8
DEFAULT_255_2_778
10
5.4521354
20
0.3365856
40
0.4998816
50
314.9533047
51
359.9704661
0
ARC
8
DEFAULT_255_2_778
10
5.4517763
20
0.336852
40
0.5003239
50
269.9931978
51
314.9608512
0
ARC
8
DEFAULT_255_2_778
10
8.8279206
20
6.231205
40
4.1352157
50
284.1370846
51
291.0648337
0
ARC
8
DEFAULT_255_2_778
10
14.4298602
20
2.2304631
40
1.0088418
50
270.2076804
51
307.3801265
0
ARC
8
DEFAULT_255_2_778
10
14.4393326
20
2.2199754
40
0.994758
50
307.3133171
51
358.3356253
0
ARC
8
DEFAULT_255_2_778
10
14.4158785
20
2.2212171
40
1.0182385
50
358.3041169
51
0.0006094
0
ARC
8
DEFAULT_255_2_778
10
3.3920102
20
87.4359349
40
1.4920597
50
194.794704
51
215.7581187
0
ARC
8
DEFAULT_255_2_778
10
3.3975273
20
87.4388232
40
1.4981343
50
165.1520232
51
178.6588785
0
ARC
8
DEFAULT_255_2_778
10
3.3972298
20
87.4387748
40
1.4978381
50
178.6567606
51
180.0005137
0
ARC
8
DEFAULT_255_2_778
10
3.3959788
20
87.4386358
40
1.4965872
50
179.9951939
51
194.85588
0
ARC
8
DEFAULT_255_2_778
10
3.4025764
20
87.4135075
40
1.524722
50
90.081151
51
97.6305313
0
ARC
8
DEFAULT_255_2_778
10
6.9097862
20
87.4355365
40
1.4931017
50
329.9974445
51
340.5772905
0
ARC
8
DEFAULT_255_2_778
10
6.9077341
20
87.4390202
40
1.4961978
50
340.4776077
51
358.3851945
0
ARC
8
DEFAULT_255_2_778
10
6.9063107
20
87.439076
40
1.4976223
50
358.384595
51
359.9997572
0
ARC
8
DEFAULT_255_2_778
10
6.9068626
20
87.4391465
40
1.4970704
50
359.9970593
51
30.0418245
0
ARC
8
DEFAULT_255_2_778
10
6.9033926
20
87.4372068
40
1.5010454
50
30.0396097
51
89.6746212
0
ARC
8
DEFAULT_255_2_778
10
9.6599051
20
88.9353037
40
1.9947986
50
284.3829663
51
309.4332157
0
ARC
8
DEFAULT_255_2_778
10
9.6572322
20
88.9390887
40
1.9994199
50
309.4234808
51
359.1159069
0
ARC
8
DEFAULT_255_2_778
10
9.6595984
20
88.9367539
40
1.9970194
50
359.1818393
51
359.9996566
0
ARC
8
DEFAULT_255_2_778
10
9.6488726
20
88.9365164
40
2.0077452
50
0.0064345
51
6.3459527
0
ARC
8
DEFAULT_255_2_778
10
9.6322223
20
88.9349429
40
2.0244675
50
6.3381268
51
7.2471278
0
ARC
8
DEFAULT_255_2_778
10
9.6647536
20
88.9411162
40
1.9914184
50
7.1890051
51
34.0692208
0
ARC
8
DEFAULT_255_2_778
10
9.6551811
20
88.9350667
40
2.0027369
50
34.0591705
51
81.8443842
0
ARC
8
DEFAULT_255_2_778
10
9.6555745
20
88.9231165
40
2.0145115
50
81.9036754
51
90.0130135
0
ARC
8
DEFAULT_255_2_778
10
8.1494218
20
88.9383546
40
1.9971049
50
179.9978942
51
225.0552145
0
ARC
8
DEFAULT_255_2_778
10
8.1539292
20
88.9423327
40
2.0031048
50
225.0443443
51
269.999648
0
LINE
8
DEFAULT_255_2_778
10
6.9119169
20
88.938428
11
6.9085683
21
88.938428
0
LINE
8
DEFAULT_255_2_778
10
6.9085683
20
88.938428
11
6.9119169
21
88.938428
0
ARC
8
DEFAULT_255_2_778
10
2.1501491
20
88.4466794
40
1.9898486
50
89.9980478
51
95.7752686
0
ARC
8
DEFAULT_255_2_778
10
2.1485968
20
88.4370254
40
2.0004233
50
95.7085865
51
147.6195998
0
ARC
8
DEFAULT_255_2_778
10
2.1503224
20
88.4369268
40
0.5015336
50
90.6518205
51
147.8882767
0
ARC
8
DEFAULT_255_2_778
10
2.1497495
20
88.4353234
40
1.7522046
50
90.0010669
51
147.6609199
0
ARC
8
DEFAULT_255_2_778
10
8.1534352
20
88.4351669
40
2.0026609
50
32.3316357
51
89.9948013
0
ARC
8
DEFAULT_255_2_778
10
8.1519482
20
88.4322082
40
1.7556206
50
32.4700325
51
89.9455412
0
ARC
8
DEFAULT_255_2_778
10
8.1532631
20
88.4369461
40
0.5014821
50
32.2207841
51
89.9595801
0
ARC
8
DEFAULT_255_2_778
10
1.1462461
20
83.4405666
40
0.9981292
50
142.5622837
51
180.0079571
0
ARC
8
DEFAULT_255_2_778
10
1.2488119
20
83.4398952
40
1.0006953
50
153.4408229
51
179.9694955
0
ARC
8
DEFAULT_255_2_778
10
17.3398493
20
2.6139989
40
0.0561214
50
177.787959
51
198.7837767
0
ARC
8
DEFAULT_255_2_778
10
18.8284612
20
2.7198572
40
1.5481677
50
182.0289749
51
183.8403933
0
ARC
8
DEFAULT_255_2_778
10
24.1211878
20
2.9199772
40
6.844673
50
181.2662931
51
182.1344987
0
ARC
8
DEFAULT_255_2_778
10
35.8871022
20
3.1933466
40
18.6137599
50
180.8253349
51
181.3071878
0
ARC
8
DEFAULT_255_2_778
10
52.404318
20
3.4380313
40
35.1327873
50
180.4746366
51
180.8363271
0
ARC
8
DEFAULT_255_2_778
10
68.7062022
20
3.5766201
40
51.4352603
50
180.111788
51
180.4785814
0
ARC
8
DEFAULT_255_2_778
10
75.0019451
20
3.5954379
40
57.7310283
50
179.9999106
51
180.1182731
0
ARC
8
DEFAULT_255_2_778
10
17.3430683
20
86.5435226
40
0.0429298
50
151.0113456
51
182.9687898
0
ARC
8
DEFAULT_255_2_778
10
18.6209702
20
86.4067879
40
1.3276058
50
174.184889
51
177.2910235
0
ARC
8
DEFAULT_255_2_778
10
23.4241848
20
86.1484053
40
6.1377434
50
177.0008928
51
178.11364
0
ARC
8
DEFAULT_255_2_778
10
32.4550192
20
85.8350947
40
15.1740053
50
178.0537137
51
178.5790148
0
ARC
8
DEFAULT_255_2_778
10
47.0727075
20
85.471716
40
29.7962094
50
178.5775289
51
179.0141404
0
ARC
8
DEFAULT_255_2_778
10
69.3285701
20
85.0822091
40
52.0554797
50
179.006961
51
179.3329765
0
ARC
8
DEFAULT_255_2_778
10
95.6654634
20
84.7713364
40
78.3942074
50
179.3298697
51
179.6119313
0
ARC
8
DEFAULT_255_2_778
10
117.7762736
20
84.6140654
40
100.505576
50
179.6076499
51
179.8107838
0
ARC
8
DEFAULT_255_2_778
10
131.2234962
20
84.5674732
40
113.9528792
50
179.809686
51
180.0011792
0
ARC
8
DEFAULT_255_2_778
10
9.5070179
20
88.9405532
40
1.9973937
50
61.9153225
51
89.7504651
0
ARC
8
DEFAULT_255_2_778
10
9.5070152
20
88.9374735
40
2.0001126
50
16.3054277
51
61.9567872
0
ARC
8
DEFAULT_255_2_778
10
9.4978799
20
88.9370087
40
2.009012
50
9.4866029
51
16.2450042
0
ARC
8
DEFAULT_255_2_778
10
9.4995678
20
88.936765
40
2.0073873
50
2.0748126
51
9.501402
0
ARC
8
DEFAULT_255_2_778
10
9.5143332
20
88.9375695
40
1.9926024
50
0.0002008
51
2.0670664
0
ARC
8
DEFAULT_255_2_778
10
9.5073971
20
88.9398164
40
1.9995398
50
298.0872839
51
359.9358165
0
ARC
8
DEFAULT_255_2_778
10
9.5052371
20
88.9482045
40
2.0079579
50
288.9020298
51
298.0289721
0
ARC
8
DEFAULT_255_2_778
10
3.4006317
20
87.436651
40
1.5022917
50
97.6626108
51
152.779309
0
ARC
8
DEFAULT_255_2_778
10
3.4023688
20
87.4379522
40
1.5032425
50
152.8536943
51
165.1377476
0
ARC
8
DEFAULT_255_2_778
10
2.8502244
20
86.4394525
40
0.2502755
50
89.9788203
51
149.9371425
0
ARC
8
DEFAULT_255_2_778
10
8.1543519
20
88.9345229
40
2.0034051
50
89.99814
51
131.3641474
0
ARC
8
DEFAULT_255_2_778
10
14.1156903
20
90.938475
40
1.5941268
50
359.9695558
51
0.0101479
0
ARC
8
DEFAULT_255_2_778
10
13.2126014
20
90.9378475
40
2.497216
50
0.0208765
51
45.0383685
0
ARC
8
DEFAULT_255_2_778
10
13.2087138
20
90.9338033
40
2.5028247
50
45.0408171
51
90.0009419
0
LINE
8
DEFAULT_255_2_778
10
13.2086727
20
93.4366281
11
13.2079169
21
93.436628
0
ARC
8
DEFAULT_255_2_778
10
13.2099935
20
90.9409372
40
1.2460925
50
55.978729
51
90.0954844
0
ARC
8
DEFAULT_255_2_778
10
13.210573
20
90.9381152
40
1.248109
50
5.5001553
51
56.0732597
0
ARC
8
DEFAULT_255_2_778
10
13.1952134
20
90.9380634
40
1.2634037
50
359.9917868
51
5.4357269
0
LINE
8
DEFAULT_255_2_778
10
14.458617
20
90.9378823
11
14.4586169
21
90.937328
0
ARC
8
DEFAULT_255_2_778
10
14.80931
20
86.4386535
40
0.2502744
50
30.0627179
51
90.0213048
0
LINE
8
DEFAULT_255_2_778
10
1.9496169
20
90.937628
11
1.9496168
21
90.9383812
0
ARC
8
DEFAULT_255_2_778
10
4.4473466
20
90.9375347
40
2.4977299
50
134.9632836
51
179.9805835
0
ARC
8
DEFAULT_255_2_778
10
4.4508796
20
90.933659
40
2.5029689
50
89.9986398
51
134.9578129
0
LINE
8
DEFAULT_255_2_778
10
4.450939
20
93.436628
11
4.4513169
21
93.436628
0
ARC
8
DEFAULT_255_2_778
10
4.4492703
20
90.9409827
40
1.246047
50
89.9058948
51
124.0219161
0
ARC
8
DEFAULT_255_2_778
10
4.4487089
20
90.9380542
40
1.248162
50
123.9253414
51
174.4972737
0
ARC
8
DEFAULT_255_2_778
10
4.4637541
20
90.9380653
40
1.2631374
50
174.5632206
51
180.008312
0
LINE
8
DEFAULT_255_2_778
10
3.2006168
20
90.9378821
11
3.2006169
21
90.937328
0
ARC
8
DEFAULT_255_2_778
10
4.7464973
20
90.9384347
40
1.0957807
50
141.7660578
51
180.0421835
0
ARC
8
DEFAULT_255_2_778
10
4.7503053
20
90.9384374
40
1.0987727
50
93.5737064
51
141.8890582
0
ARC
8
DEFAULT_255_2_778
10
4.7511757
20
90.9198623
40
1.1173659
50
89.9963597
51
93.5588812
0
LINE
8
DEFAULT_255_2_778
10
4.7512467
20
92.037228
11
4.7516169
21
92.037228
0
ARC
8
DEFAULT_255_2_778
10
0.271577
20
5.5750743
40
0.0759796
50
358.020278
51
15.1473749
0
ARC
8
DEFAULT_255_2_778
10
-2.07109
20
5.4516514
40
2.4216162
50
1.2113309
51
2.8592856
0
ARC
8
DEFAULT_255_2_778
10
-9.8128454
20
5.2633858
40
10.1656511
50
0.6492757
51
1.3497663
0
ARC
8
DEFAULT_255_2_778
10
-21.7859204
20
5.118911
40
22.1395963
50
0.1388922
51
0.6720225
0
ARC
8
DEFAULT_255_2_778
10
-27.6466287
20
5.0955333
40
28.0003456
50
359.9991706
51
0.1576576
0
LINE
8
DEFAULT_255_2_778
10
5.8274169
20
8.494028
11
5.8277944
21
8.4940278
0
ARC
8
DEFAULT_255_2_778
10
5.8278241
20
8.9935114
40
0.4994836
50
269.9965861
51
315.0007596
0
ARC
8
DEFAULT_255_2_778
10
5.8280093
20
8.9940133
40
0.4997076
50
314.9450456
51
359.9787456
0
ARC
8
DEFAULT_255_2_778
10
1.2480792
20
8.4692868
40
0.9999624
50
180.0262921
51
206.5690353
0
LINE
8
DEFAULT_255_2_778
10
5.8274169
20
79.566928
11
5.8277936
21
79.5669281
0
ARC
8
DEFAULT_255_2_778
10
5.8276498
20
79.0670238
40
0.4999043
50
45.0192084
51
89.9835098
0
ARC
8
DEFAULT_255_2_778
10
5.8278352
20
79.0668703
40
0.4998818
50
0.0295273
51
45.0466731
0
ARC
8
DEFAULT_255_2_778
10
4.7262406
20
47.7699783
40
0.5001238
50
143.5762739
51
179.9599424
0
ARC
8
DEFAULT_255_2_778
10
4.7257577
20
44.137284
40
0.4993408
50
179.994957
51
216.4339091
0
ARC
8
DEFAULT_255_2_778
10
4.4265323
20
43.9448259
40
0.5002155
50
180.0455779
51
258.173871
0
ARC
8
DEFAULT_255_2_778
10
4.6265269
20
47.9697844
40
0.5001102
50
127.2206851
51
179.9606439
0
ARC
8
DEFAULT_255_2_778
10
4.4264502
20
47.9628967
40
0.5001334
50
101.8184874
51
179.9620552
0
ARC
8
DEFAULT_255_2_778
10
4.6263833
20
43.9376002
40
0.4999665
50
180.0311932
51
232.7874693
0
LINE
8
DEFAULT_255_2_778
10
10.2282169
20
2.596128
11
10.3147169
21
2.372328
0
LINE
8
DEFAULT_255_2_778
10
10.3147169
20
2.372328
11
10.5629169
21
2.596128
0
LINE
8
DEFAULT_255_2_778
10
7.0839169
20
2.596128
11
7.1693169
21
2.509428
0
LINE
8
DEFAULT_255_2_778
10
7.1693169
20
2.509428
11
7.3450169
21
2.372328
0
LINE
8
DEFAULT_255_2_778
10
5.9525169
20
2.372328
11
7.3450169
21
2.372328
0
LINE
8
DEFAULT_255_2_778
10
7.4315169
20
2.596128
11
7.3802169
21
2.463328
0
LINE
8
DEFAULT_255_2_778
10
7.3802169
20
2.463328
11
7.3450169
21
2.372328
0
LINE
8
DEFAULT_255_2_778
10
13.4492169
20
2.596128
11
13.3238169
21
2.486328
0
LINE
8
DEFAULT_255_2_778
10
13.3238169
20
2.486328
11
13.1587169
21
2.372328
0
LINE
8
DEFAULT_255_2_778
10
5.2649169
20
0.250628
11
5.4525169
21
0.250628
0
LINE
8
DEFAULT_255_2_778
10
0.9490169
20
-0.163472
11
5.4525169
21
-0.163172
0
LINE
8
DEFAULT_255_2_778
10
5.4525169
20
-0.163172
11
5.4525169
21
0.250628
0
LINE
8
DEFAULT_255_2_778
10
5.4525169
20
0.250628
11
5.4525169
21
2.596128
0
LINE
8
DEFAULT_255_2_778
10
5.4525169
20
2.596128
11
5.9528169
21
2.596128
0
LINE
8
DEFAULT_255_2_778
10
5.9528169
20
2.596128
11
7.0839169
21
2.596128
0
LINE
8
DEFAULT_255_2_778
10
7.0839169
20
2.596128
11
7.4315169
21
2.596128
0
LINE
8
DEFAULT_255_2_778
10
7.4315169
20
2.596128
11
7.9160169
21
2.596128
0
LINE
8
DEFAULT_255_2_778
10
7.9160169
20
2.596128
11
9.7440169
21
2.596128
0
LINE
8
DEFAULT_255_2_778
10
0.4487169
20
0.604128
11
0.4487169
21
2.596128
0
LINE
8
DEFAULT_255_2_778
10
0.9490169
20
0.250628
11
0.9490169
21
-0.163472
0
LINE
8
DEFAULT_255_2_778
10
0.4487169
20
0.336328
11
0.4487169
21
0.603828
0
LINE
8
DEFAULT_255_2_778
10
1.1366169
20
0.250428
11
0.9490169
21
0.250428
0
LINE
8
DEFAULT_255_2_778
10
0.9490169
20
0.250428
11
0.9490169
21
2.595928
0
LINE
8
DEFAULT_255_2_778
10
0.9490169
20
2.595928
11
2.4418169
21
2.595928
0
LINE
8
DEFAULT_255_2_778
10
0.2481169
20
83.440428
11
0.3537169
21
83.440428
0
LINE
8
DEFAULT_255_2_778
10
14.4337169
20
2.221228
11
9.8379169
21
2.221228
0
LINE
8
DEFAULT_255_2_778
10
9.8379169
20
2.221228
11
9.7435169
21
2.596128
0
LINE
8
DEFAULT_255_2_778
10
9.7435169
20
2.596128
11
10.2277169
21
2.596128
0
LINE
8
DEFAULT_255_2_778
10
10.2277169
20
2.596128
11
10.5624169
21
2.596128
0
LINE
8
DEFAULT_255_2_778
10
10.5624169
20
2.596128
11
13.1563169
21
2.596128
0
LINE
8
DEFAULT_255_2_778
10
13.1563169
20
2.596128
11
13.2373169
21
2.596128
0
LINE
8
DEFAULT_255_2_778
10
13.2373169
20
2.596128
11
13.1582169
21
2.372328
0
LINE
8
DEFAULT_255_2_778
10
13.1582169
20
2.372328
11
13.1561169
21
2.596128
0
LINE
8
DEFAULT_255_2_778
10
5.9520169
20
1.221628
11
5.9520169
21
0.604128
0
LINE
8
DEFAULT_255_2_778
10
5.9520169
20
0.604128
11
5.9520169
21
0.336328
0
LINE
8
DEFAULT_255_2_778
10
14.4335169
20
1.221628
11
5.9525169
21
1.221628
0
LINE
8
DEFAULT_255_2_778
10
5.9525169
20
1.221628
11
5.9525169
21
2.221228
0
LINE
8
DEFAULT_255_2_778
10
5.9525169
20
2.221228
11
7.8210169
21
2.221228
0
LINE
8
DEFAULT_255_2_778
10
9.8379169
20
2.221228
11
9.3651169
21
2.015128
0
LINE
8
DEFAULT_255_2_778
10
9.3651169
20
2.015128
11
8.7666169
21
1.940228
0
LINE
8
DEFAULT_255_2_778
10
8.7666169
20
1.940228
11
8.2324169
21
2.031528
0
LINE
8
DEFAULT_255_2_778
10
8.2324169
20
2.031528
11
7.8210169
21
2.221228
0
LINE
8
DEFAULT_255_2_778
10
7.8210169
20
2.221228
11
7.9155169
21
2.596128
0
LINE
8
DEFAULT_255_2_778
10
10.3142169
20
2.372328
11
13.1582169
21
2.372328
0
LINE
8
DEFAULT_255_2_778
10
14.4335169
20
2.596128
11
13.4484169
21
2.596128
0
LINE
8
DEFAULT_255_2_778
10
13.4484169
20
2.596128
11
13.2370169
21
2.596128
0
LINE
8
DEFAULT_255_2_778
10
14.4335169
20
2.221228
11
14.4335169
21
1.221628
0
LINE
8
DEFAULT_255_2_778
10
3.2003169
20
88.938228
11
3.4004169
21
88.938228
0
LINE
8
DEFAULT_255_2_778
10
1.9494169
20
87.054928
11
1.9494169
21
87.822728
0
LINE
8
DEFAULT_255_2_778
10
3.6507169
20
88.938228
11
3.4004169
21
88.938228
0
LINE
8
DEFAULT_255_2_778
10
6.1523169
20
88.938228
11
3.6504169
21
88.938228
0
LINE
8
DEFAULT_255_2_778
10
3.6504169
20
88.938228
11
3.6504169
21
86.688928
0
LINE
8
DEFAULT_255_2_778
10
10.1554169
20
87.625328
11
10.1554169
21
87.048028
0
LINE
8
DEFAULT_255_2_778
10
10.1554169
20
86.689228
11
10.1554169
21
87.003028
0
LINE
8
DEFAULT_255_2_778
10
9.6551169
20
90.937628
11
9.5154169
21
90.937628
0
LINE
8
DEFAULT_255_2_778
10
9.6551169
20
87.462328
11
9.6551169
21
86.689228
0
LINE
8
DEFAULT_255_2_778
10
9.6551169
20
86.689228
11
9.2797169
21
86.689228
0
LINE
8
DEFAULT_255_2_778
10
9.9051169
20
87.422928
11
9.9043169
21
88.304728
0
LINE
8
DEFAULT_255_2_778
10
6.9119169
20
88.938428
11
6.1523169
21
88.938428
0
LINE
8
DEFAULT_255_2_778
10
8.1539169
20
86.939228
11
8.3182169
21
86.939228
0
LINE
8
DEFAULT_255_2_778
10
8.1539169
20
88.938428
11
6.9119169
21
88.938428
0
LINE
8
DEFAULT_255_2_778
10
0.1481169
20
88.438428
11
0.1772169
21
88.898228
0
LINE
8
DEFAULT_255_2_778
10
0.1772169
20
88.898228
11
0.3169169
21
89.271828
0
LINE
8
DEFAULT_255_2_778
10
0.3169169
20
89.271828
11
0.4590169
21
89.508128
0
LINE
8
DEFAULT_255_2_778
10
0.6484169
20
87.463428
11
0.9037169
21
87.524828
0
LINE
8
DEFAULT_255_2_778
10
0.9037169
20
87.524828
11
1.2085169
21
87.704728
0
LINE
8
DEFAULT_255_2_778
10
1.2085169
20
87.704728
11
1.5210169
21
88.062428
0
LINE
8
DEFAULT_255_2_778
10
1.5210169
20
88.062428
11
1.6610169
21
88.545828
0
LINE
8
DEFAULT_255_2_778
10
1.6610169
20
88.545828
11
1.6650169
21
88.563028
0
LINE
8
DEFAULT_255_2_778
10
1.6650169
20
88.563028
11
1.6702169
21
88.586028
0
LINE
8
DEFAULT_255_2_778
10
1.6702169
20
88.586028
11
1.6917169
21
88.640028
0
LINE
8
DEFAULT_255_2_778
10
1.6917169
20
88.640028
11
1.7081169
21
88.673028
0
LINE
8
DEFAULT_255_2_778
10
1.7081169
20
88.673028
11
1.7255169
21
88.702428
0
LINE
8
DEFAULT_255_2_778
10
2.1499169
20
90.187028
11
2.1499169
21
88.937428
0
LINE
8
DEFAULT_255_2_778
10
2.1499169
20
88.937428
11
3.2009169
21
88.937428
0
LINE
8
DEFAULT_255_2_778
10
3.2009169
20
88.937428
11
3.2009169
21
88.923928
0
LINE
8
DEFAULT_255_2_778
10
0.6693169
20
89.372928
11
0.4592169
21
89.508328
0
LINE
8
DEFAULT_255_2_778
10
1.9496169
20
90.427528
11
1.9499169
21
90.937628
0
LINE
8
DEFAULT_255_2_778
10
0.6693169
20
89.372928
11
1.7255169
21
88.703528
0
LINE
8
DEFAULT_255_2_778
10
0.4103169
20
87.424228
11
0.2889169
21
87.421828
0
LINE
8
DEFAULT_255_2_778
10
0.2889169
20
87.421828
11
0.2023169
21
87.472428
0
LINE
8
DEFAULT_255_2_778
10
0.2023169
20
87.472428
11
0.1568169
21
87.543328
0
LINE
8
DEFAULT_255_2_778
10
0.1568169
20
87.543328
11
0.1481169
21
87.600728
0
LINE
8
DEFAULT_255_2_778
10
0.1481169
20
87.600728
11
0.1481169
21
88.438628
0
LINE
8
DEFAULT_255_2_778
10
0.1481169
20
88.438628
11
0.1529169
21
88.412428
0
LINE
8
DEFAULT_255_2_778
10
0.1529169
20
88.412428
11
0.1671169
21
88.387328
0
LINE
8
DEFAULT_255_2_778
10
0.1671169
20
88.387328
11
0.1902169
21
88.364328
0
LINE
8
DEFAULT_255_2_778
10
0.1902169
20
88.364328
11
0.2214169
21
88.343928
0
LINE
8
DEFAULT_255_2_778
10
0.2214169
20
88.343928
11
0.2592169
21
88.327228
0
LINE
8
DEFAULT_255_2_778
10
0.2592169
20
88.327228
11
0.3024169
21
88.314828
0
LINE
8
DEFAULT_255_2_778
10
0.3024169
20
88.314828
11
0.3981169
21
88.304728
0
LINE
8
DEFAULT_255_2_778
10
0.4103169
20
87.424228
11
0.3981169
21
88.304728
0
LINE
8
DEFAULT_255_2_778
10
0.3981169
20
88.304728
11
0.4225169
21
88.756728
0
LINE
8
DEFAULT_255_2_778
10
0.4225169
20
88.756728
11
0.5442169
21
89.134728
0
LINE
8
DEFAULT_255_2_778
10
0.5442169
20
89.134728
11
0.6691169
21
89.372628
0
LINE
8
DEFAULT_255_2_778
10
0.4103169
20
87.424228
11
0.4103169
21
87.424228
0
LINE
8
DEFAULT_255_2_778
10
8.1541169
20
90.187528
11
2.1497169
21
90.187528
0
LINE
8
DEFAULT_255_2_778
10
0.6693169
20
89.372628
11
0.5773169
21
88.960428
0
LINE
8
DEFAULT_255_2_778
10
0.5773169
20
88.960428
11
0.4976169
21
88.459528
0
LINE
8
DEFAULT_255_2_778
10
0.4976169
20
88.459528
11
0.4413169
21
87.938828
0
LINE
8
DEFAULT_255_2_778
10
0.4413169
20
87.938828
11
0.4190169
21
87.599428
0
LINE
8
DEFAULT_255_2_778
10
0.4190169
20
87.599428
11
0.4127169
21
87.465528
0
LINE
8
DEFAULT_255_2_778
10
0.4127169
20
87.465528
11
0.4108169
21
87.424528
0
LINE
8
DEFAULT_255_2_778
10
6.8307169
20
90.437828
11
8.1547169
21
90.437828
0
LINE
8
DEFAULT_255_2_778
10
8.1547169
20
90.437828
11
8.1547169
21
90.187828
0
LINE
8
DEFAULT_255_2_778
10
3.2009169
20
90.437528
11
2.1497169
21
90.437528
0
LINE
8
DEFAULT_255_2_778
10
2.1497169
20
90.437528
11
2.1497169
21
90.187828
0
LINE
8
DEFAULT_255_2_778
10
8.5780169
20
88.704028
11
8.5973169
21
88.671228
0
LINE
8
DEFAULT_255_2_778
10
8.5973169
20
88.671228
11
8.6150169
21
88.634728
0
LINE
8
DEFAULT_255_2_778
10
8.6150169
20
88.634728
11
8.6338169
21
88.584428
0
LINE
8
DEFAULT_255_2_778
10
8.6338169
20
88.584428
11
8.6976169
21
88.311628
0
LINE
8
DEFAULT_255_2_778
10
8.6976169
20
88.311628
11
8.8317169
21
88.004228
0
LINE
8
DEFAULT_255_2_778
10
8.8317169
20
88.004228
11
9.1154169
21
87.689928
0
LINE
8
DEFAULT_255_2_778
10
9.1154169
20
87.689928
11
9.4106169
21
87.522128
0
LINE
8
DEFAULT_255_2_778
10
9.4106169
20
87.522128
11
9.5990169
21
87.476128
0
LINE
8
DEFAULT_255_2_778
10
9.5990169
20
87.476128
11
9.6548169
21
87.462328
0
LINE
8
DEFAULT_255_2_778
10
9.6548169
20
87.462328
11
9.7937169
21
87.436928
0
LINE
8
DEFAULT_255_2_778
10
9.7937169
20
87.436928
11
9.9049169
21
87.422928
0
LINE
8
DEFAULT_255_2_778
10
9.6331169
20
89.374728
11
9.6863169
21
89.150628
0
LINE
8
DEFAULT_255_2_778
10
9.6863169
20
89.150628
11
9.7723169
21
88.704328
0
LINE
8
DEFAULT_255_2_778
10
9.7723169
20
88.704328
11
9.8464169
21
88.117728
0
LINE
8
DEFAULT_255_2_778
10
9.8464169
20
88.117728
11
9.8816169
21
87.668228
0
LINE
8
DEFAULT_255_2_778
10
9.8816169
20
87.668228
11
9.8901169
21
87.491928
0
LINE
8
DEFAULT_255_2_778
10
9.8901169
20
87.491928
11
9.9051169
21
87.422628
0
LINE
8
DEFAULT_255_2_778
10
9.9051169
20
87.422628
11
10.0147169
21
87.421828
0
LINE
8
DEFAULT_255_2_778
10
10.0147169
20
87.421828
11
10.1012169
21
87.472428
0
LINE
8
DEFAULT_255_2_778
10
10.1012169
20
87.472428
11
10.1467169
21
87.543328
0
LINE
8
DEFAULT_255_2_778
10
10.1467169
20
87.543328
11
10.1554169
21
87.600428
0
LINE
8
DEFAULT_255_2_778
10
10.1554169
20
87.600428
11
10.1554169
21
88.439428
0
LINE
8
DEFAULT_255_2_778
10
9.6334169
20
89.374528
11
9.8469169
21
88.914628
0
LINE
8
DEFAULT_255_2_778
10
9.8469169
20
88.914628
11
9.9006169
21
88.541028
0
LINE
8
DEFAULT_255_2_778
10
9.9006169
20
88.541028
11
9.9043169
21
88.350028
0
LINE
8
DEFAULT_255_2_778
10
9.9043169
20
88.350028
11
9.9043169
21
88.304528
0
LINE
8
DEFAULT_255_2_778
10
9.9043169
20
88.304528
11
10.0009169
21
88.314828
0
LINE
8
DEFAULT_255_2_778
10
10.0009169
20
88.314828
11
10.0440169
21
88.327228
0
LINE
8
DEFAULT_255_2_778
10
10.0440169
20
88.327228
11
10.0819169
21
88.343928
0
LINE
8
DEFAULT_255_2_778
10
10.0819169
20
88.343928
11
10.1131169
21
88.364328
0
LINE
8
DEFAULT_255_2_778
10
10.1131169
20
88.364328
11
10.1361169
21
88.387328
0
LINE
8
DEFAULT_255_2_778
10
10.1361169
20
88.387328
11
10.1504169
21
88.412428
0
LINE
8
DEFAULT_255_2_778
10
10.1504169
20
88.412428
11
10.1552169
21
88.439728
0
LINE
8
DEFAULT_255_2_778
10
10.1552169
20
88.439728
11
10.1499169
21
88.678328
0
LINE
8
DEFAULT_255_2_778
10
10.1499169
20
88.678328
11
10.0853169
21
89.056428
0
LINE
8
DEFAULT_255_2_778
10
10.0853169
20
89.056428
11
9.8456169
21
89.506228
0
LINE
8
DEFAULT_255_2_778
10
9.6331169
20
89.374728
11
9.8456169
21
89.506228
0
LINE
8
DEFAULT_255_2_778
10
8.1536169
20
90.187828
11
8.1536169
21
90.187828
0
LINE
8
DEFAULT_255_2_778
10
9.6331169
20
89.374728
11
8.5775169
21
88.704328
0
LINE
8
DEFAULT_255_2_778
10
8.1536169
20
88.938428
11
8.1536169
21
90.187828
0
LINE
8
DEFAULT_255_2_778
10
0.1481169
20
87.625328
11
0.1481169
21
83.440428
0
LINE
8
DEFAULT_255_2_778
10
0.2481169
20
83.440428
11
0.2481169
21
82.840628
0
LINE
8
DEFAULT_255_2_778
10
1.1654169
20
0.227128
11
1.1363169
21
0.250628
0
LINE
8
DEFAULT_255_2_778
10
1.1363169
20
0.250628
11
1.0487169
21
0.321328
0
LINE
8
DEFAULT_255_2_778
10
1.0487169
20
0.321328
11
1.0487169
21
1.028028
0
LINE
8
DEFAULT_255_2_778
10
5.3519169
20
1.028028
11
5.3519169
21
0.321328
0
LINE
8
DEFAULT_255_2_778
10
5.3519169
20
0.321328
11
5.2643169
21
0.250628
0
LINE
8
DEFAULT_255_2_778
10
5.2643169
20
0.250628
11
5.2352169
21
0.227128
0
LINE
8
DEFAULT_255_2_778
10
5.2352169
20
0.227128
11
5.2352169
21
0.769228
0
LINE
8
DEFAULT_255_2_778
10
1.1652169
20
0.769228
11
1.0485169
21
1.028228
0
LINE
8
DEFAULT_255_2_778
10
1.0485169
20
1.028228
11
5.3517169
21
1.028228
0
LINE
8
DEFAULT_255_2_778
10
5.3517169
20
1.028228
11
5.2350169
21
0.769228
0
LINE
8
DEFAULT_255_2_778
10
5.2350169
20
0.769228
11
1.1654169
21
0.769228
0
LINE
8
DEFAULT_255_2_778
10
1.1654169
20
0.769228
11
1.1654169
21
0.227128
0
LINE
8
DEFAULT_255_2_778
10
1.1654169
20
0.227128
11
5.2355169
21
0.227128
0
LINE
8
DEFAULT_255_2_778
10
3.9594169
20
2.596128
11
5.3522169
21
1.452428
0
LINE
8
DEFAULT_255_2_778
10
5.3522169
20
1.452428
11
5.0979169
21
1.357928
0
LINE
8
DEFAULT_255_2_778
10
2.8106169
20
2.596128
11
2.4415169
21
2.596128
0
LINE
8
DEFAULT_255_2_778
10
2.4415169
20
2.596128
11
1.0487169
21
1.452428
0
LINE
8
DEFAULT_255_2_778
10
1.0487169
20
1.452428
11
1.3030169
21
1.357928
0
LINE
8
DEFAULT_255_2_778
10
5.9525169
20
2.596128
11
5.9525169
21
2.372328
0
LINE
8
DEFAULT_255_2_778
10
5.9525169
20
2.372328
11
5.9525169
21
2.221228
0
LINE
8
DEFAULT_255_2_778
10
5.4522169
20
2.596128
11
3.9594169
21
2.596128
0
LINE
8
DEFAULT_255_2_778
10
3.9594169
20
2.596128
11
3.5903169
21
2.596128
0
LINE
8
DEFAULT_255_2_778
10
3.5903169
20
2.596128
11
2.8106169
21
2.596128
0
LINE
8
DEFAULT_255_2_778
10
2.8106169
20
2.596128
11
1.3030169
21
1.357928
0
LINE
8
DEFAULT_255_2_778
10
1.3030169
20
1.357928
11
5.0979169
21
1.357928
0
LINE
8
DEFAULT_255_2_778
10
5.0979169
20
1.357928
11
3.5903169
21
2.596128
0
LINE
8
DEFAULT_255_2_778
10
14.8092169
20
86.689228
11
14.8092169
21
86.564328
0
LINE
8
DEFAULT_255_2_778
10
2.8500169
20
86.689228
11
2.8500169
21
86.564328
0
LINE
8
DEFAULT_255_2_778
10
15.7098169
20
90.937628
11
15.7098169
21
86.564328
0
LINE
8
DEFAULT_255_2_778
10
15.7098169
20
86.564328
11
15.0259169
21
86.564328
0
LINE
8
DEFAULT_255_2_778
10
15.0259169
20
86.564328
11
14.8092169
21
86.564328
0
LINE
8
DEFAULT_255_2_778
10
14.8092169
20
86.564328
11
8.9296169
21
86.564328
0
LINE
8
DEFAULT_255_2_778
10
8.9296169
20
86.564328
11
8.7793169
21
86.564328
0
LINE
8
DEFAULT_255_2_778
10
8.7793169
20
86.564328
11
8.7293169
21
86.564328
0
LINE
8
DEFAULT_255_2_778
10
8.7293169
20
86.564328
11
2.8498169
21
86.564328
0
LINE
8
DEFAULT_255_2_778
10
2.8498169
20
86.564328
11
2.6331169
21
86.564328
0
LINE
8
DEFAULT_255_2_778
10
2.6331169
20
86.564328
11
2.1809169
21
86.564328
0
LINE
8
DEFAULT_255_2_778
10
2.1809169
20
86.564328
11
1.5239169
21
86.564328
0
LINE
8
DEFAULT_255_2_778
10
8.9294169
20
86.564328
11
8.9294169
21
86.689228
0
LINE
8
DEFAULT_255_2_778
10
8.9294169
20
86.689228
11
9.2794169
21
86.689228
0
LINE
8
DEFAULT_255_2_778
10
9.2794169
20
86.689228
11
9.2794169
21
87.462328
0
LINE
8
DEFAULT_255_2_778
10
9.2794169
20
87.462328
11
8.7791169
21
87.462328
0
LINE
8
DEFAULT_255_2_778
10
8.7791169
20
87.462328
11
8.7791169
21
86.564328
0
LINE
8
DEFAULT_255_2_778
10
0.3447169
20
86.564328
11
0.6482169
21
86.564328
0
LINE
8
DEFAULT_255_2_778
10
0.6482169
20
86.564328
11
1.0239169
21
86.564328
0
LINE
8
DEFAULT_255_2_778
10
1.0239169
20
86.564328
11
1.5242169
21
86.564328
0
LINE
8
DEFAULT_255_2_778
10
1.5242169
20
86.564328
11
1.5242169
21
87.462328
0
LINE
8
DEFAULT_255_2_778
10
1.5242169
20
87.462328
11
1.0239169
21
87.462328
0
LINE
8
DEFAULT_255_2_778
10
1.0239169
20
87.462328
11
1.0239169
21
86.564328
0
LINE
8
DEFAULT_255_2_778
10
0.6484169
20
86.564328
11
0.6484169
21
87.463928
0
LINE
8
DEFAULT_255_2_778
10
0.6484169
20
87.463928
11
0.6217169
21
87.457528
0
LINE
8
DEFAULT_255_2_778
10
0.6217169
20
87.457528
11
0.4103169
21
87.424728
0
LINE
8
DEFAULT_255_2_778
10
17.3143169
20
2.595128
11
17.3143169
21
86.562528
0
LINE
8
DEFAULT_255_2_778
10
17.3143169
20
86.562528
11
17.3055169
21
86.564028
0
LINE
8
DEFAULT_255_2_778
10
0.3889169
20
84.564928
11
0.3452169
21
86.564028
0
LINE
8
DEFAULT_255_2_778
10
0.3452169
20
86.564028
11
0.3452169
21
86.564028
0
LINE
8
DEFAULT_255_2_778
10
15.4349169
20
2.595928
11
15.4349169
21
2.221028
0
LINE
8
DEFAULT_255_2_778
10
15.4349169
20
2.221028
11
14.4343169
21
2.221028
0
LINE
8
DEFAULT_255_2_778
10
14.4343169
20
2.221028
11
14.4343169
21
2.595928
0
LINE
8
DEFAULT_255_2_778
10
14.4343169
20
2.595928
11
15.4349169
21
2.595928
0
LINE
8
DEFAULT_255_2_778
10
15.4349169
20
2.595928
11
17.2867169
21
2.595928
0
LINE
8
DEFAULT_255_2_778
10
0.3627169
20
2.596128
11
0.4484169
21
2.596128
0
LINE
8
DEFAULT_255_2_778
10
0.4484169
20
2.596128
11
0.9487169
21
2.596128
0
LINE
8
DEFAULT_255_2_778
10
0.3889169
20
3.595728
11
0.3627169
21
2.596128
0
LINE
8
DEFAULT_255_2_778
10
0.3627169
20
2.596128
11
0.3627169
21
2.596128
0
LINE
8
DEFAULT_255_2_778
10
17.2706169
20
84.564928
11
17.2706169
21
81.566128
0
LINE
8
DEFAULT_255_2_778
10
17.2706169
20
81.566128
11
17.2706169
21
3.595728
0
LINE
8
DEFAULT_255_2_778
10
17.2706169
20
3.595728
11
0.3889169
21
3.595728
0
LINE
8
DEFAULT_255_2_778
10
0.3889169
20
3.595728
11
0.3889169
21
8.494028
0
LINE
8
DEFAULT_255_2_778
10
15.7098169
20
86.564328
11
17.3055169
21
86.564328
0
LINE
8
DEFAULT_255_2_778
10
17.2706169
20
84.565128
11
0.3889169
21
84.565128
0
LINE
8
DEFAULT_255_2_778
10
0.3889169
20
84.565128
11
0.3889169
21
81.566328
0
LINE
8
DEFAULT_255_2_778
10
10.1557169
20
87.048528
11
10.1557169
21
87.003528
0
LINE
8
DEFAULT_255_2_778
10
3.2003169
20
86.689728
11
3.2003169
21
88.925528
0
LINE
8
DEFAULT_255_2_778
10
8.7296169
20
86.564828
11
8.7296169
21
86.689728
0
LINE
8
DEFAULT_255_2_778
10
8.7296169
20
86.689728
11
8.2033169
21
86.689728
0
LINE
8
DEFAULT_255_2_778
10
8.2033169
20
86.689728
11
3.6509169
21
86.689728
0
LINE
8
DEFAULT_255_2_778
10
3.6509169
20
86.689728
11
3.2006169
21
86.689728
0
LINE
8
DEFAULT_255_2_778
10
3.2006169
20
86.689728
11
2.8503169
21
86.689728
0
LINE
8
DEFAULT_255_2_778
10
3.6509169
20
90.438128
11
6.8304169
21
90.438128
0
LINE
8
DEFAULT_255_2_778
10
8.1544169
20
90.937928
11
9.5157169
21
90.937928
0
LINE
8
DEFAULT_255_2_778
10
9.5157169
20
90.937928
11
9.5054169
21
90.937928
0
LINE
8
DEFAULT_255_2_778
10
14.4591169
20
86.689528
11
10.1557169
21
86.689528
0
LINE
8
DEFAULT_255_2_778
10
10.1557169
20
86.689528
11
9.6554169
21
86.689528
0
LINE
8
DEFAULT_255_2_778
10
14.4586169
20
90.937628
11
15.7098169
21
90.937628
0
LINE
8
DEFAULT_255_2_778
10
8.9296169
20
93.436628
11
13.2079169
21
93.436628
0
LINE
8
DEFAULT_255_2_778
10
13.2079169
20
93.436628
11
13.2079169
21
92.187028
0
LINE
8
DEFAULT_255_2_778
10
8.7296169
20
93.436628
11
8.9296169
21
93.436628
0
LINE
8
DEFAULT_255_2_778
10
8.9296169
20
93.436628
11
8.9296169
21
92.187028
0
LINE
8
DEFAULT_255_2_778
10
8.9296169
20
92.187028
11
13.2079169
21
92.187028
0
LINE
8
DEFAULT_255_2_778
10
14.4586169
20
90.937328
11
14.4589169
21
86.688928
0
LINE
8
DEFAULT_255_2_778
10
14.4589169
20
86.688928
11
14.8092169
21
86.688928
0
LINE
8
DEFAULT_255_2_778
10
3.2009169
20
90.937628
11
1.9496169
21
90.937628
0
LINE
8
DEFAULT_255_2_778
10
4.4513169
20
92.187028
11
8.7296169
21
92.187028
0
LINE
8
DEFAULT_255_2_778
10
8.7296169
20
92.187028
11
8.7296169
21
93.436628
0
LINE
8
DEFAULT_255_2_778
10
8.7296169
20
93.436628
11
4.4513169
21
93.436628
0
LINE
8
DEFAULT_255_2_778
10
4.4513169
20
93.436628
11
4.4513169
21
92.187028
0
LINE
8
DEFAULT_255_2_778
10
3.2006169
20
90.937328
11
3.2003169
21
90.437328
0
LINE
8
DEFAULT_255_2_778
10
3.2003169
20
90.437328
11
3.6507169
21
90.437328
0
LINE
8
DEFAULT_255_2_778
10
3.6507169
20
90.437328
11
3.6507169
21
90.937628
0
LINE
8
DEFAULT_255_2_778
10
4.7516169
20
92.037228
11
8.9299169
21
92.037228
0
LINE
8
DEFAULT_255_2_778
10
8.9299169
20
92.037228
11
8.9299169
21
92.187228
0
LINE
8
DEFAULT_255_2_778
10
0.3537169
20
8.022028
11
0.3537169
21
7.821128
0
LINE
8
DEFAULT_255_2_778
10
0.3537169
20
7.821128
11
0.3455169
21
7.322128
0
LINE
8
DEFAULT_255_2_778
10
0.3455169
20
7.322128
11
0.3449169
21
7.320828
0
LINE
8
DEFAULT_255_2_778
10
0.3449169
20
7.320828
11
0.3449169
21
5.594928
0
LINE
8
DEFAULT_255_2_778
10
0.3537169
20
5.095128
11
0.3537169
21
3.095928
0
LINE
8
DEFAULT_255_2_778
10
0.3537169
20
3.095928
11
0.3624169
21
2.596128
0
LINE
8
DEFAULT_255_2_778
10
0.3981169
20
9.168728
11
0.3886169
21
8.494028
0
LINE
8
DEFAULT_255_2_778
10
0.3886169
20
8.494028
11
5.8274169
21
8.494028
0
LINE
8
DEFAULT_255_2_778
10
6.3277169
20
8.993828
11
6.3277169
21
9.168728
0
LINE
8
DEFAULT_255_2_778
10
0.3889169
20
79.566928
11
0.3889169
21
81.566128
0
LINE
8
DEFAULT_255_2_778
10
0.3889169
20
81.566128
11
17.2709169
21
81.566128
0
LINE
8
DEFAULT_255_2_778
10
1.9494169
20
79.566928
11
0.3889169
21
79.566928
0
LINE
8
DEFAULT_255_2_778
10
0.3889169
20
79.566928
11
0.3539169
21
79.566928
0
LINE
8
DEFAULT_255_2_778
10
0.3539169
20
79.566928
11
0.3539169
21
80.241628
0
LINE
8
DEFAULT_255_2_778
10
1.9496169
20
9.168728
11
0.3984169
21
9.168728
0
LINE
8
DEFAULT_255_2_778
10
0.3984169
20
9.168728
11
0.2481169
21
9.168728
0
LINE
8
DEFAULT_255_2_778
10
0.2481169
20
9.168728
11
0.2481169
21
80.241628
0
LINE
8
DEFAULT_255_2_778
10
0.2481169
20
80.241628
11
0.3537169
21
80.241628
0
LINE
8
DEFAULT_255_2_778
10
0.3537169
20
80.241628
11
0.3537169
21
83.440428
0
LINE
8
DEFAULT_255_2_778
10
0.3537169
20
83.440428
11
0.3537169
21
83.887328
0
LINE
8
DEFAULT_255_2_778
10
0.3537169
20
83.887328
11
0.3537169
21
84.047328
0
LINE
8
DEFAULT_255_2_778
10
0.3537169
20
84.047328
11
0.3537169
21
84.065128
0
LINE
8
DEFAULT_255_2_778
10
0.3537169
20
84.065128
11
0.3449169
21
84.564928
0
LINE
8
DEFAULT_255_2_778
10
0.3449169
20
84.564928
11
0.3449169
21
86.564028
0
LINE
8
DEFAULT_255_2_778
10
0.2481169
20
9.168728
11
0.2481169
21
8.468828
0
LINE
8
DEFAULT_255_2_778
10
0.3537169
20
8.022028
11
0.3537169
21
8.494028
0
LINE
8
DEFAULT_255_2_778
10
0.3537169
20
8.494028
11
0.3889169
21
8.494028
0
LINE
8
DEFAULT_255_2_778
10
0.2481169
20
80.241628
11
0.2481169
21
82.840628
0
LINE
8
DEFAULT_255_2_778
10
0.2481169
20
82.840628
11
0.1481169
21
82.840628
0
LINE
8
DEFAULT_255_2_778
10
0.1481169
20
82.840628
11
0.1481169
21
83.440428
0
LINE
8
DEFAULT_255_2_778
10
3.0503169
20
37.681728
11
3.0503169
21
37.248928
0
LINE
8
DEFAULT_255_2_778
10
4.8241169
20
9.678828
11
4.7177169
21
9.676928
0
LINE
8
DEFAULT_255_2_778
10
4.7177169
20
9.676928
11
4.4513169
21
9.672228
0
LINE
8
DEFAULT_255_2_778
10
4.4513169
20
9.672228
11
4.4513169
21
9.168428
0
LINE
8
DEFAULT_255_2_778
10
4.4513169
20
9.168428
11
4.7177169
21
9.168428
0
LINE
8
DEFAULT_255_2_778
10
4.7177169
20
9.168428
11
4.7177169
21
9.676728
0
LINE
8
DEFAULT_255_2_778
10
3.7509169
20
79.566928
11
5.8274169
21
79.566928
0
LINE
8
DEFAULT_255_2_778
10
6.3277169
20
79.067128
11
6.3277169
21
9.168728
0
LINE
8
DEFAULT_255_2_778
10
6.3277169
20
9.168728
11
4.7177169
21
9.168728
0
LINE
8
DEFAULT_255_2_778
10
4.8241169
20
58.500228
11
3.7507169
21
58.519028
0
LINE
8
DEFAULT_255_2_778
10
4.8241169
20
33.409328
11
3.7507169
21
33.390528
0
LINE
8
DEFAULT_255_2_778
10
4.8241169
20
58.399728
11
3.7507169
21
58.380928
0
LINE
8
DEFAULT_255_2_778
10
3.7507169
20
58.380928
11
3.7507169
21
58.339928
0
LINE
8
DEFAULT_255_2_778
10
4.8241169
20
56.800328
11
3.7507169
21
56.819128
0
LINE
8
DEFAULT_255_2_778
10
4.8241169
20
33.509528
11
3.7507169
21
33.528328
0
LINE
8
DEFAULT_255_2_778
10
3.7507169
20
33.528328
11
3.7507169
21
34.027628
0
LINE
8
DEFAULT_255_2_778
10
4.8241169
20
35.108728
11
3.7507169
21
35.089928
0
LINE
8
DEFAULT_255_2_778
10
4.8241169
20
66.724028
11
3.7507169
21
67.796128
0
LINE
8
DEFAULT_255_2_778
10
3.7507169
20
67.796128
11
3.7507169
21
66.546528
0
LINE
8
DEFAULT_255_2_778
10
4.8241169
20
66.546528
11
3.7507169
21
66.546528
0
LINE
8
DEFAULT_255_2_778
10
3.7507169
20
66.546528
11
3.7507169
21
59.018028
0
LINE
8
DEFAULT_255_2_778
10
4.8241169
20
58.999228
11
3.7507169
21
59.018028
0
LINE
8
DEFAULT_255_2_778
10
3.7507169
20
59.018028
11
3.7507169
21
58.518528
0
LINE
8
DEFAULT_255_2_778
10
3.7507169
20
58.518528
11
3.7507169
21
58.380628
0
LINE
8
DEFAULT_255_2_778
10
3.0500169
20
36.377628
11
3.0500169
21
37.248628
0
LINE
8
DEFAULT_255_2_778
10
3.0500169
20
37.248628
11
2.9500169
21
37.248628
0
LINE
8
DEFAULT_255_2_778
10
4.4513169
20
10.015128
11
4.4513169
21
10.536628
0
LINE
8
DEFAULT_255_2_778
10
4.8241169
20
10.517028
11
4.4513169
21
10.536628
0
LINE
8
DEFAULT_255_2_778
10
4.4513169
20
10.536628
11
4.4513169
21
11.036628
0
LINE
8
DEFAULT_255_2_778
10
3.7507169
20
28.850828
11
3.7507169
21
20.863828
0
LINE
8
DEFAULT_255_2_778
10
1.9494169
20
69.335728
11
3.7507169
21
69.335728
0
LINE
8
DEFAULT_255_2_778
10
3.7507169
20
69.335728
11
3.7507169
21
67.796428
0
LINE
8
DEFAULT_255_2_778
10
1.9494169
20
68.535628
11
1.9494169
21
69.335728
0
LINE
8
DEFAULT_255_2_778
10
1.9494169
20
69.335728
11
1.9494169
21
79.566928
0
LINE
8
DEFAULT_255_2_778
10
1.9494169
20
79.566928
11
3.7507169
21
79.566928
0
LINE
8
DEFAULT_255_2_778
10
3.7507169
20
79.566928
11
3.7507169
21
69.335728
0
LINE
8
DEFAULT_255_2_778
10
2.8000169
20
59.140028
11
2.8500169
21
59.140028
0
LINE
8
DEFAULT_255_2_778
10
2.8500169
20
59.140028
11
2.8500169
21
63.437628
0
LINE
8
DEFAULT_255_2_778
10
2.8500169
20
63.437628
11
2.8000169
21
63.437628
0
LINE
8
DEFAULT_255_2_778
10
1.9494169
20
59.139728
11
2.8000169
21
59.139728
0
LINE
8
DEFAULT_255_2_778
10
2.8000169
20
59.139728
11
2.8000169
21
63.437628
0
LINE
8
DEFAULT_255_2_778
10
2.8000169
20
63.437628
11
1.9494169
21
63.437628
0
LINE
8
DEFAULT_255_2_778
10
3.7507169
20
47.208128
11
3.7507169
21
46.700328
0
LINE
8
DEFAULT_255_2_778
10
3.7507169
20
44.701128
11
3.7507169
21
45.208928
0
LINE
8
DEFAULT_255_2_778
10
3.9258169
20
45.208928
11
3.9258169
21
46.700328
0
LINE
8
DEFAULT_255_2_778
10
3.9258169
20
46.700328
11
4.1261169
21
46.700328
0
LINE
8
DEFAULT_255_2_778
10
4.1261169
20
46.700328
11
4.1261169
21
45.208928
0
LINE
8
DEFAULT_255_2_778
10
4.1261169
20
45.208928
11
3.9258169
21
45.208928
0
LINE
8
DEFAULT_255_2_778
10
3.9258169
20
45.208928
11
3.7507169
21
45.208928
0
LINE
8
DEFAULT_255_2_778
10
3.7507169
20
45.208928
11
3.7507169
21
46.700328
0
LINE
8
DEFAULT_255_2_778
10
3.7507169
20
46.700328
11
3.9258169
21
46.700328
0
LINE
8
DEFAULT_255_2_778
10
3.7507169
20
51.206728
11
3.7507169
21
50.699028
0
LINE
8
DEFAULT_255_2_778
10
3.7507169
20
49.207528
11
3.7507169
21
50.699028
0
LINE
8
DEFAULT_255_2_778
10
3.7507169
20
50.699028
11
4.3235169
21
50.699028
0
LINE
8
DEFAULT_255_2_778
10
3.7507169
20
41.210528
11
3.7507169
21
42.702028
0
LINE
8
DEFAULT_255_2_778
10
3.7507169
20
42.702028
11
4.3235169
21
42.702028
0
LINE
8
DEFAULT_255_2_778
10
4.3235169
20
40.702828
11
4.3235169
21
41.210528
0
LINE
8
DEFAULT_255_2_778
10
4.8238169
20
57.900428
11
3.7504169
21
57.881628
0
LINE
8
DEFAULT_255_2_778
10
3.7504169
20
52.092028
11
3.7504169
21
51.206728
0
LINE
8
DEFAULT_255_2_778
10
3.7504169
20
51.206728
11
4.3232169
21
51.206728
0
LINE
8
DEFAULT_255_2_778
10
4.3232169
20
51.206728
11
4.3232169
21
52.112128
0
LINE
8
DEFAULT_255_2_778
10
4.8236169
20
52.129628
11
4.3232169
21
52.112128
0
LINE
8
DEFAULT_255_2_778
10
4.3232169
20
52.112128
11
3.7504169
21
52.092028
0
LINE
8
DEFAULT_255_2_778
10
3.7504169
20
52.092028
11
3.7504169
21
56.819328
0
LINE
8
DEFAULT_255_2_778
10
3.7504169
20
56.819328
11
3.7504169
21
57.319128
0
LINE
8
DEFAULT_255_2_778
10
3.7504169
20
57.319128
11
4.8238169
21
57.300328
0
LINE
8
DEFAULT_255_2_778
10
2.9498169
20
36.378128
11
3.0498169
21
36.378128
0
LINE
8
DEFAULT_255_2_778
10
3.0498169
20
36.378128
11
3.0498169
21
33.332528
0
LINE
8
DEFAULT_255_2_778
10
3.0498169
20
33.332528
11
1.9494169
21
33.332528
0
LINE
8
DEFAULT_255_2_778
10
4.8241169
20
32.910028
11
3.7507169
21
32.891228
0
LINE
8
DEFAULT_255_2_778
10
3.7507169
20
32.891228
11
3.7507169
21
33.390728
0
LINE
8
DEFAULT_255_2_778
10
3.7507169
20
33.390728
11
3.7507169
21
33.528628
0
LINE
8
DEFAULT_255_2_778
10
4.8241169
20
34.009328
11
3.7507169
21
34.028128
0
LINE
8
DEFAULT_255_2_778
10
3.7507169
20
34.028128
11
3.7507169
21
34.590628
0
LINE
8
DEFAULT_255_2_778
10
4.8241169
20
34.609428
11
3.7507169
21
34.590628
0
LINE
8
DEFAULT_255_2_778
10
3.7507169
20
34.590628
11
3.7507169
21
35.090428
0
LINE
8
DEFAULT_255_2_778
10
3.7507169
20
35.090428
11
3.7507169
21
37.682028
0
LINE
8
DEFAULT_255_2_778
10
2.8000169
20
25.212728
11
2.8000169
21
23.753628
0
LINE
8
DEFAULT_255_2_778
10
2.8000169
20
23.753628
11
1.9494169
21
23.753628
0
LINE
8
DEFAULT_255_2_778
10
1.9494169
20
23.753628
11
1.9494169
21
25.212728
0
LINE
8
DEFAULT_255_2_778
10
1.9494169
20
25.212728
11
1.9494169
21
28.211528
0
LINE
8
DEFAULT_255_2_778
10
1.9494169
20
28.211528
11
1.9494169
21
28.851328
0
LINE
8
DEFAULT_255_2_778
10
1.9494169
20
28.851328
11
3.7507169
21
28.851328
0
LINE
8
DEFAULT_255_2_778
10
3.7507169
20
28.851328
11
3.7507169
21
32.891228
0
LINE
8
DEFAULT_255_2_778
10
2.8000169
20
20.864328
11
2.8500169
21
20.864328
0
LINE
8
DEFAULT_255_2_778
10
2.8500169
20
20.864328
11
2.8500169
21
22.953228
0
LINE
8
DEFAULT_255_2_778
10
2.8500169
20
22.953228
11
2.8000169
21
22.953228
0
LINE
8
DEFAULT_255_2_778
10
1.9494169
20
22.953228
11
2.8000169
21
22.953228
0
LINE
8
DEFAULT_255_2_778
10
2.8000169
20
22.953228
11
2.8000169
21
20.864328
0
LINE
8
DEFAULT_255_2_778
10
2.8000169
20
20.864328
11
1.9494169
21
20.864328
0
LINE
8
DEFAULT_255_2_778
10
4.4513169
20
17.865528
11
4.4513169
21
20.864028
0
LINE
8
DEFAULT_255_2_778
10
4.4513169
20
20.864028
11
3.7507169
21
20.864028
0
LINE
8
DEFAULT_255_2_778
10
3.7507169
20
20.864028
11
2.8500169
21
20.864028
0
LINE
8
DEFAULT_255_2_778
10
4.4513169
20
9.168428
11
1.9494169
21
9.168428
0
LINE
8
DEFAULT_255_2_778
10
1.9494169
20
9.168428
11
1.9494169
21
10.015128
0
LINE
8
DEFAULT_255_2_778
10
4.4513169
20
9.671928
11
4.4513169
21
10.015128
0
LINE
8
DEFAULT_255_2_778
10
4.4513169
20
10.015128
11
1.9494169
21
10.015128
0
LINE
8
DEFAULT_255_2_778
10
1.9494169
20
10.015128
11
1.9494169
21
17.865028
0
LINE
8
DEFAULT_255_2_778
10
1.9494169
20
17.865028
11
1.9494169
21
20.863828
0
LINE
8
DEFAULT_255_2_778
10
1.9494169
20
20.863828
11
1.9494169
21
22.952728
0
LINE
8
DEFAULT_255_2_778
10
1.9494169
20
22.952728
11
1.9494169
21
23.752828
0
LINE
8
DEFAULT_255_2_778
10
1.9494169
20
17.864728
11
4.4513169
21
17.864728
0
LINE
8
DEFAULT_255_2_778
10
4.4513169
20
17.864728
11
4.4513169
21
11.036428
0
LINE
8
DEFAULT_255_2_778
10
4.4513169
20
11.036428
11
4.8241169
21
11.016828
0
LINE
8
DEFAULT_255_2_778
10
4.2261169
20
47.207528
11
4.3238169
21
47.207528
0
LINE
8
DEFAULT_255_2_778
10
4.1261169
20
47.207528
11
4.2261169
21
47.207528
0
LINE
8
DEFAULT_255_2_778
10
4.2261169
20
47.207528
11
4.2261169
21
47.770328
0
LINE
8
DEFAULT_255_2_778
10
3.9261169
20
47.207528
11
3.7509169
21
47.207528
0
LINE
8
DEFAULT_255_2_778
10
3.7509169
20
47.207528
11
3.7509169
21
48.699028
0
LINE
8
DEFAULT_255_2_778
10
4.2264169
20
44.700628
11
4.3240169
21
44.700628
0
LINE
8
DEFAULT_255_2_778
10
4.3240169
20
46.699828
11
4.3240169
21
47.207528
0
LINE
8
DEFAULT_255_2_778
10
4.3240169
20
47.207528
11
4.3240169
21
48.066928
0
LINE
8
DEFAULT_255_2_778
10
4.3240169
20
48.066928
11
4.3240169
21
48.368328
0
LINE
8
DEFAULT_255_2_778
10
4.3240169
20
48.368328
11
4.3240169
21
48.452428
0
LINE
8
DEFAULT_255_2_778
10
4.3240169
20
48.452428
11
4.3240169
21
48.698728
0
LINE
8
DEFAULT_255_2_778
10
4.3240169
20
48.698728
11
4.3240169
21
49.206528
0
LINE
8
DEFAULT_255_2_778
10
4.3240169
20
49.206528
11
3.7512169
21
49.206528
0
LINE
8
DEFAULT_255_2_778
10
3.7512169
20
49.206528
11
3.7512169
21
48.698728
0
LINE
8
DEFAULT_255_2_778
10
3.7512169
20
48.698728
11
4.3240169
21
48.698728
0
LINE
8
DEFAULT_255_2_778
10
4.2264169
20
46.699528
11
4.3240169
21
46.699528
0
LINE
8
DEFAULT_255_2_778
10
4.3240169
20
46.699528
11
4.3240169
21
45.208128
0
LINE
8
DEFAULT_255_2_778
10
4.3240169
20
45.208128
11
4.2264169
21
45.208128
0
LINE
8
DEFAULT_255_2_778
10
4.1264169
20
46.699528
11
4.2264169
21
46.699528
0
LINE
8
DEFAULT_255_2_778
10
4.2264169
20
46.699528
11
4.2264169
21
45.208128
0
LINE
8
DEFAULT_255_2_778
10
4.2264169
20
45.208128
11
4.1264169
21
45.208128
0
LINE
8
DEFAULT_255_2_778
10
3.7512169
20
42.701228
11
3.7512169
21
43.208928
0
LINE
8
DEFAULT_255_2_778
10
3.7512169
20
43.208928
11
4.3240169
21
43.208928
0
LINE
8
DEFAULT_255_2_778
10
4.3240169
20
43.208928
11
4.3240169
21
43.455228
0
LINE
8
DEFAULT_255_2_778
10
4.3240169
20
43.455228
11
4.3240169
21
43.539428
0
LINE
8
DEFAULT_255_2_778
10
4.3240169
20
43.539428
11
4.3240169
21
43.840728
0
LINE
8
DEFAULT_255_2_778
10
4.3240169
20
43.840728
11
4.3240169
21
44.700128
0
LINE
8
DEFAULT_255_2_778
10
4.3240169
20
44.700128
11
4.3240169
21
45.207828
0
LINE
8
DEFAULT_255_2_778
10
4.1264169
20
44.700128
11
4.2264169
21
44.700128
0
LINE
8
DEFAULT_255_2_778
10
4.2264169
20
44.700128
11
4.2264169
21
44.137328
0
LINE
8
DEFAULT_255_2_778
10
4.3240169
20
43.208628
11
4.3240169
21
42.700928
0
LINE
8
DEFAULT_255_2_778
10
4.3240169
20
42.700928
11
4.3240169
21
41.209428
0
LINE
8
DEFAULT_255_2_778
10
4.3240169
20
41.209428
11
3.7512169
21
41.209428
0
LINE
8
DEFAULT_255_2_778
10
3.7512169
20
41.209428
11
3.7512169
21
40.845628
0
LINE
8
DEFAULT_255_2_778
10
3.9263169
20
43.944428
11
3.9263169
21
44.700428
0
LINE
8
DEFAULT_255_2_778
10
3.9263169
20
44.700428
11
3.7512169
21
44.700428
0
LINE
8
DEFAULT_255_2_778
10
3.7512169
20
44.700428
11
3.7512169
21
43.208928
0
LINE
8
DEFAULT_255_2_778
10
4.3240169
20
49.206528
11
4.3240169
21
50.697928
0
LINE
8
DEFAULT_255_2_778
10
4.3240169
20
50.697928
11
4.3240169
21
51.205728
0
LINE
8
DEFAULT_255_2_778
10
4.1264169
20
47.970128
11
4.1264169
21
47.207328
0
LINE
8
DEFAULT_255_2_778
10
4.1264169
20
47.207328
11
3.9263169
21
47.207328
0
LINE
8
DEFAULT_255_2_778
10
3.9263169
20
47.207328
11
3.9263169
21
47.963228
0
LINE
8
DEFAULT_255_2_778
10
4.1264169
20
43.937328
11
4.1264169
21
44.700128
0
LINE
8
DEFAULT_255_2_778
10
4.1264169
20
44.700128
11
3.9263169
21
44.700128
0
LINE
8
DEFAULT_255_2_778
10
4.8246169
20
39.778828
11
4.3243169
21
39.796328
0
LINE
8
DEFAULT_255_2_778
10
4.3243169
20
39.796328
11
3.7515169
21
39.816428
0
LINE
8
DEFAULT_255_2_778
10
3.7515169
20
40.701728
11
4.3243169
21
40.701728
0
LINE
8
DEFAULT_255_2_778
10
4.3243169
20
40.701728
11
4.3243169
21
39.796328
0
LINE
8
DEFAULT_255_2_778
10
1.9499169
20
40.845628
11
3.7512169
21
40.845628
0
LINE
8
DEFAULT_255_2_778
10
3.7512169
20
40.845628
11
3.7512169
21
40.701728
0
LINE
8
DEFAULT_255_2_778
10
3.7512169
20
40.701728
11
3.7512169
21
39.816428
0
LINE
8
DEFAULT_255_2_778
10
3.7512169
20
39.816428
11
3.7512169
21
38.180828
0
LINE
8
DEFAULT_255_2_778
10
3.7512169
20
38.180828
11
2.9506169
21
38.180828
0
LINE
8
DEFAULT_255_2_778
10
1.9499169
20
39.716128
11
2.9506169
21
39.716128
0
LINE
8
DEFAULT_255_2_778
10
2.9506169
20
39.716128
11
2.9506169
21
38.180828
0
LINE
8
DEFAULT_255_2_778
10
2.9506169
20
38.180828
11
2.9506169
21
37.681028
0
LINE
8
DEFAULT_255_2_778
10
2.9506169
20
37.681028
11
3.0506169
21
37.681028
0
LINE
8
DEFAULT_255_2_778
10
3.0506169
20
37.681028
11
3.7512169
21
37.681028
0
LINE
8
DEFAULT_255_2_778
10
3.7512169
20
37.681028
11
3.7512169
21
38.180828
0
LINE
8
DEFAULT_255_2_778
10
3.6012169
20
58.339128
11
3.7512169
21
58.339128
0
LINE
8
DEFAULT_255_2_778
10
3.7512169
20
58.339128
11
3.7512169
21
57.880628
0
LINE
8
DEFAULT_255_2_778
10
3.7512169
20
57.880628
11
3.7512169
21
57.318128
0
LINE
8
DEFAULT_255_2_778
10
1.9499169
20
58.309228
11
1.9499169
21
54.110828
0
LINE
8
DEFAULT_255_2_778
10
1.9499169
20
54.110828
11
1.9499169
21
53.711028
0
LINE
8
DEFAULT_255_2_778
10
1.9499169
20
53.711028
11
1.9499169
21
40.845928
0
LINE
8
DEFAULT_255_2_778
10
1.9499169
20
40.845928
11
1.9499169
21
40.716028
0
LINE
8
DEFAULT_255_2_778
10
1.9499169
20
54.110828
11
3.6012169
21
54.110828
0
LINE
8
DEFAULT_255_2_778
10
3.6012169
20
54.110828
11
3.6012169
21
53.711028
0
LINE
8
DEFAULT_255_2_778
10
3.6012169
20
53.711028
11
1.9494169
21
53.711028
0
LINE
8
DEFAULT_255_2_778
10
1.9494169
20
58.709028
11
3.6006169
21
58.709028
0
LINE
8
DEFAULT_255_2_778
10
3.6006169
20
58.709028
11
3.6006169
21
58.339128
0
LINE
8
DEFAULT_255_2_778
10
3.6006169
20
58.339128
11
3.6006169
21
58.309228
0
LINE
8
DEFAULT_255_2_778
10
3.6006169
20
54.110828
11
3.6006169
21
58.309228
0
LINE
8
DEFAULT_255_2_778
10
3.6006169
20
58.309228
11
1.9494169
21
58.309228
0
LINE
8
DEFAULT_255_2_778
10
1.9494169
20
58.309228
11
1.9494169
21
58.709028
0
LINE
8
DEFAULT_255_2_778
10
1.9494169
20
58.709028
11
1.9494169
21
59.139228
0
LINE
8
DEFAULT_255_2_778
10
1.9494169
20
59.139228
11
1.9494169
21
63.436828
0
LINE
8
DEFAULT_255_2_778
10
1.9494169
20
63.436828
11
1.9494169
21
63.696928
0
LINE
8
DEFAULT_255_2_778
10
1.9494169
20
63.696928
11
1.9494169
21
66.695728
0
LINE
8
DEFAULT_255_2_778
10
1.9494169
20
66.695728
11
1.9494169
21
68.534528
0
LINE
8
DEFAULT_255_2_778
10
1.9494169
20
68.534528
11
2.8000169
21
68.534528
0
LINE
8
DEFAULT_255_2_778
10
2.8000169
20
68.534528
11
2.8500169
21
68.534528
0
LINE
8
DEFAULT_255_2_778
10
2.8500169
20
68.534528
11
2.8500169
21
66.695728
0
LINE
8
DEFAULT_255_2_778
10
2.8000169
20
23.752228
11
2.8500169
21
23.752228
0
LINE
8
DEFAULT_255_2_778
10
2.8500169
20
23.752228
11
2.8500169
21
25.211428
0
LINE
8
DEFAULT_255_2_778
10
2.6347169
20
28.210228
11
3.6004169
21
28.210228
0
LINE
8
DEFAULT_255_2_778
10
3.6004169
20
28.210228
11
3.6004169
21
25.211428
0
LINE
8
DEFAULT_255_2_778
10
3.6004169
20
25.211428
11
2.8498169
21
25.211428
0
LINE
8
DEFAULT_255_2_778
10
2.8498169
20
25.211428
11
2.7998169
21
25.211428
0
LINE
8
DEFAULT_255_2_778
10
2.7998169
20
25.211428
11
2.6344169
21
25.211428
0
LINE
8
DEFAULT_255_2_778
10
2.7995169
20
68.534528
11
2.7995169
21
66.695728
0
LINE
8
DEFAULT_255_2_778
10
2.6341169
20
66.695728
11
2.7995169
21
66.695728
0
LINE
8
DEFAULT_255_2_778
10
2.7995169
20
66.695728
11
2.8495169
21
66.695728
0
LINE
8
DEFAULT_255_2_778
10
2.8495169
20
66.695728
11
3.6001169
21
66.695728
0
LINE
8
DEFAULT_255_2_778
10
3.6001169
20
66.695728
11
3.6001169
21
63.696928
0
LINE
8
DEFAULT_255_2_778
10
3.6001169
20
63.696928
11
2.6344169
21
63.696928
0
LINE
8
DEFAULT_255_2_778
10
1.9491169
20
63.696928
11
2.6344169
21
63.696928
0
LINE
8
DEFAULT_255_2_778
10
2.6344169
20
63.696928
11
2.6344169
21
66.695728
0
LINE
8
DEFAULT_255_2_778
10
2.6344169
20
66.695728
11
1.9494169
21
66.695728
0
LINE
8
DEFAULT_255_2_778
10
1.9494169
20
28.210228
11
2.6347169
21
28.210228
0
LINE
8
DEFAULT_255_2_778
10
2.6347169
20
28.210228
11
2.6347169
21
25.211428
0
LINE
8
DEFAULT_255_2_778
10
2.6347169
20
25.211428
11
1.9494169
21
25.211428
0
LINE
8
DEFAULT_255_2_778
10
1.9494169
20
37.119028
11
1.9494169
21
39.716128
0
LINE
8
DEFAULT_255_2_778
10
1.9494169
20
39.716128
11
1.9494169
21
40.715728
0
LINE
8
DEFAULT_255_2_778
10
1.9494169
20
40.715728
11
2.9500169
21
40.715728
0
LINE
8
DEFAULT_255_2_778
10
2.9500169
20
40.715728
11
2.9500169
21
39.716128
0
LINE
8
DEFAULT_255_2_778
10
1.9494169
20
28.850228
11
1.9494169
21
33.331528
0
LINE
8
DEFAULT_255_2_778
10
1.9494169
20
33.331528
11
1.9494169
21
35.119828
0
LINE
8
DEFAULT_255_2_778
10
1.9494169
20
35.119828
11
1.9494169
21
37.119028
0
LINE
8
DEFAULT_255_2_778
10
1.9494169
20
37.119028
11
2.9500169
21
37.119028
0
LINE
8
DEFAULT_255_2_778
10
2.9500169
20
37.119028
11
2.9500169
21
37.248128
0
LINE
8
DEFAULT_255_2_778
10
2.9500169
20
37.248128
11
2.9500169
21
37.681028
0
LINE
8
DEFAULT_255_2_778
10
1.9494169
20
35.119828
11
2.9500169
21
35.119828
0
LINE
8
DEFAULT_255_2_778
10
2.9500169
20
35.119828
11
2.9500169
21
37.119028
0
ENDSEC
0
EOF