0
SECTION
2
HEADER
9
$MEASUREMENT
70
1
0
ENDSEC
0
SECTION
2
TABLES
0
TABLE
2
LTYPE
0
LTYPE
72
65
70
64
2
CONTINUOUS
3
______
73
0
40
0
0
ENDTAB
0
TABLE
2
LAYER
0
LAYER
2
DEFAULT_255_2_778
70
0
62
255
6
CONTINUOUS
0
ENDTAB
0
ENDSEC
0
SECTION
2
ENTITIES
0
LINE
8
DEFAULT_255_2_778
10
1.9666667
20
20.9969744
11
4.4587667
21
20.9969744
0
LINE
8
DEFAULT_255_2_778
10
4.4587667
20
20.9969744
11
4.4587667
21
17.9224744
0
LINE
8
DEFAULT_255_2_778
10
4.4587667
20
17.9224744
11
1.9666667
21
17.9224744
0
LINE
8
DEFAULT_255_2_778
10
1.9666667
20
17.9224744
11
1.9666667
21
50.1021744
0
LINE
8
DEFAULT_255_2_778
10
0.4267667
20
50.1688744
11
0.4267667
21
8.4303744
0
LINE
8
DEFAULT_255_2_778
10
5.8271667
20
48.5702744
11
6.3280667
21
48.5877744
0
LINE
8
DEFAULT_255_2_778
10
0.4215209
20
9.2258432
11
6.3281209
21
9.2258432
0
LINE
8
DEFAULT_255_2_778
10
5.8272209
20
48.3474432
11
6.3281209
21
48.3561432
0
ARC
8
DEFAULT_255_2_778
10
4.2186615
20
42.2231869
40
1.4890104
50
331.5841893
51
0.0088193
0
ARC
8
DEFAULT_255_2_778
10
4.2186615
20
42.2236453
40
1.4890104
50
359.9911807
51
28.4158107
0
ARC
8
DEFAULT_255_2_778
10
4.2183352
20
46.0315119
40
1.4892617
50
331.5927043
51
0.007859
0
ARC
8
DEFAULT_255_2_778
10
4.2183353
20
46.0319204
40
1.4892617
50
359.9921403
51
28.407296
0
LINE
8
DEFAULT_255_2_778
10
4.4587719
20
17.9228161
11
4.4587719
21
10.0728161
0
LINE
8
DEFAULT_255_2_778
10
4.4587719
20
10.0728161
11
1.9666719
21
10.0728161
0
LINE
8
DEFAULT_255_2_778
10
1.9666719
20
10.0728161
11
1.9666719
21
17.9228161
0
LINE
8
DEFAULT_255_2_778
10
1.9666719
20
9.2262161
11
1.9666719
21
10.0728161
0
LINE
8
DEFAULT_255_2_778
10
1.9666719
20
28.9083161
11
3.7610719
21
28.9083161
0
LINE
8
DEFAULT_255_2_778
10
3.7610719
20
28.9083161
11
3.7610719
21
37.7390161
0
LINE
8
DEFAULT_255_2_778
10
3.7610719
20
37.7390161
11
3.0633719
21
37.7390161
0
LINE
8
DEFAULT_255_2_778
10
3.0633719
20
37.7390161
11
3.0633719
21
33.3895161
0
LINE
8
DEFAULT_255_2_778
10
3.0633719
20
33.3895161
11
1.9666719
21
33.3895161
0
LINE
8
DEFAULT_255_2_778
10
6.3283719
20
40.5441161
11
5.5282719
21
40.5441161
0
LINE
8
DEFAULT_255_2_778
10
5.5282719
20
40.5441161
11
5.5282719
21
41.5146161
0
LINE
8
DEFAULT_255_2_778
10
5.5282719
20
42.9322161
11
5.5282719
21
43.9027161
0
LINE
8
DEFAULT_255_2_778
10
5.5282719
20
43.9027161
11
6.3283719
21
43.9027161
0
LINE
8
DEFAULT_255_2_778
10
6.3283719
20
44.3525161
11
5.5282719
21
44.3525161
0
LINE
8
DEFAULT_255_2_778
10
5.5282719
20
44.3525161
11
5.5282719
21
45.3230161
0
LINE
8
DEFAULT_255_2_778
10
5.5282719
20
46.7404161
11
5.5282719
21
47.7114161
0
LINE
8
DEFAULT_255_2_778
10
5.5282719
20
47.7114161
11
6.3283719
21
47.7114161
0
ARC
8
DEFAULT_255_2_778
10
4.2188813
20
23.1808685
40
1.4887687
50
359.992673
51
28.4181655
0
ARC
8
DEFAULT_255_2_778
10
4.2188814
20
23.1804877
40
1.4887686
50
331.5818327
51
0.007327
0
LINE
8
DEFAULT_255_2_778
10
6.32835
20
24.8598781
11
5.52825
21
24.8598781
0
LINE
8
DEFAULT_255_2_778
10
5.52825
20
24.8598781
11
5.52825
21
23.8893781
0
LINE
8
DEFAULT_255_2_778
10
5.52825
20
22.4719781
11
5.52825
21
21.5014781
0
LINE
8
DEFAULT_255_2_778
10
5.52825
20
21.5014781
11
6.32835
21
21.5014781
0
ARC
8
DEFAULT_255_2_778
10
4.2188813
20
19.3724685
40
1.4887687
50
359.992673
51
28.4181655
0
ARC
8
DEFAULT_255_2_778
10
4.2188814
20
19.3720877
40
1.4887686
50
331.5818327
51
0.007327
0
LINE
8
DEFAULT_255_2_778
10
6.32835
20
21.0514781
11
5.52825
21
21.0514781
0
LINE
8
DEFAULT_255_2_778
10
5.52825
20
21.0514781
11
5.52825
21
20.0809781
0
LINE
8
DEFAULT_255_2_778
10
5.52825
20
18.6635781
11
5.52825
21
17.6930781
0
LINE
8
DEFAULT_255_2_778
10
5.52825
20
17.6930781
11
6.32835
21
17.6930781
0
ARC
8
DEFAULT_255_2_778
10
4.2188813
20
38.4152685
40
1.4887687
50
359.992673
51
28.4181655
0
ARC
8
DEFAULT_255_2_778
10
4.2188814
20
38.4148877
40
1.4887686
50
331.5818327
51
0.007327
0
LINE
8
DEFAULT_255_2_778
10
6.32835
20
40.0942781
11
5.52825
21
40.0942781
0
LINE
8
DEFAULT_255_2_778
10
5.52825
20
40.0942781
11
5.52825
21
39.1237781
0
LINE
8
DEFAULT_255_2_778
10
5.52825
20
37.7063781
11
5.52825
21
36.7358781
0
LINE
8
DEFAULT_255_2_778
10
5.52825
20
36.7358781
11
6.32835
21
36.7358781
0
ARC
8
DEFAULT_255_2_778
10
4.2188813
20
34.6065685
40
1.4887687
50
359.992673
51
28.4181655
0
ARC
8
DEFAULT_255_2_778
10
4.2188814
20
34.6061877
40
1.4887686
50
331.5818327
51
0.007327
0
LINE
8
DEFAULT_255_2_778
10
6.32835
20
36.2855781
11
5.52825
21
36.2855781
0
LINE
8
DEFAULT_255_2_778
10
5.52825
20
36.2855781
11
5.52825
21
35.3150781
0
LINE
8
DEFAULT_255_2_778
10
5.52825
20
33.8976781
11
5.52825
21
32.9271781
0
LINE
8
DEFAULT_255_2_778
10
5.52825
20
32.9271781
11
6.32835
21
32.9271781
0
ARC
8
DEFAULT_255_2_778
10
4.2188813
20
30.7981685
40
1.4887687
50
359.992673
51
28.4181655
0
ARC
8
DEFAULT_255_2_778
10
4.2188814
20
30.7977877
40
1.4887686
50
331.5818327
51
0.007327
0
LINE
8
DEFAULT_255_2_778
10
6.32835
20
32.4771781
11
5.52825
21
32.4771781
0
LINE
8
DEFAULT_255_2_778
10
5.52825
20
32.4771781
11
5.52825
21
31.5066781
0
LINE
8
DEFAULT_255_2_778
10
5.52825
20
30.0892781
11
5.52825
21
29.1187781
0
LINE
8
DEFAULT_255_2_778
10
5.52825
20
29.1187781
11
6.32835
21
29.1187781
0
ARC
8
DEFAULT_255_2_778
10
4.2188813
20
26.9895685
40
1.4887687
50
359.992673
51
28.4181655
0
ARC
8
DEFAULT_255_2_778
10
4.2188814
20
26.9891877
40
1.4887686
50
331.5818327
51
0.007327
0
LINE
8
DEFAULT_255_2_778
10
6.32835
20
28.6685781
11
5.52825
21
28.6685781
0
LINE
8
DEFAULT_255_2_778
10
5.52825
20
28.6685781
11
5.52825
21
27.6980781
0
LINE
8
DEFAULT_255_2_778
10
5.52825
20
26.2806781
11
5.52825
21
25.3101781
0
LINE
8
DEFAULT_255_2_778
10
5.52825
20
25.3101781
11
6.32835
21
25.3101781
0
LINE
8
DEFAULT_255_2_778
10
6.3279969
20
9.455814
11
4.8301969
21
9.455814
0
LINE
8
DEFAULT_255_2_778
10
4.8301969
20
9.455814
11
4.8301969
21
48.331014
0
LINE
8
DEFAULT_255_2_778
10
4.8301969
20
48.331014
11
6.3279969
21
48.331014
0
ARC
8
DEFAULT_255_2_778
10
4.2188813
20
15.5637685
40
1.4887687
50
359.992673
51
28.4181655
0
ARC
8
DEFAULT_255_2_778
10
4.2188814
20
15.5633877
40
1.4887686
50
331.5818327
51
0.007327
0
LINE
8
DEFAULT_255_2_778
10
6.32835
20
17.2427781
11
5.52825
21
17.2427781
0
LINE
8
DEFAULT_255_2_778
10
5.52825
20
17.2427781
11
5.52825
21
16.2722781
0
LINE
8
DEFAULT_255_2_778
10
5.52825
20
14.8548781
11
5.52825
21
13.8843781
0
LINE
8
DEFAULT_255_2_778
10
5.52825
20
13.8843781
11
6.32835
21
13.8843781
0
ARC
8
DEFAULT_255_2_778
10
4.2188815
20
11.7553534
40
1.4887686
50
359.9926705
51
28.4181663
0
ARC
8
DEFAULT_255_2_778
10
4.2188816
20
11.7549725
40
1.4887684
50
331.5818316
51
0.0073302
0
LINE
8
DEFAULT_255_2_778
10
6.32835
20
13.434363
11
5.52825
21
13.434363
0
LINE
8
DEFAULT_255_2_778
10
5.52825
20
13.434363
11
5.52825
21
12.463863
0
LINE
8
DEFAULT_255_2_778
10
5.52825
20
11.046463
11
5.52825
21
10.075463
0
LINE
8
DEFAULT_255_2_778
10
5.52825
20
10.075463
11
6.32835
21
10.075463
0
LINE
8
DEFAULT_255_2_778
10
5.82725
20
48.331263
11
5.82725
21
49.310763
0
LINE
8
DEFAULT_255_2_778
10
6.32805
20
48.756963
11
5.82725
21
48.756963
0
LINE
8
DEFAULT_255_2_778
10
6.3279792
20
49.2647571
11
5.8271792
21
49.2647571
0
LINE
8
DEFAULT_255_2_778
10
2.9635792
20
38.2390571
11
3.7610792
21
38.2390571
0
LINE
8
DEFAULT_255_2_778
10
3.7610792
20
38.2390571
11
3.7610792
21
37.7392571
0
LINE
8
DEFAULT_255_2_778
10
1.966625
20
39.774375
11
2.963525
21
39.774375
0
LINE
8
DEFAULT_255_2_778
10
2.963525
20
39.774375
11
2.963525
21
37.177275
0
LINE
8
DEFAULT_255_2_778
10
2.963525
20
37.177275
11
1.966625
21
37.177275
0
LINE
8
DEFAULT_255_2_778
10
2.9635073
20
37.1772592
11
2.9635073
21
35.1780592
0
LINE
8
DEFAULT_255_2_778
10
2.9635073
20
35.1780592
11
1.9666073
21
35.1780592
0
LINE
8
DEFAULT_255_2_778
10
1.9666073
20
40.7739592
11
2.9635073
21
40.7739592
0
LINE
8
DEFAULT_255_2_778
10
2.9635073
20
40.7739592
11
2.9635073
21
39.7743592
0
LINE
8
DEFAULT_255_2_778
10
3.7610073
20
39.8746592
11
4.8302073
21
39.8370592
0
LINE
8
DEFAULT_255_2_778
10
1.9666073
20
40.9038592
11
3.7610073
21
40.9038592
0
LINE
8
DEFAULT_255_2_778
10
3.7610073
20
40.9038592
11
3.7610073
21
49.3107592
0
LINE
8
DEFAULT_255_2_778
10
3.7610073
20
38.2389592
11
3.7610073
21
40.9038592
0
LINE
8
DEFAULT_255_2_778
10
4.3317469
20
39.854604
11
4.3317469
21
49.310804
0
LINE
8
DEFAULT_255_2_778
10
4.3317469
20
42.759204
11
3.7610469
21
42.759204
0
LINE
8
DEFAULT_255_2_778
10
4.3317448
20
43.2671986
11
3.7610448
21
43.2671986
0
LINE
8
DEFAULT_255_2_778
10
4.3317448
20
48.7570986
11
3.7610448
21
48.7570986
0
LINE
8
DEFAULT_255_2_778
10
4.3317448
20
49.2647986
11
3.7610448
21
49.2647986
0
LINE
8
DEFAULT_255_2_778
10
4.3317448
20
41.2677986
11
3.7610448
21
41.2677986
0
LINE
8
DEFAULT_255_2_778
10
4.3317448
20
40.7599986
11
3.7610448
21
40.7599986
0
LINE
8
DEFAULT_255_2_778
10
1.9666448
20
25.2699986
11
2.6495448
21
25.2699986
0
LINE
8
DEFAULT_255_2_778
10
2.6495448
20
25.2699986
11
2.6495448
21
28.2687986
0
LINE
8
DEFAULT_255_2_778
10
2.6495448
20
28.2687986
11
1.9666448
21
28.2687986
0
LINE
8
DEFAULT_255_2_778
10
2.6495427
20
25.2699395
11
3.6115427
21
25.2699395
0
LINE
8
DEFAULT_255_2_778
10
3.6115427
20
25.2699395
11
3.6115427
21
28.2687395
0
LINE
8
DEFAULT_255_2_778
10
3.6115427
20
28.2687395
11
2.6495427
21
28.2687395
0
LINE
8
DEFAULT_255_2_778
10
1.9666427
20
23.0104395
11
2.8141427
21
23.0104395
0
LINE
8
DEFAULT_255_2_778
10
2.8141427
20
23.0104395
11
2.8141427
21
20.9212395
0
LINE
8
DEFAULT_255_2_778
10
2.8140979
20
25.2699884
11
2.8140979
21
23.8107884
0
LINE
8
DEFAULT_255_2_778
10
2.8140979
20
23.8107884
11
2.8637979
21
23.8107884
0
LINE
8
DEFAULT_255_2_778
10
2.8637979
20
23.8107884
11
2.8637979
21
25.2699884
0
LINE
8
DEFAULT_255_2_778
10
2.8140979
20
23.8107884
11
1.9665979
21
23.8107884
0
LINE
8
DEFAULT_255_2_778
10
3.7609979
20
20.9214884
11
3.7609979
21
28.9084884
0
LINE
8
DEFAULT_255_2_778
10
13.8048633
20
15.0786958
11
15.7987633
21
15.0786958
0
LINE
8
DEFAULT_255_2_778
10
15.7987633
20
15.0786958
11
15.7987633
21
17.0778958
0
LINE
8
DEFAULT_255_2_778
10
15.7987633
20
17.0778958
11
13.8051633
21
17.0778958
0
LINE
8
DEFAULT_255_2_778
10
13.8051633
20
17.0778958
11
13.8048633
21
15.0786958
0
LINE
8
DEFAULT_255_2_778
10
13.8048633
20
22.6957958
11
15.7987633
21
22.6957958
0
LINE
8
DEFAULT_255_2_778
10
15.7987633
20
22.6957958
11
15.7987633
21
24.6949958
0
LINE
8
DEFAULT_255_2_778
10
15.7987633
20
24.6949958
11
13.8051633
21
24.6949958
0
LINE
8
DEFAULT_255_2_778
10
13.8051633
20
24.6949958
11
13.8048633
21
22.6957958
0
LINE
8
DEFAULT_255_2_778
10
13.8048633
20
34.1215958
11
15.7987633
21
34.1215958
0
LINE
8
DEFAULT_255_2_778
10
15.7987633
20
34.1215958
11
15.7987633
21
36.1207958
0
LINE
8
DEFAULT_255_2_778
10
15.7987633
20
36.1207958
11
13.8051633
21
36.1207958
0
LINE
8
DEFAULT_255_2_778
10
13.8051633
20
36.1207958
11
13.8048633
21
34.1215958
0
LINE
8
DEFAULT_255_2_778
10
13.8048633
20
37.9299958
11
15.7987633
21
37.9299958
0
LINE
8
DEFAULT_255_2_778
10
15.7987633
20
37.9299958
11
15.7987633
21
39.9291958
0
LINE
8
DEFAULT_255_2_778
10
15.7987633
20
39.9291958
11
13.8051633
21
39.9291958
0
LINE
8
DEFAULT_255_2_778
10
13.8051633
20
39.9291958
11
13.8048633
21
37.9299958
0
LINE
8
DEFAULT_255_2_778
10
13.8048633
20
41.7386958
11
15.7987633
21
41.7386958
0
LINE
8
DEFAULT_255_2_778
10
15.7987633
20
41.7386958
11
15.7987633
21
43.7378958
0
LINE
8
DEFAULT_255_2_778
10
15.7987633
20
43.7378958
11
13.8051633
21
43.7378958
0
LINE
8
DEFAULT_255_2_778
10
13.8051633
20
43.7378958
11
13.8048633
21
41.7386958
0
LINE
8
DEFAULT_255_2_778
10
13.8048633
20
30.3128958
11
15.7987633
21
30.3128958
0
LINE
8
DEFAULT_255_2_778
10
15.7987633
20
30.3128958
11
15.7987633
21
32.3120958
0
LINE
8
DEFAULT_255_2_778
10
15.7987633
20
32.3120958
11
13.8051633
21
32.3120958
0
LINE
8
DEFAULT_255_2_778
10
13.8051633
20
32.3120958
11
13.8048633
21
30.3128958
0
LINE
8
DEFAULT_255_2_778
10
13.8048633
20
18.8873958
11
15.7987633
21
18.8873958
0
LINE
8
DEFAULT_255_2_778
10
15.7987633
20
18.8873958
11
15.7987633
21
20.8865958
0
LINE
8
DEFAULT_255_2_778
10
15.7987633
20
20.8865958
11
13.8051633
21
20.8865958
0
LINE
8
DEFAULT_255_2_778
10
13.8051633
20
20.8865958
11
13.8048633
21
18.8873958
0
LINE
8
DEFAULT_255_2_778
10
13.8048633
20
11.2702958
11
15.7987633
21
11.2702958
0
LINE
8
DEFAULT_255_2_778
10
15.7987633
20
11.2702958
11
15.7987633
21
13.2694958
0
LINE
8
DEFAULT_255_2_778
10
15.7987633
20
13.2694958
11
13.8051633
21
13.2694958
0
LINE
8
DEFAULT_255_2_778
10
13.8051633
20
13.2694958
11
13.8048633
21
11.2702958
0
ARC
8
DEFAULT_255_2_778
10
4.4661259
20
90.9485863
40
1.2380106
50
89.9137382
51
124.8294452
0
ARC
8
DEFAULT_255_2_778
10
4.4710244
20
90.9386931
40
1.2489302
50
124.7546914
51
173.7216621
0
ARC
8
DEFAULT_255_2_778
10
4.4886489
20
90.9376893
40
1.2665592
50
173.7637174
51
180.0107362
0
LINE
8
DEFAULT_255_2_778
10
3.2220897
20
90.937452
11
3.2220898
21
90.9368956
0
LINE
8
DEFAULT_255_2_778
10
14.4366898
20
90.9368956
11
14.4366899
21
90.9372668
0
ARC
8
DEFAULT_255_2_778
10
13.1906397
20
90.9394075
40
1.246052
50
359.9015673
51
33.9325764
0
ARC
8
DEFAULT_255_2_778
10
13.1906026
20
90.9421276
40
1.2445665
50
33.8277237
51
84.4746738
0
ARC
8
DEFAULT_255_2_778
10
13.1909753
20
90.9284342
40
1.2581614
50
84.5516105
51
90.0084466
0
ARC
8
DEFAULT_255_2_778
10
4.7832269
20
90.9390827
40
1.1129387
50
180.0000088
51
180.0971511
0
ARC
8
DEFAULT_255_2_778
10
4.7677572
20
90.9391087
40
1.097469
50
135.0694201
51
180.001365
0
ARC
8
DEFAULT_255_2_778
10
4.7682051
20
90.9387737
40
1.0980226
50
90.0634126
51
135.0735502
0
ARC
8
DEFAULT_255_2_778
10
0.4685666
20
2.6154455
40
0.0764711
50
178.0044836
51
194.9672372
0
ARC
8
DEFAULT_255_2_778
10
2.8549954
20
2.7393693
40
2.4658371
50
181.2002099
51
182.8187361
0
ARC
8
DEFAULT_255_2_778
10
10.7051933
20
2.9283846
40
10.3183012
50
180.646095
51
181.3364929
0
ARC
8
DEFAULT_255_2_778
10
22.6754034
20
3.0721706
40
22.2893733
50
180.139089
51
180.6687101
0
ARC
8
DEFAULT_255_2_778
10
28.3763377
20
3.0950949
40
27.9903479
50
179.9991799
51
180.1576857
0
ARC
8
DEFAULT_255_2_778
10
0.18789
20
7.3521301
40
0.1925524
50
350.8455194
51
359.2722839
0
ARC
8
DEFAULT_255_2_778
10
-2.6629461
20
7.4842525
40
3.0463466
50
357.4682179
51
358.8233003
0
ARC
8
DEFAULT_255_2_778
10
-11.4637705
20
7.6816982
40
11.8493815
50
358.7426869
51
359.4551701
0
ARC
8
DEFAULT_255_2_778
10
-24.1604161
20
7.8132435
40
24.5467063
50
359.4299428
51
0.0119081
0
LINE
8
DEFAULT_255_2_778
10
0.3862897
20
7.8183452
11
0.3862898
21
7.8204956
0
ARC
8
DEFAULT_255_2_778
10
17.3095909
20
86.5428263
40
0.0422573
50
150.5611062
51
183.0238696
0
ARC
8
DEFAULT_255_2_778
10
18.5669036
20
86.4064476
40
1.3064171
50
174.1061873
51
177.2613929
0
ARC
8
DEFAULT_255_2_778
10
23.3014305
20
86.1488727
40
6.0479232
50
176.9670718
51
178.0960267
0
ARC
8
DEFAULT_255_2_778
10
32.2084733
20
85.8369215
40
14.9604214
50
178.0353353
51
178.5680282
0
ARC
8
DEFAULT_255_2_778
10
46.6894286
20
85.4741528
40
29.4459199
50
178.5665182
51
179.0082637
0
ARC
8
DEFAULT_255_2_778
10
68.7772052
20
85.0852788
40
51.537119
50
179.0010195
51
179.3302917
0
ARC
8
DEFAULT_255_2_778
10
95.1296257
20
84.7729693
40
77.8913898
50
179.3271493
51
179.6110327
0
ARC
8
DEFAULT_255_2_778
10
117.3455648
20
84.6145459
40
100.1078926
50
179.6066817
51
179.8106377
0
ARC
8
DEFAULT_255_2_778
10
131.0015816
20
84.5670278
40
113.7639918
50
179.8094366
51
180.0012753
0
ARC
8
DEFAULT_255_2_778
10
2.8728607
20
86.4401414
40
0.2486544
50
90.0117014
51
150.1523564
0
LINE
8
DEFAULT_255_2_778
10
2.8728099
20
86.6887957
11
2.8730898
21
86.6887956
0
ARC
8
DEFAULT_255_2_778
10
14.786119
20
86.4401414
40
0.2486544
50
29.8476436
51
89.9882986
0
LINE
8
DEFAULT_255_2_778
10
14.7861698
20
86.6887957
11
14.7858898
21
86.6887956
0
ARC
8
DEFAULT_255_2_778
10
1.1807427
20
83.4403061
40
0.999553
50
142.6371397
51
180.0177983
0
ARC
8
DEFAULT_255_2_778
10
8.1550586
20
88.4451011
40
1.9925949
50
32.1724104
51
89.9645958
0
ARC
8
DEFAULT_255_2_778
10
8.153679
20
88.4406978
40
1.7468997
50
32.3169898
51
89.9143697
0
ARC
8
DEFAULT_255_2_778
10
3.5835571
20
90.9377462
40
1.6076675
50
179.989895
51
180.0303153
0
ARC
8
DEFAULT_255_2_778
10
4.4777149
20
90.9381107
40
2.5018254
50
135.0994335
51
180.0018537
0
ARC
8
DEFAULT_255_2_778
10
4.4682248
20
90.9482484
40
2.4879472
50
90.0054106
51
135.110533
0
ARC
8
DEFAULT_255_2_778
10
13.1899467
20
90.9460638
40
2.4901319
50
44.9200918
51
89.9805996
0
ARC
8
DEFAULT_255_2_778
10
13.1818371
20
90.9387297
40
2.501053
50
359.9822007
51
44.9078798
0
LINE
8
DEFAULT_255_2_778
10
15.6828899
20
90.9379527
11
15.6828898
21
90.9371956
0
ARC
8
DEFAULT_255_2_778
10
2.1752262
20
88.4336771
40
2.0037185
50
90.0124784
51
95.726656
0
ARC
8
DEFAULT_255_2_778
10
2.1749282
20
88.4461044
40
1.9913238
50
95.7538026
51
147.7672831
0
ARC
8
DEFAULT_255_2_778
10
0.3035548
20
84.545868
40
0.0765735
50
358.0567073
51
15.0843423
0
ARC
8
DEFAULT_255_2_778
10
-2.0422109
20
84.4223611
40
2.425311
50
1.2115291
51
2.8575801
0
ARC
8
DEFAULT_255_2_778
10
-9.7839965
20
84.2341163
40
10.1693756
50
0.6494121
51
1.3496423
0
ARC
8
DEFAULT_255_2_778
10
-21.7469799
20
84.0897412
40
22.1332287
50
0.1389623
51
0.6721297
0
ARC
8
DEFAULT_255_2_778
10
-27.5961978
20
84.0663997
40
27.9824876
50
359.9991726
51
0.1577078
0
ARC
8
DEFAULT_255_2_778
10
2.1759913
20
88.4447729
40
1.7436229
50
90.0296231
51
147.8160194
0
ARC
8
DEFAULT_255_2_778
10
2.177639
20
88.4362554
40
0.5025466
50
90.2906309
51
147.8208855
0
ARC
8
DEFAULT_255_2_778
10
8.1548338
20
88.4384756
40
0.4990204
50
32.05139
51
89.9246823
0
ARC
8
DEFAULT_255_2_778
10
8.1560065
20
88.9457667
40
1.990929
50
90.0148704
51
131.4995109
0
ARC
8
DEFAULT_255_2_778
10
9.5041402
20
88.9256944
40
1.986418
50
288.9553216
51
314.6460596
0
ARC
8
DEFAULT_255_2_778
10
9.4920792
20
88.9376144
40
2.003374
50
314.6519079
51
359.9621424
0
ARC
8
DEFAULT_255_2_778
10
9.4866683
20
88.9360548
40
2.0087845
50
0.0067273
51
7.6753976
0
ARC
8
DEFAULT_255_2_778
10
9.4673584
20
88.9337367
40
2.0282311
50
7.6674405
51
9.4457058
0
ARC
8
DEFAULT_255_2_778
10
9.4980784
20
88.9403059
40
1.9968501
50
9.4044284
51
36.6089735
0
ARC
8
DEFAULT_255_2_778
10
9.5007031
20
88.9442309
40
1.992403
50
36.5633798
51
83.6642404
0
ARC
8
DEFAULT_255_2_778
10
9.5022384
20
88.9363851
40
2.0000329
50
83.7327569
51
89.72924
0
ARC
8
DEFAULT_255_2_778
10
9.6528618
20
88.9534231
40
1.9829734
50
63.1348834
51
90.0569795
0
ARC
8
DEFAULT_255_2_778
10
9.6452397
20
88.9388541
40
1.9994146
50
15.5760556
51
63.1286962
0
ARC
8
DEFAULT_255_2_778
10
9.6292106
20
88.9359253
40
2.0156418
50
7.2155676
51
15.5339043
0
ARC
8
DEFAULT_255_2_778
10
9.6264916
20
88.9345868
40
2.0185077
50
0.9646529
51
7.2435676
0
ARC
8
DEFAULT_255_2_778
10
9.6411561
20
88.9350603
40
2.0038373
50
0.0002957
51
0.958176
0
ARC
8
DEFAULT_255_2_778
10
9.6472553
20
88.9354771
40
1.9977379
50
325.9056137
51
359.9883422
0
ARC
8
DEFAULT_255_2_778
10
9.651963
20
88.928511
40
1.989937
50
291.1810916
51
325.9957281
0
ARC
8
DEFAULT_255_2_778
10
9.6480861
20
88.9418624
40
2.0037876
50
284.488049
51
291.1465192
0
LINE
8
DEFAULT_255_2_778
10
6.9184898
20
88.9369956
11
6.9150565
21
88.9369956
0
LINE
8
DEFAULT_255_2_778
10
6.9150565
20
88.9369956
11
6.9183025
21
88.9369956
0
LINE
8
DEFAULT_255_2_778
10
6.9183025
20
88.9369956
11
6.9184898
21
88.9369956
0
ARC
8
DEFAULT_255_2_778
10
6.9102991
20
87.4340647
40
1.4945932
50
330.0410489
51
340.5949881
0
ARC
8
DEFAULT_255_2_778
10
8.1568229
20
88.9281047
40
1.9906092
50
224.8997852
51
269.9904135
0
ARC
8
DEFAULT_255_2_778
10
8.165353
20
88.9363382
40
2.0024632
50
179.9897746
51
224.8943764
0
ARC
8
DEFAULT_255_2_778
10
6.9100984
20
87.4418059
40
1.4949218
50
29.9039554
51
89.6247208
0
ARC
8
DEFAULT_255_2_778
10
6.9043331
20
87.4375404
40
1.5020463
50
359.9941791
51
29.9353633
0
ARC
8
DEFAULT_255_2_778
10
6.9031096
20
87.4373944
40
1.5032698
50
358.3650312
51
359.9997463
0
ARC
8
DEFAULT_255_2_778
10
6.9038682
20
87.4373679
40
1.5025108
50
340.5677922
51
358.3652171
0
ARC
8
DEFAULT_255_2_778
10
3.4308203
20
87.4373503
40
1.5042291
50
165.2159016
51
178.7053017
0
ARC
8
DEFAULT_255_2_778
10
3.4320304
20
87.4372669
40
1.5054409
50
178.7031705
51
179.9998702
0
ARC
8
DEFAULT_255_2_778
10
3.430244
20
87.4371723
40
1.5036545
50
179.9962657
51
194.7871758
0
ARC
8
DEFAULT_255_2_778
10
3.462547
20
87.4114444
40
1.5440112
50
98.9406676
51
152.6209995
0
ARC
8
DEFAULT_255_2_778
10
3.4335467
20
87.4348986
40
1.507492
50
152.9056906
51
165.1522458
0
ARC
8
DEFAULT_255_2_778
10
3.4254645
20
87.435656
40
1.4986462
50
194.7777631
51
215.6312304
0
ARC
8
DEFAULT_255_2_778
10
14.4157726
20
2.2174737
40
0.9943193
50
317.9814198
51
0.1165067
0
ARC
8
DEFAULT_255_2_778
10
14.4096175
20
2.2219161
40
1.0018661
50
273.5449834
51
318.0282951
0
ARC
8
DEFAULT_255_2_778
10
14.4056903
20
2.25509
40
1.0352209
50
270.4095407
51
273.6483957
0
ARC
8
DEFAULT_255_2_778
10
5.5264854
20
0.6896962
40
0.4452469
50
270.125297
51
348.6926239
0
ARC
8
DEFAULT_255_2_778
10
5.5275521
20
0.6911584
40
0.4467082
50
261.9102892
51
269.9880735
0
ARC
8
DEFAULT_255_2_778
10
1.2791189
20
83.4404454
40
0.9982292
50
153.4331211
51
180.0258203
0
ARC
8
DEFAULT_255_2_778
10
0.9158018
20
0.6931234
40
0.447073
50
270.0120486
51
278.0863978
0
ARC
8
DEFAULT_255_2_778
10
0.9168106
20
0.6913163
40
0.445267
50
191.3095019
51
269.8822837
0
ARC
8
DEFAULT_255_2_778
10
0.9794342
20
0.3359397
40
0.4992447
50
179.936208
51
269.9145694
0
ARC
8
DEFAULT_255_2_778
10
5.4639947
20
0.3359906
40
0.4990955
50
270.0797952
51
0.0809279
0
ARC
8
DEFAULT_255_2_778
10
8.8327373
20
6.2067766
40
4.1106967
50
248.8610055
51
255.8048424
0
ARC
8
DEFAULT_255_2_778
10
8.8180841
20
6.2330196
40
4.1381884
50
284.2182469
51
291.115897
0
ARC
8
DEFAULT_255_2_778
10
5.8449749
20
9.0057616
40
0.497366
50
269.9901957
51
315.1017284
0
ARC
8
DEFAULT_255_2_778
10
5.8433133
20
9.0077923
40
0.4999767
50
315.0712927
51
0.0029106
0
ARC
8
DEFAULT_255_2_778
10
6.1647374
20
9.0079122
40
0.1785526
50
359.9696854
51
0.0909462
0
ARC
8
DEFAULT_255_2_778
10
5.8440664
20
49.5931725
40
0.4992237
50
359.9337893
51
89.905499
0
LINE
8
DEFAULT_255_2_778
10
4.4679898
20
92.1865956
11
4.4679898
21
93.4361956
0
LINE
8
DEFAULT_255_2_778
10
8.7295898
20
93.4361956
11
8.7295898
21
92.1865956
0
LINE
8
DEFAULT_255_2_778
10
8.7295898
20
92.1865956
11
4.4679898
21
92.1865956
0
LINE
8
DEFAULT_255_2_778
10
8.9288898
20
92.1865956
11
13.1907898
21
92.1865956
0
LINE
8
DEFAULT_255_2_778
10
13.1907898
20
92.1865956
11
13.1907898
21
93.4361956
0
LINE
8
DEFAULT_255_2_778
10
3.6702898
20
90.4370956
11
3.6702898
21
90.9371956
0
LINE
8
DEFAULT_255_2_778
10
4.7669898
20
92.0367956
11
8.9290898
21
92.0367956
0
LINE
8
DEFAULT_255_2_778
10
8.9290898
20
92.0367956
11
8.9290898
21
92.1867956
0
LINE
8
DEFAULT_255_2_778
10
8.9290898
20
92.1867956
11
8.9290898
21
93.4361956
0
LINE
8
DEFAULT_255_2_778
10
0.4208898
20
79.5664956
11
0.4208898
21
81.5656956
0
LINE
8
DEFAULT_255_2_778
10
17.2375898
20
84.5644956
11
17.2375898
21
81.5656956
0
LINE
8
DEFAULT_255_2_778
10
17.2375898
20
81.5656956
11
17.2375898
21
3.5952956
0
LINE
8
DEFAULT_255_2_778
10
17.2375898
20
3.5952956
11
17.2531898
21
2.5956956
0
LINE
8
DEFAULT_255_2_778
10
17.2531898
20
2.5956956
11
15.4084898
21
2.5956956
0
LINE
8
DEFAULT_255_2_778
10
0.4208898
20
8.4935956
11
0.4208898
21
3.5952956
0
LINE
8
DEFAULT_255_2_778
10
0.3859898
20
3.0954956
11
0.3859898
21
5.0946956
0
LINE
8
DEFAULT_255_2_778
10
0.3859898
20
5.0946956
11
0.3774898
21
5.5944956
0
LINE
8
DEFAULT_255_2_778
10
0.3774898
20
5.5944956
11
0.3774898
21
7.3200956
0
LINE
8
DEFAULT_255_2_778
10
0.3774898
20
7.3200956
11
0.3779898
21
7.3214956
0
LINE
8
DEFAULT_255_2_778
10
0.3862898
20
7.8204956
11
0.3862898
21
8.0212956
0
LINE
8
DEFAULT_255_2_778
10
17.2377898
20
3.5950956
11
0.4208898
21
3.5950956
0
LINE
8
DEFAULT_255_2_778
10
0.4208898
20
3.5950956
11
0.3946898
21
2.5954956
0
LINE
8
DEFAULT_255_2_778
10
0.3946898
20
2.5954956
11
0.4801898
21
2.5954956
0
LINE
8
DEFAULT_255_2_778
10
0.4801898
20
2.5954956
11
0.4801898
21
0.6033956
0
LINE
8
DEFAULT_255_2_778
10
0.4208898
20
84.5644956
11
0.4208898
21
81.5656956
0
LINE
8
DEFAULT_255_2_778
10
0.4208898
20
81.5656956
11
17.2375898
21
81.5656956
0
LINE
8
DEFAULT_255_2_778
10
17.2375898
20
84.5644956
11
0.4208898
21
84.5644956
0
LINE
8
DEFAULT_255_2_778
10
0.4208898
20
84.5644956
11
0.3774898
21
86.5635956
0
LINE
8
DEFAULT_255_2_778
10
17.2724898
20
86.5635956
11
17.2727898
21
86.5635956
0
LINE
8
DEFAULT_255_2_778
10
17.2811898
20
2.5946956
11
17.2727898
21
86.5635956
0
LINE
8
DEFAULT_255_2_778
10
17.2727898
20
86.5635956
11
15.6828898
21
86.5635956
0
LINE
8
DEFAULT_255_2_778
10
1.0534898
20
86.5635956
11
0.6796898
21
86.5635956
0
LINE
8
DEFAULT_255_2_778
10
2.2065898
20
86.5635956
11
1.5519898
21
86.5635956
0
LINE
8
DEFAULT_255_2_778
10
1.5519898
20
86.5635956
11
1.0534898
21
86.5635956
0
LINE
8
DEFAULT_255_2_778
10
1.0534898
20
86.5635956
11
1.0534898
21
87.4618956
0
LINE
8
DEFAULT_255_2_778
10
1.0534898
20
87.4618956
11
1.5519898
21
87.4618956
0
LINE
8
DEFAULT_255_2_778
10
1.5519898
20
87.4618956
11
1.5519898
21
86.5638956
0
LINE
8
DEFAULT_255_2_778
10
8.7295898
20
86.5638956
11
8.7793898
21
86.5638956
0
LINE
8
DEFAULT_255_2_778
10
15.0015898
20
86.5638956
11
15.6828898
21
86.5638956
0
LINE
8
DEFAULT_255_2_778
10
15.6828898
20
86.5638956
11
15.6828898
21
90.9371956
0
LINE
8
DEFAULT_255_2_778
10
15.6828898
20
90.9371956
11
14.4366898
21
90.9371956
0
LINE
8
DEFAULT_255_2_778
10
14.4366898
20
90.9371956
11
14.4368898
21
86.6887956
0
LINE
8
DEFAULT_255_2_778
10
10.1503898
20
87.6248956
11
10.1503898
21
87.0475956
0
LINE
8
DEFAULT_255_2_778
10
10.1503898
20
87.0475956
11
10.1503898
21
87.0025956
0
LINE
8
DEFAULT_255_2_778
10
10.1503898
20
87.0025956
11
10.1503898
21
86.6887956
0
LINE
8
DEFAULT_255_2_778
10
10.1503898
20
86.6887956
11
14.4368898
21
86.6887956
0
LINE
8
DEFAULT_255_2_778
10
14.4368898
20
86.6887956
11
14.7858898
21
86.6887956
0
LINE
8
DEFAULT_255_2_778
10
14.7858898
20
86.6887956
11
14.7858898
21
86.5638956
0
LINE
8
DEFAULT_255_2_778
10
14.7858898
20
86.5638956
11
15.0017898
21
86.5638956
0
LINE
8
DEFAULT_255_2_778
10
1.3315898
20
1.3574956
11
2.8333898
21
2.5956956
0
LINE
8
DEFAULT_255_2_778
10
3.6101898
20
2.5956956
11
2.8333898
21
2.5956956
0
LINE
8
DEFAULT_255_2_778
10
2.8333898
20
2.5956956
11
2.4658898
21
2.5956956
0
LINE
8
DEFAULT_255_2_778
10
2.4658898
20
2.5956956
11
0.9788898
21
2.5956956
0
LINE
8
DEFAULT_255_2_778
10
5.4648898
20
2.5956956
11
3.9779898
21
2.5956956
0
LINE
8
DEFAULT_255_2_778
10
3.9779898
20
2.5956956
11
3.6101898
21
2.5956956
0
LINE
8
DEFAULT_255_2_778
10
3.6101898
20
2.5956956
11
5.1119898
21
1.3574956
0
LINE
8
DEFAULT_255_2_778
10
1.1945898
20
0.7687956
11
5.2487898
21
0.7687956
0
LINE
8
DEFAULT_255_2_778
10
5.3648898
20
1.0277956
11
5.2487898
21
0.7687956
0
LINE
8
DEFAULT_255_2_778
10
5.2487898
20
0.7687956
11
5.2487898
21
0.2266956
0
LINE
8
DEFAULT_255_2_778
10
0.9786898
20
0.2501956
11
1.1653898
21
0.2501956
0
LINE
8
DEFAULT_255_2_778
10
1.1653898
20
0.2501956
11
1.1945898
21
0.2266956
0
LINE
8
DEFAULT_255_2_778
10
1.1945898
20
0.2266956
11
1.1945898
21
0.7687956
0
LINE
8
DEFAULT_255_2_778
10
1.1945898
20
0.7687956
11
1.0783898
21
1.0277956
0
LINE
8
DEFAULT_255_2_778
10
1.0783898
20
1.0277956
11
1.0783898
21
0.3210956
0
LINE
8
DEFAULT_255_2_778
10
1.0783898
20
0.3210956
11
1.1653898
21
0.2504956
0
LINE
8
DEFAULT_255_2_778
10
0.2808898
20
80.2411956
11
0.2808898
21
82.8401956
0
LINE
8
DEFAULT_255_2_778
10
0.3862898
20
83.8868956
11
0.3862898
21
84.0468956
0
LINE
8
DEFAULT_255_2_778
10
0.1811898
20
83.4399956
11
0.1811898
21
87.6248956
0
LINE
8
DEFAULT_255_2_778
10
9.8418898
20
89.5057956
11
10.0807898
21
89.0559956
0
LINE
8
DEFAULT_255_2_778
10
10.0807898
20
89.0559956
11
10.1450898
21
88.6778956
0
LINE
8
DEFAULT_255_2_778
10
10.1450898
20
88.6778956
11
10.1503898
21
88.4392956
0
LINE
8
DEFAULT_255_2_778
10
9.6304898
20
89.3742956
11
8.5790898
21
88.7038956
0
LINE
8
DEFAULT_255_2_778
10
6.8380898
20
90.4373956
11
3.6702898
21
90.4373956
0
LINE
8
DEFAULT_255_2_778
10
3.6702898
20
90.4373956
11
3.2214898
21
90.4373956
0
LINE
8
DEFAULT_255_2_778
10
9.8416898
20
89.5060956
11
9.6299898
21
89.3745956
0
LINE
8
DEFAULT_255_2_778
10
8.1562898
20
90.1875956
11
8.1562898
21
90.1875956
0
LINE
8
DEFAULT_255_2_778
10
0.4303898
20
88.3045956
11
0.3348898
21
88.3146956
0
LINE
8
DEFAULT_255_2_778
10
0.3348898
20
88.3146956
11
0.2917898
21
88.3270956
0
LINE
8
DEFAULT_255_2_778
10
0.2917898
20
88.3270956
11
0.2539898
21
88.3437956
0
LINE
8
DEFAULT_255_2_778
10
0.2539898
20
88.3437956
11
0.2229898
21
88.3640956
0
LINE
8
DEFAULT_255_2_778
10
0.2229898
20
88.3640956
11
0.1999898
21
88.3871956
0
LINE
8
DEFAULT_255_2_778
10
0.1999898
20
88.3871956
11
0.1859898
21
88.4122956
0
LINE
8
DEFAULT_255_2_778
10
0.1859898
20
88.4122956
11
0.1811898
21
88.4379956
0
LINE
8
DEFAULT_255_2_778
10
4.4679898
20
93.4361956
11
8.7295898
21
93.4361956
0
LINE
8
DEFAULT_255_2_778
10
8.7295898
20
93.4361956
11
8.9288898
21
93.4361956
0
LINE
8
DEFAULT_255_2_778
10
8.9288898
20
93.4361956
11
13.1907898
21
93.4361956
0
LINE
8
DEFAULT_255_2_778
10
1.9755898
20
90.4270956
11
1.9758898
21
90.9371956
0
LINE
8
DEFAULT_255_2_778
10
1.9758898
20
90.9371956
11
3.2220898
21
90.9371956
0
LINE
8
DEFAULT_255_2_778
10
3.2220898
20
90.9371956
11
3.2217898
21
90.4370956
0
LINE
8
DEFAULT_255_2_778
10
3.2217898
20
90.4370956
11
2.1750898
21
90.4370956
0
LINE
8
DEFAULT_255_2_778
10
0.7002898
20
89.3724956
11
0.5759898
21
89.1345956
0
LINE
8
DEFAULT_255_2_778
10
0.5759898
20
89.1345956
11
0.4547898
21
88.7564956
0
LINE
8
DEFAULT_255_2_778
10
0.4547898
20
88.7564956
11
0.4303898
21
88.3045956
0
LINE
8
DEFAULT_255_2_778
10
0.4303898
20
88.3045956
11
0.4422898
21
87.4240956
0
LINE
8
DEFAULT_255_2_778
10
2.1747898
20
90.1875956
11
2.1747898
21
90.4373956
0
LINE
8
DEFAULT_255_2_778
10
0.4904898
20
89.5081956
11
0.6997898
21
89.3726956
0
LINE
8
DEFAULT_255_2_778
10
0.6997898
20
89.3726956
11
1.7517898
21
88.7032956
0
LINE
8
DEFAULT_255_2_778
10
1.7517898
20
88.7032956
11
1.7342898
21
88.6739956
0
LINE
8
DEFAULT_255_2_778
10
1.7342898
20
88.6739956
11
1.7181898
21
88.6408956
0
LINE
8
DEFAULT_255_2_778
10
1.7181898
20
88.6408956
11
1.6966898
21
88.5868956
0
LINE
8
DEFAULT_255_2_778
10
1.6966898
20
88.5868956
11
1.6913898
21
88.5638956
0
LINE
8
DEFAULT_255_2_778
10
1.6913898
20
88.5638956
11
1.6874898
21
88.5466956
0
LINE
8
DEFAULT_255_2_778
10
1.6874898
20
88.5466956
11
1.5479898
21
88.0632956
0
LINE
8
DEFAULT_255_2_778
10
1.5479898
20
88.0632956
11
1.2368898
21
87.7055956
0
LINE
8
DEFAULT_255_2_778
10
1.2368898
20
87.7055956
11
0.9330898
21
87.5256956
0
LINE
8
DEFAULT_255_2_778
10
0.9330898
20
87.5256956
11
0.6788898
21
87.4642956
0
LINE
8
DEFAULT_255_2_778
10
0.6788898
20
87.4642956
11
0.6788898
21
86.5649956
0
LINE
8
DEFAULT_255_2_778
10
0.6788898
20
86.5649956
11
0.3774898
21
86.5649956
0
LINE
8
DEFAULT_255_2_778
10
0.3774898
20
86.5649956
11
0.3774898
21
84.5657956
0
LINE
8
DEFAULT_255_2_778
10
0.3862898
20
84.0659956
11
0.3862898
21
84.0482956
0
LINE
8
DEFAULT_255_2_778
10
0.6796898
20
87.4642956
11
0.6531898
21
87.4578956
0
LINE
8
DEFAULT_255_2_778
10
0.6531898
20
87.4578956
11
0.4425898
21
87.4250956
0
LINE
8
DEFAULT_255_2_778
10
0.4425898
20
87.4250956
11
0.4444898
21
87.4660956
0
LINE
8
DEFAULT_255_2_778
10
0.4444898
20
87.4660956
11
0.4507898
21
87.5999956
0
LINE
8
DEFAULT_255_2_778
10
0.4507898
20
87.5999956
11
0.4729898
21
87.9394956
0
LINE
8
DEFAULT_255_2_778
10
0.4729898
20
87.9394956
11
0.5293898
21
88.4601956
0
LINE
8
DEFAULT_255_2_778
10
0.5293898
20
88.4601956
11
0.6087898
21
88.9609956
0
LINE
8
DEFAULT_255_2_778
10
0.6087898
20
88.9609956
11
0.7005898
21
89.3732956
0
LINE
8
DEFAULT_255_2_778
10
0.4912898
20
89.5086956
11
0.3496898
21
89.2724956
0
LINE
8
DEFAULT_255_2_778
10
0.3496898
20
89.2724956
11
0.2105898
21
88.8988956
0
LINE
8
DEFAULT_255_2_778
10
0.2105898
20
88.8988956
11
0.1811898
21
88.4379956
0
LINE
8
DEFAULT_255_2_778
10
0.1811898
20
88.4379956
11
0.1811898
21
87.5999956
0
LINE
8
DEFAULT_255_2_778
10
0.1811898
20
87.5999956
11
0.1898898
21
87.5428956
0
LINE
8
DEFAULT_255_2_778
10
0.1898898
20
87.5428956
11
0.2351898
21
87.4719956
0
LINE
8
DEFAULT_255_2_778
10
0.2351898
20
87.4719956
11
0.3211898
21
87.4213956
0
LINE
8
DEFAULT_255_2_778
10
0.3211898
20
87.4213956
11
0.4422898
21
87.4237956
0
LINE
8
DEFAULT_255_2_778
10
8.1562898
20
88.9377956
11
8.1562898
21
90.1870956
0
LINE
8
DEFAULT_255_2_778
10
8.1562898
20
90.1870956
11
2.1750898
21
90.1870956
0
LINE
8
DEFAULT_255_2_778
10
2.1750898
20
90.1870956
11
2.1750898
21
88.9374956
0
LINE
8
DEFAULT_255_2_778
10
2.1750898
20
88.9374956
11
3.2217898
21
88.9374956
0
LINE
8
DEFAULT_255_2_778
10
9.9008898
20
87.4219956
11
10.0098898
21
87.4211956
0
LINE
8
DEFAULT_255_2_778
10
10.0098898
20
87.4211956
11
10.0958898
21
87.4716956
0
LINE
8
DEFAULT_255_2_778
10
10.0958898
20
87.4716956
11
10.1411898
21
87.5425956
0
LINE
8
DEFAULT_255_2_778
10
10.1411898
20
87.5425956
11
10.1498898
21
87.5997956
0
LINE
8
DEFAULT_255_2_778
10
10.1498898
20
87.5997956
11
10.1498898
21
88.4387956
0
LINE
8
DEFAULT_255_2_778
10
10.1498898
20
88.4387956
11
10.1450898
21
88.4114956
0
LINE
8
DEFAULT_255_2_778
10
10.1450898
20
88.4114956
11
10.1308898
21
88.3863956
0
LINE
8
DEFAULT_255_2_778
10
10.1308898
20
88.3863956
11
10.1077898
21
88.3632956
0
LINE
8
DEFAULT_255_2_778
10
10.1077898
20
88.3632956
11
10.0768898
21
88.3429956
0
LINE
8
DEFAULT_255_2_778
10
10.0768898
20
88.3429956
11
10.0389898
21
88.3262956
0
LINE
8
DEFAULT_255_2_778
10
10.0389898
20
88.3262956
11
9.9958898
21
88.3138956
0
LINE
8
DEFAULT_255_2_778
10
9.9958898
20
88.3138956
11
9.8995898
21
88.3034956
0
LINE
8
DEFAULT_255_2_778
10
9.9003898
20
87.4216956
11
9.8852898
21
87.4909956
0
LINE
8
DEFAULT_255_2_778
10
9.8852898
20
87.4909956
11
9.8768898
21
87.6671956
0
LINE
8
DEFAULT_255_2_778
10
9.8768898
20
87.6671956
11
9.8416898
21
88.1167956
0
LINE
8
DEFAULT_255_2_778
10
9.8416898
20
88.1167956
11
9.7677898
21
88.7032956
0
LINE
8
DEFAULT_255_2_778
10
9.7677898
20
88.7032956
11
9.6820898
21
89.1496956
0
LINE
8
DEFAULT_255_2_778
10
9.6820898
20
89.1496956
11
9.6291898
21
89.3737956
0
LINE
8
DEFAULT_255_2_778
10
9.6291898
20
89.3737956
11
9.8418898
21
88.9138956
0
LINE
8
DEFAULT_255_2_778
10
9.8418898
20
88.9138956
11
9.8953898
21
88.5403956
0
LINE
8
DEFAULT_255_2_778
10
9.8953898
20
88.5403956
11
9.8990898
21
88.3492956
0
LINE
8
DEFAULT_255_2_778
10
9.8990898
20
88.3492956
11
9.8990898
21
88.3037956
0
LINE
8
DEFAULT_255_2_778
10
9.8990898
20
88.3037956
11
9.8998898
21
87.4219956
0
LINE
8
DEFAULT_255_2_778
10
9.8998898
20
87.4219956
11
9.7889898
21
87.4359956
0
LINE
8
DEFAULT_255_2_778
10
9.7889898
20
87.4359956
11
9.6505898
21
87.4613956
0
LINE
8
DEFAULT_255_2_778
10
9.2767898
20
86.6882956
11
9.2767898
21
87.4618956
0
LINE
8
DEFAULT_255_2_778
10
9.2767898
20
87.4618956
11
8.7782898
21
87.4618956
0
LINE
8
DEFAULT_255_2_778
10
8.7782898
20
87.4618956
11
8.7782898
21
86.5638956
0
LINE
8
DEFAULT_255_2_778
10
8.7782898
20
86.5638956
11
8.9280898
21
86.5638956
0
LINE
8
DEFAULT_255_2_778
10
9.6508898
20
86.6887956
11
9.2769898
21
86.6887956
0
LINE
8
DEFAULT_255_2_778
10
9.2769898
20
86.6887956
11
8.9282898
21
86.6887956
0
LINE
8
DEFAULT_255_2_778
10
8.9282898
20
86.6887956
11
8.9282898
21
86.5638956
0
LINE
8
DEFAULT_255_2_778
10
8.9282898
20
86.5638956
11
14.7850898
21
86.5638956
0
LINE
8
DEFAULT_255_2_778
10
10.1495898
20
86.6887956
11
9.6511898
21
86.6887956
0
LINE
8
DEFAULT_255_2_778
10
9.6511898
20
86.6887956
11
9.6511898
21
87.4618956
0
LINE
8
DEFAULT_255_2_778
10
9.6511898
20
87.4618956
11
9.5955898
21
87.4756956
0
LINE
8
DEFAULT_255_2_778
10
9.5955898
20
87.4756956
11
9.4076898
21
87.5216956
0
LINE
8
DEFAULT_255_2_778
10
9.4076898
20
87.5216956
11
9.1134898
21
87.6894956
0
LINE
8
DEFAULT_255_2_778
10
9.1134898
20
87.6894956
11
8.8309898
21
88.0037956
0
LINE
8
DEFAULT_255_2_778
10
8.8309898
20
88.0037956
11
8.6972898
21
88.3111956
0
LINE
8
DEFAULT_255_2_778
10
8.6972898
20
88.3111956
11
8.6335898
21
88.5839956
0
LINE
8
DEFAULT_255_2_778
10
8.6335898
20
88.5839956
11
8.6147898
21
88.6339956
0
LINE
8
DEFAULT_255_2_778
10
8.6147898
20
88.6339956
11
8.5970898
21
88.6704956
0
LINE
8
DEFAULT_255_2_778
10
8.5970898
20
88.6704956
11
8.5777898
21
88.7032956
0
LINE
8
DEFAULT_255_2_778
10
8.1554898
20
88.9374956
11
6.9182898
21
88.9374956
0
LINE
8
DEFAULT_255_2_778
10
9.5116898
20
90.9366956
11
8.1554898
21
90.9366956
0
LINE
8
DEFAULT_255_2_778
10
6.8367898
20
90.4368956
11
8.1554898
21
90.4368956
0
LINE
8
DEFAULT_255_2_778
10
8.1554898
20
90.4368956
11
8.1554898
21
90.1868956
0
LINE
8
DEFAULT_255_2_778
10
9.5013898
20
90.9366956
11
9.5116898
21
90.9366956
0
LINE
8
DEFAULT_255_2_778
10
9.5116898
20
90.9363956
11
9.6508898
21
90.9363956
0
LINE
8
DEFAULT_255_2_778
10
8.2046898
20
86.6876956
11
8.7290898
21
86.6876956
0
LINE
8
DEFAULT_255_2_778
10
8.7290898
20
86.6876956
11
8.7290898
21
86.5628956
0
LINE
8
DEFAULT_255_2_778
10
8.7290898
20
86.5628956
11
2.8727898
21
86.5628956
0
LINE
8
DEFAULT_255_2_778
10
2.8727898
20
86.5628956
11
2.8727898
21
86.6876956
0
LINE
8
DEFAULT_255_2_778
10
2.8727898
20
86.6876956
11
3.2217898
21
86.6876956
0
LINE
8
DEFAULT_255_2_778
10
3.6702898
20
88.9369956
11
3.6702898
21
86.6876956
0
LINE
8
DEFAULT_255_2_778
10
3.6702898
20
86.6876956
11
8.2051898
21
86.6876956
0
LINE
8
DEFAULT_255_2_778
10
8.3199898
20
86.9374956
11
8.1564898
21
86.9374956
0
LINE
8
DEFAULT_255_2_778
10
3.4215898
20
88.9366956
11
3.2220898
21
88.9366956
0
LINE
8
DEFAULT_255_2_778
10
3.2220898
20
88.9366956
11
3.4215898
21
88.9366956
0
LINE
8
DEFAULT_255_2_778
10
3.4215898
20
88.9366956
11
3.6707898
21
88.9366956
0
LINE
8
DEFAULT_255_2_778
10
3.6707898
20
88.9366956
11
6.1631898
21
88.9366956
0
LINE
8
DEFAULT_255_2_778
10
6.1631898
20
88.9366956
11
6.9198898
21
88.9366956
0
LINE
8
DEFAULT_255_2_778
10
1.9763898
20
87.8211956
11
1.9763898
21
87.0533956
0
LINE
8
DEFAULT_255_2_778
10
2.2073898
20
86.5625956
11
2.6579898
21
86.5625956
0
LINE
8
DEFAULT_255_2_778
10
2.6579898
20
86.5625956
11
2.8738898
21
86.5625956
0
LINE
8
DEFAULT_255_2_778
10
3.2227898
20
88.9366956
11
3.2227898
21
86.6874956
0
LINE
8
DEFAULT_255_2_778
10
3.2227898
20
86.6874956
11
3.6712898
21
86.6874956
0
LINE
8
DEFAULT_255_2_778
10
3.2227898
20
88.9366956
11
3.2227898
21
88.9366956
0
LINE
8
DEFAULT_255_2_778
10
14.4130898
20
2.5943956
11
15.4100898
21
2.5943956
0
LINE
8
DEFAULT_255_2_778
10
15.4100898
20
2.5943956
11
15.4100898
21
2.2194956
0
LINE
8
DEFAULT_255_2_778
10
5.9644898
20
2.2194956
11
5.9644898
21
1.2198956
0
LINE
8
DEFAULT_255_2_778
10
13.2214898
20
2.5943956
11
13.1407898
21
2.5943956
0
LINE
8
DEFAULT_255_2_778
10
14.4130898
20
2.2194956
11
15.4100898
21
2.2194956
0
LINE
8
DEFAULT_255_2_778
10
9.8350898
20
2.2194956
11
14.4130898
21
2.2194956
0
LINE
8
DEFAULT_255_2_778
10
14.4130898
20
2.2194956
11
14.4130898
21
1.2198956
0
LINE
8
DEFAULT_255_2_778
10
14.4130898
20
1.2198956
11
5.9630898
21
1.2198956
0
LINE
8
DEFAULT_255_2_778
10
5.9630898
20
1.2198956
11
5.9630898
21
0.6023956
0
LINE
8
DEFAULT_255_2_778
10
5.4646898
20
0.2488956
11
5.2778898
21
0.2488956
0
LINE
8
DEFAULT_255_2_778
10
5.2778898
20
0.2488956
11
5.2487898
21
0.2252956
0
LINE
8
DEFAULT_255_2_778
10
5.2487898
20
0.2252956
11
1.1945898
21
0.2252956
0
LINE
8
DEFAULT_255_2_778
10
0.2808898
20
83.4399956
11
0.2808898
21
82.8401956
0
LINE
8
DEFAULT_255_2_778
10
0.2808898
20
82.8401956
11
0.1811898
21
82.8401956
0
LINE
8
DEFAULT_255_2_778
10
0.1811898
20
82.8401956
11
0.1811898
21
83.4399956
0
LINE
8
DEFAULT_255_2_778
10
0.3862898
20
80.2411956
11
0.3862898
21
83.4399956
0
LINE
8
DEFAULT_255_2_778
10
0.3862898
20
83.4399956
11
0.2808898
21
83.4399956
0
LINE
8
DEFAULT_255_2_778
10
0.3862898
20
83.8868956
11
0.3862898
21
83.4399956
0
LINE
8
DEFAULT_255_2_778
10
2.4658898
20
2.5956956
11
1.0783898
21
1.4519956
0
LINE
8
DEFAULT_255_2_778
10
1.0783898
20
1.4519956
11
1.3315898
21
1.3577956
0
LINE
8
DEFAULT_255_2_778
10
1.3315898
20
1.3577956
11
5.1119898
21
1.3577956
0
LINE
8
DEFAULT_255_2_778
10
5.1119898
20
1.3577956
11
5.3651898
21
1.4519956
0
LINE
8
DEFAULT_255_2_778
10
5.3651898
20
1.4519956
11
3.9779898
21
2.5956956
0
LINE
8
DEFAULT_255_2_778
10
0.9788898
20
0.2501956
11
0.9788898
21
2.5956956
0
LINE
8
DEFAULT_255_2_778
10
0.9788898
20
2.5956956
11
0.4801898
21
2.5956956
0
LINE
8
DEFAULT_255_2_778
10
9.8336898
20
2.2207956
11
9.7397898
21
2.5956956
0
LINE
8
DEFAULT_255_2_778
10
5.9630898
20
2.5956956
11
5.4646898
21
2.5956956
0
LINE
8
DEFAULT_255_2_778
10
5.4646898
20
2.5956956
11
5.4646898
21
0.2501956
0
LINE
8
DEFAULT_255_2_778
10
5.4646898
20
-0.1636044
11
0.9786898
21
-0.1636044
0
LINE
8
DEFAULT_255_2_778
10
0.9786898
20
-0.1636044
11
0.9786898
21
0.2504956
0
LINE
8
DEFAULT_255_2_778
10
0.4801898
20
0.6039956
11
0.4801898
21
0.3364956
0
LINE
8
DEFAULT_255_2_778
10
5.2778898
20
0.2506956
11
5.3648898
21
0.3213956
0
LINE
8
DEFAULT_255_2_778
10
5.3648898
20
0.3213956
11
5.3648898
21
1.0283956
0
LINE
8
DEFAULT_255_2_778
10
5.3648898
20
1.0283956
11
1.0783898
21
1.0283956
0
LINE
8
DEFAULT_255_2_778
10
5.4646898
20
0.2506956
11
5.4646898
21
-0.1631044
0
LINE
8
DEFAULT_255_2_778
10
5.9630898
20
0.3366956
11
5.9630898
21
0.6044956
0
LINE
8
DEFAULT_255_2_778
10
14.4117898
20
2.2215956
11
14.4117898
21
2.5964956
0
LINE
8
DEFAULT_255_2_778
10
14.4117898
20
2.5964956
11
13.4306898
21
2.5964956
0
LINE
8
DEFAULT_255_2_778
10
13.4306898
20
2.5964956
11
13.2200898
21
2.5964956
0
LINE
8
DEFAULT_255_2_778
10
13.2200898
20
2.5964956
11
13.1414898
21
2.3726956
0
LINE
8
DEFAULT_255_2_778
10
7.4365898
20
2.5964956
11
7.9188898
21
2.5964956
0
LINE
8
DEFAULT_255_2_778
10
7.9188898
20
2.5964956
11
7.8246898
21
2.2215956
0
LINE
8
DEFAULT_255_2_778
10
5.9633898
20
2.3726956
11
5.9633898
21
2.2215956
0
LINE
8
DEFAULT_255_2_778
10
5.9633898
20
2.2215956
11
7.8246898
21
2.2215956
0
LINE
8
DEFAULT_255_2_778
10
7.0902898
20
2.5964956
11
7.1754898
21
2.5097956
0
LINE
8
DEFAULT_255_2_778
10
7.1754898
20
2.5097956
11
7.3505898
21
2.3726956
0
LINE
8
DEFAULT_255_2_778
10
7.3505898
20
2.3726956
11
5.9636898
21
2.3726956
0
LINE
8
DEFAULT_255_2_778
10
5.9636898
20
2.3726956
11
5.9636898
21
2.5964956
0
LINE
8
DEFAULT_255_2_778
10
5.9636898
20
2.5964956
11
7.0904898
21
2.5964956
0
LINE
8
DEFAULT_255_2_778
10
7.0904898
20
2.5964956
11
7.4368898
21
2.5964956
0
LINE
8
DEFAULT_255_2_778
10
7.4368898
20
2.5964956
11
7.3857898
21
2.4636956
0
LINE
8
DEFAULT_255_2_778
10
7.3857898
20
2.4636956
11
7.3508898
21
2.3726956
0
LINE
8
DEFAULT_255_2_778
10
10.5562898
20
2.5964956
11
13.1401898
21
2.5964956
0
LINE
8
DEFAULT_255_2_778
10
13.1401898
20
2.5964956
11
13.1422898
21
2.3726956
0
LINE
8
DEFAULT_255_2_778
10
10.3091898
20
2.3726956
11
13.1422898
21
2.3726956
0
LINE
8
DEFAULT_255_2_778
10
13.1422898
20
2.3726956
11
13.3065898
21
2.4866956
0
LINE
8
DEFAULT_255_2_778
10
13.3065898
20
2.4866956
11
13.4314898
21
2.5964956
0
LINE
8
DEFAULT_255_2_778
10
9.8344898
20
2.2215956
11
9.3635898
21
2.0154956
0
LINE
8
DEFAULT_255_2_778
10
9.3635898
20
2.0154956
11
8.7674898
21
1.9405956
0
LINE
8
DEFAULT_255_2_778
10
8.7674898
20
1.9405956
11
8.2350898
21
2.0321956
0
LINE
8
DEFAULT_255_2_778
10
8.2350898
20
2.0321956
11
7.8252898
21
2.2218956
0
LINE
8
DEFAULT_255_2_778
10
10.2228898
20
2.5967956
11
10.5562898
21
2.5967956
0
LINE
8
DEFAULT_255_2_778
10
10.5562898
20
2.5967956
11
10.3091898
21
2.3729956
0
LINE
8
DEFAULT_255_2_778
10
10.3091898
20
2.3729956
11
10.2231898
21
2.5967956
0
LINE
8
DEFAULT_255_2_778
10
10.2231898
20
2.5967956
11
9.7408898
21
2.5967956
0
LINE
8
DEFAULT_255_2_778
10
9.7408898
20
2.5967956
11
7.9199898
21
2.5967956
0
LINE
8
DEFAULT_255_2_778
10
0.4272898
20
3.6101956
11
0.4272898
21
8.5083956
0
LINE
8
DEFAULT_255_2_778
10
0.4272898
20
8.5083956
11
5.8448898
21
8.5083956
0
LINE
8
DEFAULT_255_2_778
10
6.3432898
20
9.0081956
11
6.3432898
21
49.5925956
0
LINE
8
DEFAULT_255_2_778
10
5.8448898
20
50.0923956
11
0.4272898
21
50.0923956
0
LINE
8
DEFAULT_255_2_778
10
0.4272898
20
50.0923956
11
0.4272898
21
81.5804956
0
ENDSEC
0
EOF