0
SECTION
2
HEADER
9
$MEASUREMENT
70
1
0
ENDSEC
0
SECTION
2
TABLES
0
TABLE
2
LTYPE
0
LTYPE
72
65
70
64
2
CONTINUOUS
3
______
73
0
40
0
0
ENDTAB
0
TABLE
2
LAYER
0
LAYER
2
DEFAULT_255_2_778
70
0
62
255
6
CONTINUOUS
0
ENDTAB
0
ENDSEC
0
SECTION
2
ENTITIES
0
ARC
8
DEFAULT_255_2_778
10
14.662504
20
2.2646652
40
2.5353312
50
0.0030459
51
0.0881936
0
ARC
8
DEFAULT_255_2_778
10
14.6680832
20
2.2649281
40
2.5297518
50
315.0046227
51
359.9970987
0
ARC
8
DEFAULT_255_2_778
10
14.6683719
20
2.2652168
40
2.5297518
50
270.0029013
51
314.9953773
0
ARC
8
DEFAULT_255_2_778
10
14.6686348
20
2.270796
40
2.535331
50
269.9118064
51
269.9969541
0
ARC
8
DEFAULT_255_2_778
10
2.8009659
20
2.2913028
40
2.5558375
50
249.7509449
51
270.0799475
0
ARC
8
DEFAULT_255_2_778
10
2.7915876
20
2.2642903
40
2.5272487
50
191.2938038
51
249.7384675
0
ARC
8
DEFAULT_255_2_778
10
2.828259
20
2.26691
40
2.5637273
50
179.9629508
51
191.1907163
0
ARC
8
DEFAULT_255_2_778
10
2.7979486
20
14.1316991
40
2.5334181
50
159.2082238
51
180.0662947
0
ARC
8
DEFAULT_255_2_778
10
2.8074131
20
14.125052
40
2.5446274
50
100.740369
51
159.1439487
0
ARC
8
DEFAULT_255_2_778
10
2.8033613
20
14.1157653
40
2.5530028
50
89.9737212
51
100.6121873
0
ARC
8
DEFAULT_255_2_778
10
14.6608216
20
14.1345869
40
2.5341839
50
69.0927346
51
89.9115836
0
ARC
8
DEFAULT_255_2_778
10
14.6545679
20
14.1263533
40
2.5441087
50
10.7121431
51
69.0273395
0
ARC
8
DEFAULT_255_2_778
10
14.6440112
20
14.1299361
40
2.5538213
50
359.9737882
51
10.5891389
0
LINE
8
DEFAULT_255_2_778
10
14.6647322
20
-0.2645322
11
2.8045322
21
-0.2645322
0
LINE
8
DEFAULT_255_2_778
10
0.2645322
20
2.2685678
11
0.2645322
21
14.1287678
0
LINE
8
DEFAULT_255_2_778
10
2.8045322
20
16.6687678
11
14.6647322
21
16.6687678
0
LINE
8
DEFAULT_255_2_778
10
17.1978322
20
14.1287678
11
17.1978322
21
2.2685678
0
ARC
8
DEFAULT_255_2_778
10
9.3977251
20
5.8827021
40
4.8958187
50
89.0960695
51
90.0099152
0
ARC
8
DEFAULT_255_2_778
10
9.4775134
20
8.0361003
40
2.7418123
50
76.9186939
51
90.0533343
0
ARC
8
DEFAULT_255_2_778
10
9.8422265
20
9.5943863
40
1.1414201
50
54.1254885
51
77.0470158
0
ARC
8
DEFAULT_255_2_778
10
10.0691109
20
9.930442
40
0.7362726
50
17.7700285
51
53.106971
0
ARC
8
DEFAULT_255_2_778
10
9.8249055
20
9.8537271
40
0.9922411
50
1.9645552
51
17.6847965
0
ARC
8
DEFAULT_255_2_778
10
9.5262568
20
9.8317418
40
1.2915212
50
359.9813205
51
2.4851338
0
ARC
8
DEFAULT_255_2_778
10
9.6116844
20
9.8086303
40
1.206307
50
337.3255436
51
1.0777874
0
ARC
8
DEFAULT_255_2_778
10
9.8584936
20
9.7241845
40
0.9461771
50
306.1366028
51
336.2824438
0
ARC
8
DEFAULT_255_2_778
10
9.6497543
20
10.0061099
40
1.2969621
50
291.7180826
51
306.2393469
0
ARC
8
DEFAULT_255_2_778
10
9.4119617
20
10.5889909
40
1.9264676
50
282.4296623
51
291.8734453
0
ARC
8
DEFAULT_255_2_778
10
9.210875
20
11.4834124
40
2.8432094
50
275.6000694
51
282.5073932
0
ARC
8
DEFAULT_255_2_778
10
9.0837953
20
12.7368717
40
4.1030894
50
270.5061417
51
275.658098
0
ARC
8
DEFAULT_255_2_778
10
9.0632824
20
13.6422904
40
5.0086697
50
269.997661
51
270.6492918
0
ARC
8
DEFAULT_255_2_778
10
9.4914155
20
12.063227
40
5.9641113
50
269.9256672
51
277.5109303
0
ARC
8
DEFAULT_255_2_778
10
9.5756074
20
11.4295637
40
5.3248797
50
277.5040429
51
286.1332828
0
ARC
8
DEFAULT_255_2_778
10
9.7276896
20
10.9081657
40
4.781756
50
286.1187777
51
296.4861159
0
ARC
8
DEFAULT_255_2_778
10
9.933017
20
10.4987671
40
4.3237549
50
296.4703105
51
309.1692608
0
ARC
8
DEFAULT_255_2_778
10
10.1759261
20
10.2045895
40
3.94226
50
309.1326807
51
326.9392501
0
ARC
8
DEFAULT_255_2_778
10
10.3680278
20
10.0766262
40
3.7114541
50
326.9770455
51
0.0848223
0
ARC
8
DEFAULT_255_2_778
10
8.2579429
20
10.0932787
40
5.8215457
50
359.8901827
51
5.5636931
0
ARC
8
DEFAULT_255_2_778
10
9.4938763
20
10.2159801
40
4.5795392
50
5.5349558
51
12.6360808
0
ARC
8
DEFAULT_255_2_778
10
10.4464563
20
10.4317037
40
3.602841
50
12.602457
51
21.6943184
0
ARC
8
DEFAULT_255_2_778
10
11.1142043
20
10.70005
40
2.8831959
50
21.644578
51
34.4359548
0
ARC
8
DEFAULT_255_2_778
10
11.3783596
20
10.8642224
40
2.5725325
50
34.7471677
51
71.4016639
0
ARC
8
DEFAULT_255_2_778
10
11.0485283
20
10.001216
40
3.495864
50
70.7892298
51
81.8785925
0
ARC
8
DEFAULT_255_2_778
10
10.8930737
20
8.9477189
40
4.5607595
50
81.814939
51
89.9354251
0
ARC
8
DEFAULT_255_2_778
10
10.8765402
20
8.2891203
40
5.2194003
50
89.7620778
51
90.0006843
0
LINE
8
DEFAULT_255_2_778
10
8.2856779
20
10.7785207
11
9.3968779
21
10.7785207
0
LINE
8
DEFAULT_255_2_778
10
9.0630779
20
8.6336207
11
7.8395779
21
8.6336207
0
LINE
8
DEFAULT_255_2_778
10
7.8395779
20
8.6336207
11
8.2856779
21
10.7785207
0
LINE
8
DEFAULT_255_2_778
10
3.3834779
20
2.8961207
11
6.6145779
21
2.8961207
0
LINE
8
DEFAULT_255_2_778
10
6.6145779
20
2.8961207
11
7.2831779
21
6.0991207
0
LINE
8
DEFAULT_255_2_778
10
7.2831779
20
6.0991207
11
9.4836779
21
6.0991207
0
LINE
8
DEFAULT_255_2_778
10
10.8764779
20
13.5085207
11
5.6091779
21
13.5085207
0
LINE
8
DEFAULT_255_2_778
10
5.6091779
20
13.5085207
11
3.3834779
21
2.8961207
0
ENDSEC
0
EOF