0
SECTION
2
HEADER
9
$MEASUREMENT
70
1
0
ENDSEC
0
SECTION
2
TABLES
0
TABLE
2
LTYPE
0
LTYPE
72
65
70
64
2
CONTINUOUS
3
______
73
0
40
0
0
ENDTAB
0
TABLE
2
LAYER
0
LAYER
2
DEFAULT_255_2_778
70
0
62
255
6
CONTINUOUS
0
ENDTAB
0
ENDSEC
0
SECTION
2
ENTITIES
0
ARC
8
DEFAULT_255_2_778
10
14.2252284
20
2.8273714
40
2.9726073
50
341.5720016
51
0.0692922
0
ARC
8
DEFAULT_255_2_778
10
14.238074
20
2.8277137
40
2.9605317
50
284.491144
51
341.4871304
0
ARC
8
DEFAULT_255_2_778
10
14.2370644
20
2.8509699
40
2.9833047
50
269.9513947
51
284.3981537
0
ARC
8
DEFAULT_255_2_778
10
3.2242386
20
2.8402716
40
2.9726073
50
251.5720016
51
270.0692922
0
ARC
8
DEFAULT_255_2_778
10
3.2245808
20
2.827426
40
2.9605317
50
194.491144
51
251.4871304
0
ARC
8
DEFAULT_255_2_778
10
3.247837
20
2.8284356
40
2.9833047
50
179.9513947
51
194.3981537
0
ARC
8
DEFAULT_255_2_778
10
3.2371387
20
13.8412614
40
2.9726073
50
161.5720016
51
180.0692922
0
ARC
8
DEFAULT_255_2_778
10
3.2242931
20
13.8409192
40
2.9605317
50
104.491144
51
161.4871304
0
ARC
8
DEFAULT_255_2_778
10
3.2253028
20
13.817663
40
2.9833047
50
89.9513947
51
104.3981537
0
ARC
8
DEFAULT_255_2_778
10
14.2381286
20
13.8283613
40
2.9726073
50
71.5720016
51
90.0692922
0
ARC
8
DEFAULT_255_2_778
10
14.2377863
20
13.8412069
40
2.9605317
50
14.491144
51
71.4871304
0
ARC
8
DEFAULT_255_2_778
10
14.2145301
20
13.8401972
40
2.9833047
50
359.9513947
51
14.3981537
0
LINE
8
DEFAULT_255_2_778
10
14.2345336
20
-0.1323336
11
3.2278336
21
-0.1323336
0
LINE
8
DEFAULT_255_2_778
10
0.2645336
20
2.8309664
11
0.2645336
21
13.8376664
0
LINE
8
DEFAULT_255_2_778
10
3.2278336
20
16.8009664
11
14.2345336
21
16.8009664
0
LINE
8
DEFAULT_255_2_778
10
17.1978336
20
13.8376664
11
17.1978336
21
2.8309664
0
ARC
8
DEFAULT_255_2_778
10
6.8319384
20
12.4884659
40
2.8918197
50
182.6252008
51
184.9469917
0
ARC
8
DEFAULT_255_2_778
10
8.9818135
20
12.6709425
40
5.0494232
50
184.9061927
51
186.4626217
0
ARC
8
DEFAULT_255_2_778
10
12.117102
20
13.0248065
40
8.2046177
50
186.4537036
51
187.6941101
0
ARC
8
DEFAULT_255_2_778
10
16.3356794
20
13.5908982
40
12.4610064
50
187.6766095
51
188.534356
0
ARC
8
DEFAULT_255_2_778
10
21.0629172
20
14.2969361
40
17.2406778
50
188.5233441
51
189.1107257
0
ARC
8
DEFAULT_255_2_778
10
27.08896
20
15.2649101
40
23.3439689
50
189.1146061
51
189.7243825
0
ARC
8
DEFAULT_255_2_778
10
35.4101408
20
16.6897809
40
31.7862617
50
189.7223581
51
190.2387661
0
ARC
8
DEFAULT_255_2_778
10
47.5909357
20
18.894605
40
44.1649933
50
190.2446947
51
190.8148871
0
ARC
8
DEFAULT_255_2_778
10
64.3967227
20
22.100863
40
61.2738961
50
190.8110818
51
191.263907
0
ARC
8
DEFAULT_255_2_778
10
80.2688114
20
25.2529535
40
77.4559483
50
191.2573274
51
191.5203068
0
ARC
8
DEFAULT_255_2_778
10
87.3995062
20
26.7010763
40
84.7322002
50
191.516818
51
191.5509242
0
ARC
8
DEFAULT_255_2_778
10
96.0387101
20
28.4719408
40
93.5510314
50
191.554045
51
191.8034171
0
ARC
8
DEFAULT_255_2_778
10
108.4647156
20
31.0658533
40
106.2448878
50
191.801945
51
191.9853263
0
ARC
8
DEFAULT_255_2_778
10
116.9048897
20
32.8562546
40
114.8728699
50
191.9846657
51
192.1239826
0
ARC
8
DEFAULT_255_2_778
10
121.3086532
20
33.8016493
40
119.3769684
50
192.1236923
51
192.2324319
0
ARC
8
DEFAULT_255_2_778
10
122.7113119
20
34.1054265
40
120.8121451
50
192.2322838
51
192.3185865
0
ARC
8
DEFAULT_255_2_778
10
120.9822512
20
33.7276415
40
119.0422942
50
192.3184919
51
192.3882952
0
ARC
8
DEFAULT_255_2_778
10
115.9290624
20
32.6171302
40
113.8685187
50
192.3880112
51
192.4724243
0
ARC
8
DEFAULT_255_2_778
10
106.1907493
20
30.4625318
40
103.8947012
50
192.4721103
51
192.5452788
0
ARC
8
DEFAULT_255_2_778
10
92.3165264
20
27.3751622
40
89.681119
50
192.5452644
51
192.6056557
0
ARC
8
DEFAULT_255_2_778
10
77.1066543
20
23.9742637
40
74.0956669
50
192.6060234
51
192.6484421
0
ARC
8
DEFAULT_255_2_778
10
57.8617142
20
19.6543647
40
54.3718425
50
192.6473544
51
192.6996478
0
ARC
8
DEFAULT_255_2_778
10
32.3979907
20
13.9156693
40
28.2694702
50
192.6989321
51
192.7439331
0
ARC
8
DEFAULT_255_2_778
10
17.4032949
20
10.5255256
40
12.8963127
50
192.7488753
51
192.7555975
0
ARC
8
DEFAULT_255_2_778
10
6.2400691
20
8.2577618
40
1.5289522
50
202.2788498
51
206.2207255
0
ARC
8
DEFAULT_255_2_778
10
5.7564642
20
8.01846
40
0.9893807
50
206.1624698
51
211.5146543
0
ARC
8
DEFAULT_255_2_778
10
5.4300608
20
7.8171416
40
0.6058878
50
211.4192594
51
218.9577352
0
ARC
8
DEFAULT_255_2_778
10
5.231183
20
7.6547548
40
0.3491404
50
218.7559148
51
230.4022995
0
ARC
8
DEFAULT_255_2_778
10
5.1321723
20
7.5328361
40
0.1920938
50
229.9791823
51
250.6144862
0
ARC
8
DEFAULT_255_2_778
10
5.1116184
20
7.4791723
40
0.1346593
50
251.285274
51
269.8368925
0
ARC
8
DEFAULT_255_2_778
10
5.1021195
20
7.5205156
40
0.1762378
50
272.9648162
51
315.0050208
0
ARC
8
DEFAULT_255_2_778
10
4.8775647
20
7.7661862
40
0.508956
50
313.3206269
51
329.9487022
0
ARC
8
DEFAULT_255_2_778
10
4.5127228
20
7.9948993
40
0.9394127
50
329.0176265
51
334.7336244
0
ARC
8
DEFAULT_255_2_778
10
4.388775
20
8.0558493
40
1.0775203
50
334.6158527
51
337.4008268
0
ARC
8
DEFAULT_255_2_778
10
4.5411875
20
7.9929475
40
0.9126389
50
337.3695942
51
339.1628752
0
ARC
8
DEFAULT_255_2_778
10
4.9597491
20
7.8341931
40
0.4649827
50
339.0992407
51
340.3815371
0
ARC
8
DEFAULT_255_2_778
10
-0.2360894
20
9.5622284
40
5.940545
50
341.5086229
51
344.0307306
0
ARC
8
DEFAULT_255_2_778
10
0.0679201
20
9.4752847
40
5.6243473
50
344.0302094
51
346.7247724
0
ARC
8
DEFAULT_255_2_778
10
0.3444725
20
9.4100765
40
5.3402113
50
346.724357
51
349.6028584
0
ARC
8
DEFAULT_255_2_778
10
0.5855616
20
9.3657511
40
5.0950814
50
349.6038513
51
352.5210188
0
ARC
8
DEFAULT_255_2_778
10
0.7827746
20
9.3396953
40
4.8961547
50
352.522942
51
355.3291547
0
ARC
8
DEFAULT_255_2_778
10
0.9503914
20
9.3260881
40
4.7279866
50
355.3280977
51
358.5388302
0
ARC
8
DEFAULT_255_2_778
10
1.0568903
20
9.3227924
40
4.6214383
50
358.5460074
51
359.9985923
0
ARC
8
DEFAULT_255_2_778
10
1.1635049
20
9.3237044
40
4.514824
50
359.9869859
51
4.6805855
0
ARC
8
DEFAULT_255_2_778
10
1.2727778
20
9.332388
40
4.4052068
50
4.6839947
51
9.6343015
0
ARC
8
DEFAULT_255_2_778
10
1.3182815
20
9.339781
40
4.3591077
50
9.6385954
51
14.4627126
0
ARC
8
DEFAULT_255_2_778
10
1.3115033
20
9.3377996
40
4.366166
50
14.4656761
51
19.082754
0
ARC
8
DEFAULT_255_2_778
10
1.2730194
20
9.3243823
40
4.4069217
50
19.084032
51
23.3669791
0
ARC
8
DEFAULT_255_2_778
10
1.2260249
20
9.304114
40
4.4581007
50
23.3665555
51
27.2516845
0
ARC
8
DEFAULT_255_2_778
10
1.1931761
20
9.2873341
40
4.4949869
50
27.2501024
51
30.6673377
0
ARC
8
DEFAULT_255_2_778
10
1.1876343
20
9.2841231
40
4.5013914
50
30.6665146
51
31.9288257
0
ARC
8
DEFAULT_255_2_778
10
1.2062057
20
9.2958917
40
4.4794058
50
31.9266983
51
34.8338063
0
ARC
8
DEFAULT_255_2_778
10
1.2713245
20
9.341337
40
4.3999975
50
34.8324219
51
37.1873648
0
ARC
8
DEFAULT_255_2_778
10
1.3794565
20
9.423432
40
4.2642325
50
37.1867661
51
39.111712
0
ARC
8
DEFAULT_255_2_778
10
1.5407937
20
9.5549534
40
4.0560798
50
39.1078594
51
41.076818
0
ARC
8
DEFAULT_255_2_778
10
1.7800805
20
9.7638739
40
3.7384231
50
41.072801
51
42.9307419
0
ARC
8
DEFAULT_255_2_778
10
2.0942758
20
10.0563684
40
3.3091543
50
42.9280556
51
44.5719377
0
ARC
8
DEFAULT_255_2_778
10
2.463224
20
10.4198917
40
2.7912045
50
44.571247
51
45.949242
0
ARC
8
DEFAULT_255_2_778
10
2.832821
20
10.8015478
40
2.2599199
50
45.9562025
51
46.9385134
0
ARC
8
DEFAULT_255_2_778
10
3.2747357
20
11.2758235
40
1.6116726
50
46.9045626
51
48.2080174
0
ARC
8
DEFAULT_255_2_778
10
3.8286075
20
11.8958725
40
0.7802676
50
48.1883159
51
49.2078315
0
ARC
8
DEFAULT_255_2_778
10
4.2337465
20
12.3650832
40
0.1603513
50
49.2725408
51
49.6092952
0
ARC
8
DEFAULT_255_2_778
10
3.5763438
20
11.1907967
40
1.5034259
50
59.5767791
51
62.740029
0
ARC
8
DEFAULT_255_2_778
10
3.8027132
20
11.6319876
40
1.0075514
50
62.6917007
51
67.010921
0
ARC
8
DEFAULT_255_2_778
10
3.9460811
20
11.9716331
40
0.6388879
50
66.950929
51
72.7517875
0
ARC
8
DEFAULT_255_2_778
10
4.0220866
20
12.2198439
40
0.3793041
50
72.5992311
51
81.3802153
0
ARC
8
DEFAULT_255_2_778
10
4.0444743
20
12.3629185
40
0.2344911
50
81.5491176
51
89.727211
0
ARC
8
DEFAULT_255_2_778
10
4.0421012
20
12.4655672
40
0.1318858
50
88.4838623
51
114.3197928
0
ARC
8
DEFAULT_255_2_778
10
4.0478932
20
12.4819629
40
0.1199351
50
120.0765994
51
182.5818588
0
ARC
8
DEFAULT_255_2_778
10
4.1983389
20
12.4605185
40
0.2707347
50
176.603081
51
180.04426
0
ARC
8
DEFAULT_255_2_778
10
4.2891049
20
12.4622675
40
0.3615059
50
180.3103514
51
188.7133645
0
ARC
8
DEFAULT_255_2_778
10
4.3635859
20
12.4720832
40
0.4366173
50
188.5059181
51
191.1626617
0
ARC
8
DEFAULT_255_2_778
10
4.3537184
20
12.4699466
40
0.4265227
50
191.1376909
51
193.6921856
0
ARC
8
DEFAULT_255_2_778
10
4.2638792
20
12.4479291
40
0.3340251
50
193.670512
51
195.4037587
0
ARC
8
DEFAULT_255_2_778
10
4.0941043
20
12.4009363
40
0.1578668
50
195.3278266
51
196.6461964
0
ARC
8
DEFAULT_255_2_778
10
15.6633969
20
12.4235635
40
0.5639837
50
54.3965075
51
55.0286573
0
ARC
8
DEFAULT_255_2_778
10
15.2604501
20
11.8590766
40
1.2575334
50
53.7619236
51
54.4423776
0
ARC
8
DEFAULT_255_2_778
10
14.930263
20
11.4088751
40
1.8158387
50
52.5629213
51
53.7560742
0
ARC
8
DEFAULT_255_2_778
10
14.7356934
20
11.1539596
40
2.136524
50
50.9685656
51
52.5754753
0
ARC
8
DEFAULT_255_2_778
10
14.7525436
20
11.1734232
40
2.1107935
50
48.4556994
51
50.9911538
0
ARC
8
DEFAULT_255_2_778
10
14.9374114
20
11.3816176
40
1.8323677
50
45.890964
51
48.4647257
0
ARC
8
DEFAULT_255_2_778
10
15.4714573
20
11.9087326
40
1.0823072
50
33.0689452
51
46.7680854
0
ARC
8
DEFAULT_255_2_778
10
15.9099646
20
12.2087123
40
0.5512815
50
26.5963812
51
31.809519
0
ARC
8
DEFAULT_255_2_778
10
16.0625204
20
12.2831292
40
0.3815562
50
16.0208369
51
26.8602709
0
ARC
8
DEFAULT_255_2_778
10
16.1926192
20
12.3200856
40
0.2463111
50
0.516565
51
16.1102826
0
ARC
8
DEFAULT_255_2_778
10
16.2575396
20
12.3209825
40
0.1813855
50
318.1390515
51
0.4181387
0
ARC
8
DEFAULT_255_2_778
10
16.1844719
20
12.3850904
40
0.2785864
50
301.6884392
51
318.3476939
0
ARC
8
DEFAULT_255_2_778
10
16.0824105
20
12.5461428
40
0.4692468
50
291.8039232
51
301.9625564
0
ARC
8
DEFAULT_255_2_778
10
15.9735499
20
12.8129059
40
0.7573626
50
285.176229
51
291.9543635
0
ARC
8
DEFAULT_255_2_778
10
15.8670573
20
13.1998844
40
1.1587247
50
280.3223703
51
285.2490177
0
ARC
8
DEFAULT_255_2_778
10
15.7786526
20
13.6724816
40
1.6395157
50
277.288604
51
280.4024302
0
ARC
8
DEFAULT_255_2_778
10
16.1972613
20
10.2788479
40
1.7798701
50
96.7955905
51
97.4833178
0
ARC
8
DEFAULT_255_2_778
10
16.5443886
20
7.6135762
40
4.4676512
50
97.4455163
51
98.2620451
0
ARC
8
DEFAULT_255_2_778
10
16.8857825
20
5.2524463
40
6.8533342
50
98.2499621
51
99.1210713
0
ARC
8
DEFAULT_255_2_778
10
17.1898969
20
3.3510573
40
8.77889
50
99.1136218
51
99.9770123
0
ARC
8
DEFAULT_255_2_778
10
17.4464089
20
1.8887237
40
10.2635509
50
99.9729881
51
100.8256557
0
ARC
8
DEFAULT_255_2_778
10
17.6593564
20
0.7726853
40
11.3997233
50
100.8233544
51
101.6630093
0
ARC
8
DEFAULT_255_2_778
10
17.8697554
20
-0.242852
40
12.4368266
50
101.6665059
51
102.9177715
0
ARC
8
DEFAULT_255_2_778
10
18.0563929
20
-1.0598247
40
13.2748466
50
102.9146545
51
104.1259907
0
ARC
8
DEFAULT_255_2_778
10
18.1940164
20
-1.6066433
40
13.8387178
50
104.1260242
51
105.6965957
0
ARC
8
DEFAULT_255_2_778
10
18.2740852
20
-1.8937117
40
14.1367427
50
105.6942389
51
107.1734685
0
ARC
8
DEFAULT_255_2_778
10
18.2896387
20
-1.9453435
40
14.1906651
50
107.1719139
51
109.1850198
0
ARC
8
DEFAULT_255_2_778
10
18.2243255
20
-1.7597741
40
13.9939386
50
109.182137
51
111.5443858
0
ARC
8
DEFAULT_255_2_778
10
18.0669039
20
-1.3630024
40
13.5670794
50
111.5413456
51
114.1999885
0
ARC
8
DEFAULT_255_2_778
10
17.811554
20
-0.7977689
40
12.946845
50
114.1946443
51
117.4400463
0
ARC
8
DEFAULT_255_2_778
10
17.4656
20
-0.1329965
40
12.1974412
50
117.4367983
51
121.0540722
0
ARC
8
DEFAULT_255_2_778
10
17.1650854
20
0.371556
40
11.6101815
50
121.068022
51
123.083545
0
ARC
8
DEFAULT_255_2_778
10
16.9394312
20
0.7174395
40
11.1971982
50
123.0821854
51
125.3912827
0
ARC
8
DEFAULT_255_2_778
10
16.6860563
20
1.0733464
40
10.7603133
50
125.388997
51
128.1472223
0
ARC
8
DEFAULT_255_2_778
10
16.4183592
20
1.4140655
40
10.3270109
50
128.1468495
51
131.1253157
0
ARC
8
DEFAULT_255_2_778
10
16.2056031
20
1.6593241
40
10.0023328
50
131.1313026
51
133.1346677
0
ARC
8
DEFAULT_255_2_778
10
11.3218095
20
6.729853
40
2.9645879
50
131.2568725
51
131.5250345
0
ARC
8
DEFAULT_255_2_778
10
14.5391556
20
3.0939025
40
7.8196318
50
131.5123932
51
131.8577703
0
ARC
8
DEFAULT_255_2_778
10
17.6666407
20
-0.3988413
40
12.5079599
50
131.8518643
51
132.2198514
0
ARC
8
DEFAULT_255_2_778
10
20.4201676
20
-3.4346363
40
16.6064915
50
132.2170892
51
132.6040563
0
ARC
8
DEFAULT_255_2_778
10
22.7049527
20
-5.9200397
40
19.9825056
50
132.601977
51
132.9817572
0
ARC
8
DEFAULT_255_2_778
10
24.5344768
20
-7.8839541
40
22.6665545
50
132.9804868
51
133.3521526
0
ARC
8
DEFAULT_255_2_778
10
25.9790741
20
-9.4146112
40
24.771257
50
133.3513894
51
133.7145282
0
ARC
8
DEFAULT_255_2_778
10
27.1220795
20
-10.6104811
40
26.4255141
50
133.7139438
51
134.0679135
0
ARC
8
DEFAULT_255_2_778
10
28.1968416
20
-11.7200027
40
27.9702314
50
134.0690395
51
134.5904305
0
ARC
8
DEFAULT_255_2_778
10
29.1517886
20
-12.6889191
40
29.3306442
50
134.5901311
51
135.1740232
0
ARC
8
DEFAULT_255_2_778
10
29.800721
20
-13.3343106
40
30.2458728
50
135.1735005
51
135.8050746
0
ARC
8
DEFAULT_255_2_778
10
30.120509
20
-13.6456452
40
30.6921837
50
135.8045266
51
136.3907231
0
ARC
8
DEFAULT_255_2_778
10
30.162495
20
-13.6859698
40
30.7503975
50
136.3902793
51
137.2119132
0
ARC
8
DEFAULT_255_2_778
10
29.8758987
20
-13.4214294
40
30.3603733
50
137.2108883
51
138.1750126
0
ARC
8
DEFAULT_255_2_778
10
29.3389031
20
-12.9406422
40
29.6395956
50
138.1753527
51
138.9547923
0
ARC
8
DEFAULT_255_2_778
10
28.4974582
20
-12.210333
40
28.5254242
50
138.9512869
51
140.2220107
0
ARC
8
DEFAULT_255_2_778
10
27.2134717
20
-11.1425128
40
26.8554361
50
140.2201716
51
141.6296405
0
ARC
8
DEFAULT_255_2_778
10
25.773462
20
-10.0024022
40
25.0187325
50
141.6296143
51
143.0343233
0
ARC
8
DEFAULT_255_2_778
10
24.0062791
20
-8.6773092
40
22.8099342
50
143.0244574
51
145.0971618
0
ARC
8
DEFAULT_255_2_778
10
21.1630258
20
-6.7142778
40
19.3549028
50
145.0470063
51
149.0967847
0
ARC
8
DEFAULT_255_2_778
10
17.3481921
20
-4.4505225
40
14.9190065
50
149.0319793
51
155.06096
0
ARC
8
DEFAULT_255_2_778
10
14.5977921
20
-3.1444647
40
11.8743834
50
155.179468
51
158.5725741
0
ARC
8
DEFAULT_255_2_778
10
3.5465855
20
1.3665061
40
0.1730095
50
265.4782474
51
269.1945785
0
ARC
8
DEFAULT_255_2_778
10
3.5597757
20
1.5464007
40
0.3533855
50
259.615853
51
265.6457817
0
ARC
8
DEFAULT_255_2_778
10
3.5701759
20
1.6075123
40
0.4153716
50
250.2324056
51
259.7241898
0
ARC
8
DEFAULT_255_2_778
10
3.5632425
20
1.5899227
40
0.3964742
50
237.4474
51
250.3156341
0
ARC
8
DEFAULT_255_2_778
10
3.5513854
20
1.5706211
40
0.373825
50
218.7326247
51
237.3874121
0
ARC
8
DEFAULT_255_2_778
10
3.58636
20
1.5968008
40
0.4174906
50
202.1828069
51
218.5321122
0
ARC
8
DEFAULT_255_2_778
10
3.7065098
20
1.6459449
40
0.5473024
50
190.0402265
51
202.197734
0
ARC
8
DEFAULT_255_2_778
10
3.9185546
20
1.6843112
40
0.7627891
50
180.9271819
51
190.101138
0
ARC
8
DEFAULT_255_2_778
10
4.0880048
20
1.6912014
40
0.9323378
50
179.9946248
51
181.1820471
0
ARC
8
DEFAULT_255_2_778
10
4.2085826
20
1.6900964
40
1.0529164
50
175.9072895
51
179.9351104
0
ARC
8
DEFAULT_255_2_778
10
4.4287529
20
1.6745319
40
1.273636
50
172.4141393
51
175.9157862
0
ARC
8
DEFAULT_255_2_778
10
4.6897981
20
1.639887
40
1.5369701
50
169.2764987
51
172.4185882
0
ARC
8
DEFAULT_255_2_778
10
4.9470651
20
1.5920255
40
1.7986501
50
167.3241059
51
169.3033838
0
ARC
8
DEFAULT_255_2_778
10
7.6900543
20
0.9718091
40
4.610883
50
165.3148543
51
167.2844667
0
ARC
8
DEFAULT_255_2_778
10
9.3189389
20
0.5466794
40
6.2943315
50
163.4083518
51
165.3302536
0
ARC
8
DEFAULT_255_2_778
10
10.8164849
20
0.1015995
40
7.8566181
50
161.5027043
51
163.4161812
0
ARC
8
DEFAULT_255_2_778
10
12.1663578
20
-0.3487005
40
9.2796169
50
159.7123415
51
161.5102593
0
ARC
8
DEFAULT_255_2_778
10
13.3632816
20
-0.7902468
40
10.555387
50
158.0217652
51
159.7170063
0
ARC
8
DEFAULT_255_2_778
10
14.5680256
20
-1.2773247
40
11.8548686
50
156.0167822
51
158.0179017
0
ARC
8
DEFAULT_255_2_778
10
15.8325629
20
-1.8396132
40
13.2387843
50
153.9725242
51
156.017874
0
ARC
8
DEFAULT_255_2_778
10
17.0756012
20
-2.4462577
40
14.6219553
50
151.9201621
51
153.9738051
0
ARC
8
DEFAULT_255_2_778
10
18.2456777
20
-3.0693897
40
15.9476143
50
150.0530017
51
151.9236544
0
ARC
8
DEFAULT_255_2_778
10
19.3911554
20
-3.7296353
40
17.2697503
50
148.06777
51
150.0520936
0
ARC
8
DEFAULT_255_2_778
10
20.5914326
20
-4.4776972
40
18.6840564
50
146.0451751
51
148.067723
0
ARC
8
DEFAULT_255_2_778
10
21.7449525
20
-5.2530567
40
20.0739445
50
144.2796996
51
146.0484351
0
ARC
8
DEFAULT_255_2_778
10
22.9016071
20
-6.0855987
40
21.4990677
50
142.3484056
51
144.2780122
0
ARC
8
DEFAULT_255_2_778
10
24.1533891
20
-7.0514715
40
23.0801649
50
140.403767
51
142.3482604
0
ARC
8
DEFAULT_255_2_778
10
25.4224147
20
-8.1004691
40
24.7266222
50
138.5740636
51
140.4050011
0
ARC
8
DEFAULT_255_2_778
10
26.6331927
20
-9.1675903
40
26.3405398
50
136.9543061
51
138.5761802
0
ARC
8
DEFAULT_255_2_778
10
27.8943335
20
-10.3469043
40
28.0671713
50
135.1451886
51
136.9522183
0
ARC
8
DEFAULT_255_2_778
10
29.1630543
20
-11.6068914
40
29.8552478
50
133.6588852
51
135.1483449
0
ARC
8
DEFAULT_255_2_778
10
30.3600618
20
-12.8612401
40
31.5890925
50
132.1862033
51
133.6589466
0
ARC
8
DEFAULT_255_2_778
10
10.5153589
20
9.0411936
40
2.0335758
50
132.006788
51
132.3031747
0
ARC
8
DEFAULT_255_2_778
10
12.609435
20
6.7184589
40
5.160915
50
131.6798117
51
132.0247559
0
ARC
8
DEFAULT_255_2_778
10
14.4302613
20
4.6746047
40
7.8982033
50
131.3455502
51
131.685826
0
ARC
8
DEFAULT_255_2_778
10
15.8712604
20
3.0376561
40
10.0790469
50
131.0135304
51
131.3480991
0
ARC
8
DEFAULT_255_2_778
10
17.0141875
20
1.7239363
40
11.8203515
50
130.6870594
51
131.0149315
0
ARC
8
DEFAULT_255_2_778
10
17.9029585
20
0.690661
40
13.1832792
50
130.3674163
51
130.6884433
0
ARC
8
DEFAULT_255_2_778
10
18.7906316
20
-0.354035
40
14.5541742
50
129.893407
51
130.3661897
0
ARC
8
DEFAULT_255_2_778
10
19.580157
20
-1.2983726
40
15.7850778
50
129.3625982
51
129.8937447
0
ARC
8
DEFAULT_255_2_778
10
20.1477085
20
-1.9900046
40
16.6797675
50
128.7864717
51
129.3631141
0
ARC
8
DEFAULT_255_2_778
10
20.4727038
20
-2.3939721
40
17.198238
50
128.2499137
51
128.7873912
0
ARC
8
DEFAULT_255_2_778
10
20.6302585
20
-2.5936871
40
17.4526187
50
127.493822
51
128.250204
0
ARC
8
DEFAULT_255_2_778
10
20.5982185
20
-2.5513519
40
17.3995273
50
126.6025814
51
127.4949656
0
ARC
8
DEFAULT_255_2_778
10
20.4012278
20
-2.2860958
40
17.0691242
50
125.8771302
51
126.6026472
0
ARC
8
DEFAULT_255_2_778
10
20.0471218
20
-1.7948645
40
16.4635682
50
124.6902601
51
125.8804786
0
ARC
8
DEFAULT_255_2_778
10
19.4861671
20
-0.9834582
40
15.4771353
50
123.3606078
51
124.692347
0
ARC
8
DEFAULT_255_2_778
10
18.822793
20
0.0254309
40
14.2696908
50
121.8326604
51
123.3635284
0
ARC
8
DEFAULT_255_2_778
10
17.9762728
20
1.3959846
40
12.6587909
50
119.4498196
51
121.8493539
0
ARC
8
DEFAULT_255_2_778
10
16.3954091
20
4.2765505
40
9.3732674
50
111.979812
51
119.6922932
0
ARC
8
DEFAULT_255_2_778
10
15.3903739
20
6.6728462
40
6.7750711
50
108.7480674
51
111.6829775
0
ARC
8
DEFAULT_255_2_778
10
15.0549994
20
7.6648472
40
5.7279129
50
105.1440862
51
108.760638
0
ARC
8
DEFAULT_255_2_778
10
14.8157104
20
8.5485006
40
4.8124335
50
101.2797044
51
105.1425765
0
ARC
8
DEFAULT_255_2_778
10
14.6701871
20
9.2789789
40
4.0676012
50
96.9917656
51
101.2820747
0
ARC
8
DEFAULT_255_2_778
10
14.5946459
20
9.8996143
40
3.4423858
50
91.9294992
51
97.0012259
0
ARC
8
DEFAULT_255_2_778
10
14.5792455
20
10.2557048
40
3.0859805
50
90.0083695
51
91.8663335
0
ARC
8
DEFAULT_255_2_778
10
14.5841366
20
10.6036863
40
2.7380041
50
82.6314868
51
90.1117852
0
ARC
8
DEFAULT_255_2_778
10
14.6690154
20
11.1609724
40
2.1744715
50
61.8031937
51
82.9662711
0
ARC
8
DEFAULT_255_2_778
10
14.7203593
20
11.2809016
40
2.044546
50
53.2743308
51
61.4832764
0
ARC
8
DEFAULT_255_2_778
10
14.6911257
20
11.2404376
40
2.0944596
50
51.7792362
51
53.2952841
0
ENDSEC
0
EOF