0
SECTION
2
HEADER
9
$MEASUREMENT
70
1
0
ENDSEC
0
SECTION
2
TABLES
0
TABLE
2
LTYPE
0
LTYPE
72
65
70
64
2
CONTINUOUS
3
______
73
0
40
0
0
ENDTAB
0
TABLE
2
LAYER
0
LAYER
2
DEFAULT_255_2_778
70
0
62
255
6
CONTINUOUS
0
ENDTAB
0
ENDSEC
0
SECTION
2
ENTITIES
0
ARC
8
DEFAULT_255_2_778
10
8.6789207
20
8.3306279
40
8.5189137
50
349.8916998
51
0.0244715
0
ARC
8
DEFAULT_255_2_778
10
8.7923296
20
8.3123843
40
8.4040633
50
336.5794618
51
349.8784471
0
ARC
8
DEFAULT_255_2_778
10
8.7089231
20
8.3562203
40
8.4980249
50
295.0595426
51
336.5317788
0
ARC
8
DEFAULT_255_2_778
10
8.7532093
20
8.2731895
40
8.4040535
50
281.2614524
51
295.0258023
0
ARC
8
DEFAULT_255_2_778
10
8.7367132
20
8.3673857
40
8.4996579
50
270.7712099
51
281.24651
0
ARC
8
DEFAULT_255_2_778
10
8.7312725
20
8.5077285
40
8.640062
50
269.9997418
51
270.7947593
0
ARC
8
DEFAULT_255_2_778
10
8.7275934
20
8.3868926
40
8.5192269
50
259.8918861
51
270.0244817
0
ARC
8
DEFAULT_255_2_778
10
8.7093275
20
8.2733634
40
8.4042542
50
246.5797668
51
259.8786417
0
ARC
8
DEFAULT_255_2_778
10
8.7530737
20
8.3565924
40
8.4980172
50
205.0596821
51
246.5321601
0
ARC
8
DEFAULT_255_2_778
10
8.6700217
20
8.3122863
40
8.4040182
50
191.26147
51
205.0258821
0
ARC
8
DEFAULT_255_2_778
10
8.7642291
20
8.3287854
40
8.4996342
50
180.7712025
51
191.246532
0
ARC
8
DEFAULT_255_2_778
10
8.9045957
20
8.3342275
40
8.640062
50
179.9997418
51
180.7947593
0
ARC
8
DEFAULT_255_2_778
10
8.7831746
20
8.3379034
40
8.5186418
50
169.8911626
51
180.0244617
0
ARC
8
DEFAULT_255_2_778
10
8.6699572
20
8.3561104
40
8.4039864
50
156.5785151
51
169.8778864
0
ARC
8
DEFAULT_255_2_778
10
8.7537757
20
8.3120601
40
8.4984115
50
115.0595402
51
156.5306229
0
ARC
8
DEFAULT_255_2_778
10
8.7093728
20
8.395365
40
8.4041425
50
101.261768
51
115.0258711
0
ARC
8
DEFAULT_255_2_778
10
8.7257651
20
8.3016823
40
8.4992229
50
90.7712906
51
101.2468104
0
ARC
8
DEFAULT_255_2_778
10
8.7311948
20
8.1615986
40
8.6393677
50
89.9997428
51
90.7947909
0
ARC
8
DEFAULT_255_2_778
10
8.7348594
20
8.2834151
40
8.5175521
50
79.890514
51
90.0243901
0
ARC
8
DEFAULT_255_2_778
10
8.752925
20
8.3958608
40
8.4036813
50
66.5778637
51
79.8772024
0
ARC
8
DEFAULT_255_2_778
10
8.7085724
20
8.3113758
40
8.4988381
50
25.0607888
51
66.529897
0
ARC
8
DEFAULT_255_2_778
10
8.7923869
20
8.3560408
40
8.4039963
50
11.2625669
51
25.0269861
0
ARC
8
DEFAULT_255_2_778
10
8.6990934
20
8.3397306
40
8.498679
50
0.771369
51
11.2475693
0
ARC
8
DEFAULT_255_2_778
10
8.5626216
20
8.3343196
40
8.635212
50
359.9996471
51
0.7950778
0
ARC
8
DEFAULT_255_2_778
10
9.4927488
20
6.9928188
40
2.7270663
50
0.0014699
51
0.1950422
0
ARC
8
DEFAULT_255_2_778
10
10.2864542
20
6.9770943
40
1.9334252
50
351.3905681
51
0.4680641
0
ARC
8
DEFAULT_255_2_778
10
11.1976102
20
6.8323653
40
1.0108929
50
334.0435803
51
351.7703037
0
ARC
8
DEFAULT_255_2_778
10
11.4657181
20
6.7135422
40
0.7178992
50
293.9973083
51
333.2047186
0
ARC
8
DEFAULT_255_2_778
10
11.24454
20
7.1696776
40
1.224672
50
282.0951915
51
294.7717594
0
ARC
8
DEFAULT_255_2_778
10
11.049625
20
8.0447544
40
2.1211769
50
274.5186736
51
282.2904171
0
ARC
8
DEFAULT_255_2_778
10
10.9291878
20
9.4636361
40
3.5451465
50
269.813743
51
274.6524555
0
ARC
8
DEFAULT_255_2_778
10
10.9178975
20
10.5746794
40
4.6561711
50
269.4409943
51
269.9971179
0
ARC
8
DEFAULT_255_2_778
10
10.9200446
20
10.8149165
40
4.8964177
50
269.2645911
51
269.443297
0
ARC
8
DEFAULT_255_2_778
10
12.6925328
20
6.6376931
40
0.7166438
50
268.4780876
51
270.0039926
0
ARC
8
DEFAULT_255_2_778
10
12.6900231
20
6.7306616
40
0.8096165
50
270.1811442
51
280.6147741
0
ARC
8
DEFAULT_255_2_778
10
12.6715699
20
6.8391123
40
0.9196125
50
280.5001522
51
286.6956378
0
ARC
8
DEFAULT_255_2_778
10
12.6512015
20
6.9046078
40
0.9881988
50
286.7358627
51
312.9941463
0
ARC
8
DEFAULT_255_2_778
10
12.7061472
20
6.8464235
40
0.9081727
50
312.9618824
51
339.6149846
0
ARC
8
DEFAULT_255_2_778
10
12.6440365
20
6.8647219
40
0.9727778
50
339.8789948
51
358.1319561
0
ARC
8
DEFAULT_255_2_778
10
12.5245339
20
6.8742112
40
1.0925405
50
357.8388692
51
359.3282403
0
ARC
8
DEFAULT_255_2_778
10
8.9221361
20
9.7852244
40
0.8370224
50
218.076401
51
270.0248643
0
ARC
8
DEFAULT_255_2_778
10
8.9195777
20
9.7856592
40
0.8352787
50
179.9490421
51
218.2081086
0
ARC
8
DEFAULT_255_2_778
10
8.9214779
20
9.7860946
40
0.8371787
50
128.0635149
51
179.9789569
0
ARC
8
DEFAULT_255_2_778
10
8.9217335
20
9.7887721
40
0.8352303
50
89.9474699
51
128.1905644
0
ARC
8
DEFAULT_255_2_778
10
8.9227389
20
9.7866168
40
0.8373853
50
38.1106012
51
90.0163928
0
ARC
8
DEFAULT_255_2_778
10
8.9259383
20
9.7867932
40
0.8347611
50
359.9731523
51
38.2366076
0
ARC
8
DEFAULT_255_2_778
10
8.9235803
20
9.7860437
40
0.8371191
50
308.0796222
51
0.0245283
0
ARC
8
DEFAULT_255_2_778
10
8.9234097
20
9.7831515
40
0.8349498
50
269.9375241
51
308.2112414
0
ARC
8
DEFAULT_255_2_778
10
7.0253236
20
8.729756
40
4.3194522
50
89.9034905
51
103.2579329
0
ARC
8
DEFAULT_255_2_778
10
6.9317695
20
9.1101812
40
3.9277128
50
103.2022702
51
120.7487157
0
ARC
8
DEFAULT_255_2_778
10
6.6900076
20
9.4884663
40
3.479031
50
120.5121036
51
159.3928997
0
ARC
8
DEFAULT_255_2_778
10
6.8197787
20
9.4536164
40
3.612788
50
159.5999221
51
173.2162454
0
ARC
8
DEFAULT_255_2_778
10
7.1507609
20
9.4095359
40
3.9466628
50
173.1483694
51
180.0454952
0
ARC
8
DEFAULT_255_2_778
10
7.4160775
20
9.3970046
40
4.2119887
50
179.8721657
51
189.707511
0
ARC
8
DEFAULT_255_2_778
10
6.8295287
20
9.2947124
40
3.6165905
50
189.6770221
51
202.1816637
0
ARC
8
DEFAULT_255_2_778
10
6.4016146
20
9.1170586
40
3.153275
50
202.1280745
51
221.0875855
0
ARC
8
DEFAULT_255_2_778
10
6.3075102
20
9.0519614
40
3.0395922
50
221.3285323
51
248.9933879
0
ARC
8
DEFAULT_255_2_778
10
6.456495
20
9.4206834
40
3.437223
50
248.8782834
51
261.5127792
0
ARC
8
DEFAULT_255_2_778
10
9.7365098
20
7.1379599
40
1.2210496
50
275.1303921
51
294.9229649
0
ARC
8
DEFAULT_255_2_778
10
9.8842933
20
6.8485631
40
0.8964083
50
294.1514935
51
355.5713823
0
ARC
8
DEFAULT_255_2_778
10
9.7473192
20
6.8683015
40
1.0345376
50
355.0672411
51
359.3963449
0
LINE
8
DEFAULT_255_2_778
10
12.4583993
20
13.0492021
11
11.0761993
21
13.0492021
0
LINE
8
DEFAULT_255_2_778
10
11.0761993
20
13.0492021
11
13.1769993
21
8.2721021
0
LINE
8
DEFAULT_255_2_778
10
13.1769993
20
8.2721021
11
12.2197993
21
8.2721021
0
LINE
8
DEFAULT_255_2_778
10
12.2197993
20
8.2721021
11
12.2197993
21
7.0021021
0
LINE
8
DEFAULT_255_2_778
10
10.8571993
20
5.9189021
11
10.8571993
21
3.4734021
0
LINE
8
DEFAULT_255_2_778
10
10.8571993
20
3.4734021
11
12.2268993
21
3.4734021
0
LINE
8
DEFAULT_255_2_778
10
12.2268993
20
3.4734021
11
12.2268993
21
5.9213021
0
LINE
8
DEFAULT_255_2_778
10
12.2268993
20
5.9213021
11
12.6734993
21
5.9213021
0
LINE
8
DEFAULT_255_2_778
10
13.6169993
20
6.8614021
11
13.6169993
21
8.2716021
0
LINE
8
DEFAULT_255_2_778
10
13.6169993
20
8.2716021
11
14.5488993
21
8.2716021
0
LINE
8
DEFAULT_255_2_778
10
14.5488993
20
8.2716021
11
12.4583993
21
13.0492021
0
LINE
8
DEFAULT_255_2_778
10
9.5929993
20
13.0492021
11
7.0325993
21
13.0492021
0
LINE
8
DEFAULT_255_2_778
10
5.9491993
20
6.0211021
11
5.9491993
21
3.4763021
0
LINE
8
DEFAULT_255_2_778
10
5.9491993
20
3.4763021
11
9.3709993
21
3.4763021
0
LINE
8
DEFAULT_255_2_778
10
9.3709993
20
3.4763021
11
9.3709993
21
5.9218021
0
LINE
8
DEFAULT_255_2_778
10
9.3709993
20
5.9218021
11
9.8456993
21
5.9218021
0
LINE
8
DEFAULT_255_2_778
10
10.7817993
20
6.8574021
11
10.7817993
21
8.2721021
0
LINE
8
DEFAULT_255_2_778
10
10.7817993
20
8.2721021
11
11.7138993
21
8.2721021
0
LINE
8
DEFAULT_255_2_778
10
11.7138993
20
8.2721021
11
9.5929993
21
13.0492021
0
ENDSEC
0
EOF