0
SECTION
2
HEADER
9
$MEASUREMENT
70
1
0
ENDSEC
0
SECTION
2
TABLES
0
TABLE
2
LTYPE
0
LTYPE
72
65
70
64
2
CONTINUOUS
3
______
73
0
40
0
0
ENDTAB
0
TABLE
2
LAYER
0
LAYER
2
DEFAULT_255_2_778
70
0
62
255
6
CONTINUOUS
0
ENDTAB
0
ENDSEC
0
SECTION
2
ENTITIES
0
LINE
8
DEFAULT_255_2_778
10
1.8255401
20
4.414494
11
2.0589401
21
4.270294
0
LINE
8
DEFAULT_255_2_778
10
2.0589401
20
4.270294
11
4.9931401
21
4.270294
0
LINE
8
DEFAULT_255_2_778
10
4.9931401
20
4.270294
11
5.0823401
21
4.126094
0
LINE
8
DEFAULT_255_2_778
10
5.0823401
20
4.126094
11
7.4603401
21
4.126094
0
LINE
8
DEFAULT_255_2_778
10
7.4603401
20
4.126094
11
7.4056401
21
4.057594
0
LINE
8
DEFAULT_255_2_778
10
7.4056401
20
4.057594
11
9.9998401
21
4.057594
0
LINE
8
DEFAULT_255_2_778
10
9.9998401
20
4.057594
11
10.6242401
21
4.414494
0
LINE
8
DEFAULT_255_2_778
10
10.6242401
20
4.414494
11
1.8255401
21
4.414494
0
LINE
8
DEFAULT_255_2_778
10
4.7425401
20
2.733094
11
5.7789401
21
2.733094
0
LINE
8
DEFAULT_255_2_778
10
5.7789401
20
2.733094
11
5.8681401
21
2.571694
0
LINE
8
DEFAULT_255_2_778
10
5.8681401
20
2.571694
11
6.6367401
21
2.571694
0
LINE
8
DEFAULT_255_2_778
10
6.6367401
20
2.571694
11
6.5817401
21
2.503194
0
LINE
8
DEFAULT_255_2_778
10
6.5817401
20
2.503194
11
7.3368401
21
2.503194
0
LINE
8
DEFAULT_255_2_778
10
7.3368401
20
2.503194
11
7.9990401
21
2.880694
0
LINE
8
DEFAULT_255_2_778
10
7.9990401
20
2.880694
11
4.5092401
21
2.880694
0
LINE
8
DEFAULT_255_2_778
10
4.5092401
20
2.880694
11
4.7425401
21
2.733094
0
LINE
8
DEFAULT_255_2_778
10
3.8845401
20
3.233994
11
5.5318401
21
3.233994
0
LINE
8
DEFAULT_255_2_778
10
5.5318401
20
3.233994
11
5.6003401
21
3.089794
0
LINE
8
DEFAULT_255_2_778
10
5.6003401
20
3.089794
11
6.9044401
21
3.089794
0
LINE
8
DEFAULT_255_2_778
10
6.9044401
20
3.089794
11
6.8700401
21
3.021194
0
LINE
8
DEFAULT_255_2_778
10
6.8700401
20
3.021194
11
8.2427401
21
3.021194
0
LINE
8
DEFAULT_255_2_778
10
8.2427401
20
3.021194
11
8.8674401
21
3.378194
0
LINE
8
DEFAULT_255_2_778
10
8.8674401
20
3.378194
11
3.6167401
21
3.378194
0
LINE
8
DEFAULT_255_2_778
10
3.6167401
20
3.378194
11
3.8845401
21
3.233994
0
LINE
8
DEFAULT_255_2_778
10
9.1246401
20
3.518894
11
9.7868401
21
3.913694
0
LINE
8
DEFAULT_255_2_778
10
9.7868401
20
3.913694
11
2.7039401
21
3.913694
0
LINE
8
DEFAULT_255_2_778
10
2.7039401
20
3.913694
11
2.9545401
21
3.769494
0
LINE
8
DEFAULT_255_2_778
10
2.9545401
20
3.769494
11
5.2434401
21
3.769494
0
LINE
8
DEFAULT_255_2_778
10
5.2434401
20
3.769494
11
5.3463401
21
3.590894
0
LINE
8
DEFAULT_255_2_778
10
5.3463401
20
3.590894
11
7.1719401
21
3.590894
0
LINE
8
DEFAULT_255_2_778
10
7.1719401
20
3.590894
11
7.1172401
21
3.522394
0
LINE
8
DEFAULT_255_2_778
10
7.1172401
20
3.522394
11
9.1246401
21
3.518894
0
LINE
8
DEFAULT_255_2_778
10
5.6929401
20
2.214794
11
6.0877401
21
2.214794
0
LINE
8
DEFAULT_255_2_778
10
6.0877401
20
2.214794
11
6.3038401
21
1.905994
0
LINE
8
DEFAULT_255_2_778
10
6.3038401
20
1.905994
11
7.1447401
21
2.352094
0
LINE
8
DEFAULT_255_2_778
10
7.1447401
20
2.352094
11
5.4013401
21
2.352094
0
LINE
8
DEFAULT_255_2_778
10
5.4013401
20
2.352094
11
5.6929401
21
2.214794
0
LINE
8
DEFAULT_255_2_778
10
4.6565401
20
5.303294
11
5.3016401
21
5.303294
0
LINE
8
DEFAULT_255_2_778
10
5.3016401
20
5.303294
11
5.2331401
21
5.141894
0
LINE
8
DEFAULT_255_2_778
10
5.2331401
20
5.141894
11
7.3606401
21
5.141894
0
LINE
8
DEFAULT_255_2_778
10
7.3606401
20
5.141894
11
7.4154401
21
5.073294
0
LINE
8
DEFAULT_255_2_778
10
7.4154401
20
5.073294
11
9.5601401
21
5.073294
0
LINE
8
DEFAULT_255_2_778
10
9.5601401
20
5.073294
11
8.9150401
21
5.450894
0
LINE
8
DEFAULT_255_2_778
10
8.9150401
20
5.450894
11
3.6339401
21
5.450894
0
LINE
8
DEFAULT_255_2_778
10
3.6339401
20
5.450894
11
3.3834401
21
5.306694
0
LINE
8
DEFAULT_255_2_778
10
3.3834401
20
5.306694
11
4.6565401
21
5.303294
0
LINE
8
DEFAULT_255_2_778
10
6.3726401
20
6.717194
11
6.4618401
21
6.593594
0
LINE
8
DEFAULT_255_2_778
10
6.4618401
20
6.593594
11
6.8735401
21
6.593594
0
LINE
8
DEFAULT_255_2_778
10
6.8735401
20
6.593594
11
6.2456401
21
6.953994
0
LINE
8
DEFAULT_255_2_778
10
6.2456401
20
6.953994
11
6.1014401
21
6.720594
0
LINE
8
DEFAULT_255_2_778
10
6.1014401
20
6.720594
11
6.3726401
21
6.717194
0
LINE
8
DEFAULT_255_2_778
10
5.7651401
20
6.202294
11
6.6917401
21
6.202294
0
LINE
8
DEFAULT_255_2_778
10
6.6917401
20
6.202294
11
6.7465401
21
6.113194
0
LINE
8
DEFAULT_255_2_778
10
6.7465401
20
6.113194
11
7.6937401
21
6.113194
0
LINE
8
DEFAULT_255_2_778
10
7.6937401
20
6.113194
11
7.0486401
21
6.507894
0
LINE
8
DEFAULT_255_2_778
10
7.0486401
20
6.507894
11
5.4564401
21
6.507894
0
LINE
8
DEFAULT_255_2_778
10
5.4564401
20
6.507894
11
5.2230401
21
6.363694
0
LINE
8
DEFAULT_255_2_778
10
5.2230401
20
6.363694
11
5.8681401
21
6.363694
0
LINE
8
DEFAULT_255_2_778
10
5.8681401
20
6.363694
11
5.7651401
21
6.202294
0
LINE
8
DEFAULT_255_2_778
10
4.6190401
20
4.771194
11
5.0137401
21
4.771194
0
LINE
8
DEFAULT_255_2_778
10
5.0137401
20
4.771194
11
4.9452401
21
4.647594
0
LINE
8
DEFAULT_255_2_778
10
4.9452401
20
4.647594
11
7.6082401
21
4.647594
0
LINE
8
DEFAULT_255_2_778
10
7.6082401
20
4.647594
11
7.6768401
21
4.558494
0
LINE
8
DEFAULT_255_2_778
10
7.6768401
20
4.558494
11
10.4118401
21
4.558494
0
LINE
8
DEFAULT_255_2_778
10
10.4118401
20
4.558494
11
9.7667401
21
4.935994
0
LINE
8
DEFAULT_255_2_778
10
9.7667401
20
4.935994
11
2.7246401
21
4.935994
0
LINE
8
DEFAULT_255_2_778
10
2.7246401
20
4.935994
11
2.4740401
21
4.774594
0
LINE
8
DEFAULT_255_2_778
10
2.4740401
20
4.774594
11
4.6190401
21
4.771194
0
LINE
8
DEFAULT_255_2_778
10
5.3156401
20
5.824794
11
5.5834401
21
5.824794
0
LINE
8
DEFAULT_255_2_778
10
5.5834401
20
5.824794
11
5.4942401
21
5.663394
0
LINE
8
DEFAULT_255_2_778
10
5.4942401
20
5.663394
11
7.0145401
21
5.663394
0
LINE
8
DEFAULT_255_2_778
10
7.0145401
20
5.663394
11
7.0693401
21
5.594794
0
LINE
8
DEFAULT_255_2_778
10
7.0693401
20
5.594794
11
8.6274401
21
5.594794
0
LINE
8
DEFAULT_255_2_778
10
8.6274401
20
5.594794
11
7.9649401
21
5.972394
0
LINE
8
DEFAULT_255_2_778
10
7.9649401
20
5.972394
11
4.5092401
21
5.972394
0
LINE
8
DEFAULT_255_2_778
10
4.5092401
20
5.972394
11
4.2586401
21
5.828194
0
LINE
8
DEFAULT_255_2_778
10
4.2586401
20
5.828194
11
5.3156401
21
5.824794
0
ARC
8
DEFAULT_255_2_778
10
6.5507858
20
-2.8199961
40
1.061528
50
80.5096123
51
83.1330845
0
ARC
8
DEFAULT_255_2_778
10
6.4903338
20
-3.5002836
40
1.7442936
50
83.8333868
51
90.3658326
0
ARC
8
DEFAULT_255_2_778
10
6.4004421
20
-14.6151558
40
12.8593713
50
89.6491017
51
90.0794392
0
ARC
8
DEFAULT_255_2_778
10
6.3602685
20
-10.4779329
40
8.7221647
50
89.8532204
51
90.5970937
0
ARC
8
DEFAULT_255_2_778
10
6.2810653
20
-3.3619676
40
1.6057683
50
90.4171516
51
94.4828263
0
ARC
8
DEFAULT_255_2_778
10
6.2594035
20
-2.9842566
40
1.2275451
50
94.8527988
51
99.3432644
0
ARC
8
DEFAULT_255_2_778
10
7.0917594
20
-0.6399378
40
1.7154861
50
80.682711
51
90.415709
0
ARC
8
DEFAULT_255_2_778
10
7.2173212
20
0.0935319
40
0.9713781
50
64.7419557
51
80.9867935
0
ARC
8
DEFAULT_255_2_778
10
7.389909
20
0.4492093
40
0.576079
50
5.3590024
51
65.1717742
0
ARC
8
DEFAULT_255_2_778
10
7.0385784
20
0.3815102
40
0.9328384
50
359.8337325
51
7.4840613
0
ARC
8
DEFAULT_255_2_778
10
6.8071967
20
0.3678156
40
1.164268
50
347.4934439
51
0.5407275
0
ARC
8
DEFAULT_255_2_778
10
7.2378192
20
0.2682077
40
0.7223045
50
323.0559312
51
347.8101359
0
ARC
8
DEFAULT_255_2_778
10
7.2182919
20
0.3158334
40
0.7669876
50
287.5046303
51
321.0888607
0
ARC
8
DEFAULT_255_2_778
10
6.9304117
20
1.1224308
40
1.6231374
50
276.3818385
51
288.6321134
0
ARC
8
DEFAULT_255_2_778
10
6.7182342
20
2.8965385
40
3.4098632
50
269.9099214
51
276.6114298
0
ARC
8
DEFAULT_255_2_778
10
6.6846017
20
4.7312656
40
5.2446624
50
269.9990295
51
270.3088572
0
ARC
8
DEFAULT_255_2_778
10
6.7480855
20
2.9517706
40
3.2389441
50
269.6060014
51
272.1246128
0
ARC
8
DEFAULT_255_2_778
10
6.8348892
20
0.7105022
40
0.996005
50
271.9144415
51
280.1559519
0
ARC
8
DEFAULT_255_2_778
10
6.8634859
20
0.1994326
40
0.4918201
50
287.3942161
51
318.587725
0
ARC
8
DEFAULT_255_2_778
10
6.7240896
20
0.2699008
40
0.6441795
50
322.0905464
51
2.9544547
0
ARC
8
DEFAULT_255_2_778
10
6.4701571
20
0.3114232
40
0.8972944
50
359.4687256
51
15.4567346
0
ARC
8
DEFAULT_255_2_778
10
6.8052446
20
0.4083621
40
0.5485065
50
15.0254826
51
37.8537934
0
ARC
8
DEFAULT_255_2_778
10
7.0138987
20
0.5816167
40
0.2775782
50
36.0457449
51
87.870541
0
ARC
8
DEFAULT_255_2_778
10
9.5447352
20
1.0727602
40
0.3107795
50
354.0818528
51
359.8051177
0
ARC
8
DEFAULT_255_2_778
10
8.8592236
20
1.1520213
40
1.0008431
50
350.7005436
51
353.6148654
0
ARC
8
DEFAULT_255_2_778
10
10.4590589
20
0.887033
40
0.6207937
50
170.4253995
51
179.2674383
0
ARC
8
DEFAULT_255_2_778
10
10.3247608
20
0.8932056
40
0.486448
50
179.7921748
51
180.0002847
0
ARC
8
DEFAULT_255_2_778
10
10.1511843
20
0.894301
40
0.3128734
50
180.2010525
51
185.9985632
0
ARC
8
DEFAULT_255_2_778
10
10.8472735
20
0.9753048
40
1.0136463
50
186.4403873
51
189.2866844
0
ARC
8
DEFAULT_255_2_778
10
9.2380415
20
0.7088064
40
0.6175089
50
0.6382924
51
9.5944063
0
ARC
8
DEFAULT_255_2_778
10
9.3696672
20
0.7148037
40
0.4858457
50
359.9999287
51
0.1039844
0
ARC
8
DEFAULT_255_2_778
10
8.9167876
20
-5.6732023
40
6.4566105
50
81.6401485
51
90.0027658
0
ARC
8
DEFAULT_255_2_778
10
8.916319
20
-5.6240046
40
6.4074129
50
89.9985964
51
90.0715917
0
ARC
8
DEFAULT_255_2_778
10
9.3078232
20
3.9862472
40
4.0951495
50
270.4111988
51
277.4430685
0
ARC
8
DEFAULT_255_2_778
10
9.1561025
20
-0.0540154
40
0.6825147
50
350.7608656
51
358.2887653
0
ARC
8
DEFAULT_255_2_778
10
10.5034232
20
-0.2731783
40
0.6825147
50
170.7608656
51
178.2887653
0
ARC
8
DEFAULT_255_2_778
10
10.5035248
20
-0.2323287
40
0.6826188
50
181.7182536
51
189.2397703
0
LINE
8
DEFAULT_255_2_778
10
9.8297629
20
-0.3419344
11
9.8299008
21
-0.3429315
0
ARC
8
DEFAULT_255_2_778
10
9.1633031
20
-0.4509733
40
0.6752966
50
1.6696903
51
9.2064063
0
ARC
8
DEFAULT_255_2_778
10
9.3072767
20
-4.5118619
40
4.114974
50
82.5853181
51
89.583173
0
ARC
8
DEFAULT_255_2_778
10
8.9194786
20
10.0994285
40
11.5534307
50
269.9446267
51
271.3653655
0
ARC
8
DEFAULT_255_2_778
10
9.0258718
20
5.7622397
40
7.2149388
50
271.3414069
51
273.5372035
0
ARC
8
DEFAULT_255_2_778
10
9.1885816
20
3.1988163
40
4.6463621
50
273.4848543
51
277.4197522
0
ARC
8
DEFAULT_255_2_778
10
9.2811634
20
2.4285462
40
3.8705934
50
277.5332028
51
278.5335178
0
ARC
8
DEFAULT_255_2_778
10
9.1801997
20
-1.379026
40
0.6756143
50
350.7131727
51
358.2891473
0
LINE
8
DEFAULT_255_2_778
10
9.8469588
20
-1.4880546
11
9.8469129
21
-1.4883844
0
ARC
8
DEFAULT_255_2_778
10
10.5160233
20
-1.5979289
40
0.6780183
50
170.7022138
51
178.2731381
0
ARC
8
DEFAULT_255_2_778
10
10.1515619
20
-1.5763793
40
0.313251
50
180.2044084
51
186.0459855
0
ARC
8
DEFAULT_255_2_778
10
10.8535599
20
-1.4943117
40
1.0200169
50
186.4769413
51
189.2869972
0
ARC
8
DEFAULT_255_2_778
10
9.2390155
20
-1.76176
40
0.6165345
50
0.6361744
51
9.6018299
0
ARC
8
DEFAULT_255_2_778
10
9.3696697
20
-1.7557963
40
0.4858432
50
359.9999286
51
0.1039843
0
ARC
8
DEFAULT_255_2_778
10
11.6069151
20
0.0666568
40
1.8911809
50
270.0034505
51
295.0886228
0
ARC
8
DEFAULT_255_2_778
10
11.6070325
20
0.0641656
40
1.8886895
50
269.3350265
51
269.999895
0
ARC
8
DEFAULT_255_2_778
10
11.5755409
20
0.1008578
40
1.9252784
50
254.4628843
51
270.2848612
0
ARC
8
DEFAULT_255_2_778
10
11.4632384
20
-0.2861197
40
1.5223674
50
231.784864
51
254.6338225
0
ARC
8
DEFAULT_255_2_778
10
11.3206529
20
-0.4745076
40
1.2861545
50
189.7830689
51
231.5838946
0
ARC
8
DEFAULT_255_2_778
10
11.5144842
20
-0.4339568
40
1.484074
50
179.8895848
51
190.0543089
0
ARC
8
DEFAULT_255_2_778
10
12.1132445
20
-0.4210507
40
2.0828558
50
169.2562652
51
180.2763543
0
ARC
8
DEFAULT_255_2_778
10
11.6054806
20
-0.3226012
40
1.5656413
50
153.638536
51
169.3319486
0
ARC
8
DEFAULT_255_2_778
10
11.4335435
20
-0.2569296
40
1.3825342
50
104.9813336
51
152.9131361
0
ARC
8
DEFAULT_255_2_778
10
11.6589298
20
-0.9382063
40
2.0993302
50
90.0303678
51
106.1171132
0
ARC
8
DEFAULT_255_2_778
10
11.6776738
20
-1.3217733
40
2.4829763
50
89.9990996
51
90.4582077
0
ARC
8
DEFAULT_255_2_778
10
11.6732689
20
-0.6377917
40
1.7990004
50
83.0430902
51
89.8584671
0
ARC
8
DEFAULT_255_2_778
10
11.6590777
20
-0.7804089
40
1.9422889
50
79.1323719
51
83.1371166
0
ARC
8
DEFAULT_255_2_778
10
11.7541369
20
-0.383404
40
1.5345931
50
62.4901896
51
79.8232121
0
ARC
8
DEFAULT_255_2_778
10
11.9885677
20
0.1059678
40
0.9924354
50
57.7181024
51
61.444195
0
ARC
8
DEFAULT_255_2_778
10
11.6234572
20
0.0110225
40
0.9050087
50
33.9241377
51
81.7744852
0
ARC
8
DEFAULT_255_2_778
10
11.6773575
20
0.225877
40
0.6850262
50
83.6656547
51
89.9702779
0
ARC
8
DEFAULT_255_2_778
10
11.6696112
20
0.0248666
40
0.8860736
50
89.4761178
51
110.2490338
0
ARC
8
DEFAULT_255_2_778
10
11.7223668
20
-0.0083826
40
0.9362975
50
112.574285
51
159.9990235
0
ARC
8
DEFAULT_255_2_778
10
12.4248189
20
-0.3271971
40
1.7064601
50
158.0068459
51
176.3535956
0
ARC
8
DEFAULT_255_2_778
10
12.6810236
20
-0.3587377
40
1.9642107
50
175.9107208
51
180.0017252
0
ARC
8
DEFAULT_255_2_778
10
12.5247083
20
-0.3705388
40
1.8079336
50
179.6278805
51
192.9547169
0
ARC
8
DEFAULT_255_2_778
10
11.9678846
20
-0.5034466
40
1.235496
50
192.7369525
51
212.0068788
0
ARC
8
DEFAULT_255_2_778
10
11.6610888
20
-0.6990726
40
0.8716583
50
211.7913104
51
264.3062877
0
ARC
8
DEFAULT_255_2_778
10
11.7002277
20
-0.4692407
40
1.1043571
50
263.4686794
51
270.071866
0
ARC
8
DEFAULT_255_2_778
10
11.679015
20
-0.4409321
40
1.1328902
50
271.1429608
51
313.0947261
0
ARC
8
DEFAULT_255_2_778
10
13.886244
20
0.2287784
40
2.0532096
50
257.4570039
51
270.3312076
0
ARC
8
DEFAULT_255_2_778
10
13.7587301
20
-0.3219591
40
1.4879318
50
237.5569336
51
257.6443697
0
ARC
8
DEFAULT_255_2_778
10
13.6410244
20
-0.5256406
40
1.2529348
50
199.2497622
51
237.1027243
0
ARC
8
DEFAULT_255_2_778
10
14.0145067
20
-0.3862213
40
1.6515225
50
184.7034355
51
199.5443819
0
ARC
8
DEFAULT_255_2_778
10
14.4303318
20
-0.3405918
40
2.0697201
50
179.942005
51
185.018437
0
ARC
8
DEFAULT_255_2_778
10
13.8994823
20
-0.3251954
40
1.5389269
50
153.0143335
51
180.4952345
0
ARC
8
DEFAULT_255_2_778
10
13.7618884
20
-0.2671671
40
1.3900243
50
119.0356621
51
152.5722329
0
ARC
8
DEFAULT_255_2_778
10
13.8809703
20
-0.479737
40
1.6336751
50
102.606215
51
119.0687618
0
ARC
8
DEFAULT_255_2_778
10
13.9745031
20
-0.8892645
40
2.0537445
50
90.5068551
51
102.659195
0
ARC
8
DEFAULT_255_2_778
10
13.9872766
20
-1.1865847
40
2.3511879
50
89.9991171
51
90.7540252
0
ARC
8
DEFAULT_255_2_778
10
14.1199018
20
-0.2373512
40
1.4082101
50
90.0009091
51
95.4026445
0
ARC
8
DEFAULT_255_2_778
10
14.1197597
20
-0.2365917
40
1.4074507
50
45.9741961
51
89.995121
0
ARC
8
DEFAULT_255_2_778
10
14.1197097
20
-0.2368187
40
1.4076486
50
0.0064815
51
45.9791573
0
ARC
8
DEFAULT_255_2_778
10
14.1186889
20
-0.2366519
40
1.4086694
50
356.5551004
51
359.9996889
0
ARC
8
DEFAULT_255_2_778
10
14.0644673
20
-0.3317118
40
1.4603827
50
299.6819218
51
0.4086161
0
ARC
8
DEFAULT_255_2_778
10
13.9692016
20
-0.1661226
40
1.6514189
50
281.4469818
51
299.7085839
0
ARC
8
DEFAULT_255_2_778
10
13.9040706
20
0.1387518
40
1.9631577
50
269.8261209
51
281.5441648
0
ARC
8
DEFAULT_255_2_778
10
14.745232
20
-0.4656082
40
1.7049191
50
179.9962575
51
183.3549665
0
ARC
8
DEFAULT_255_2_778
10
14.3810389
20
-0.5150872
40
1.3387491
50
182.1530675
51
211.1984575
0
ARC
8
DEFAULT_255_2_778
10
13.8863553
20
-0.8072716
40
0.764281
50
211.6722461
51
256.9602805
0
ARC
8
DEFAULT_255_2_778
10
13.9111351
20
-0.6772754
40
0.8965313
50
257.2919527
51
270.2669953
0
ARC
8
DEFAULT_255_2_778
10
13.9241947
20
-0.8074579
40
0.7663904
50
269.3359713
51
296.9642917
0
ARC
8
DEFAULT_255_2_778
10
13.8427203
20
-0.7100094
40
0.8906426
50
298.7935701
51
334.1349183
0
ARC
8
DEFAULT_255_2_778
10
13.2095329
20
-0.3737824
40
1.6072953
50
333.1968225
51
350.7289973
0
ARC
8
DEFAULT_255_2_778
10
12.5921844
20
-0.2541276
40
2.2359341
50
350.2514898
51
0.128913
0
ARC
8
DEFAULT_255_2_778
10
12.9762072
20
-0.2490677
40
1.8519057
50
359.9990982
51
6.6917979
0
ARC
8
DEFAULT_255_2_778
10
13.4387
20
-0.1642969
40
1.3830174
50
5.436438
51
32.6631847
0
ARC
8
DEFAULT_255_2_778
10
13.9864541
20
0.1819912
40
0.7350063
50
32.9825845
51
79.1756138
0
ARC
8
DEFAULT_255_2_778
10
13.9726397
20
0.0806676
40
0.8371393
50
79.5493027
51
90.1729401
0
ARC
8
DEFAULT_255_2_778
10
13.9554929
20
0.0155696
40
0.902352
50
89.07165
51
112.4885075
0
ARC
8
DEFAULT_255_2_778
10
13.9196788
20
0.1450293
40
0.7692135
50
113.7122187
51
149.8817668
0
ARC
8
DEFAULT_255_2_778
10
14.3044769
20
-0.0932457
40
1.2216932
50
149.2711507
51
163.8063199
0
ARC
8
DEFAULT_255_2_778
10
15.0081913
20
-0.3040485
40
1.956287
50
163.6252153
51
173.1807467
0
ARC
8
DEFAULT_255_2_778
10
16.0376701
20
-0.4343676
40
2.9939653
50
173.0437378
51
179.4093183
0
ARC
8
DEFAULT_255_2_778
10
16.7721145
20
-0.4546629
40
3.7286016
50
179.2138134
51
180.0035947
0
ARC
8
DEFAULT_255_2_778
10
18.6113553
20
0.9733356
40
0.3288915
50
162.5423734
51
168.2340393
0
ARC
8
DEFAULT_255_2_778
10
18.9399786
20
0.9292864
40
0.6600247
50
170.3081251
51
182.1418158
0
ARC
8
DEFAULT_255_2_778
10
35.5606316
20
0.8956218
40
17.2802189
50
179.9701671
51
180.0073564
0
ARC
8
DEFAULT_255_2_778
10
18.9807842
20
0.8711953
40
0.7007233
50
178.1838345
51
179.9996657
0
ARC
8
DEFAULT_255_2_778
10
18.9841113
20
0.8713303
40
0.7040504
50
180.0106573
51
192.8205203
0
ARC
8
DEFAULT_255_2_778
10
17.3548304
20
-5.7360836
40
6.5197124
50
81.6855984
51
89.9997757
0
ARC
8
DEFAULT_255_2_778
10
17.3548561
20
-5.7166928
40
6.5003214
50
90.0000019
51
90.1608019
0
ARC
8
DEFAULT_255_2_778
10
17.7588569
20
3.5239767
40
3.6325797
50
270.1049828
51
275.13814
0
ARC
8
DEFAULT_255_2_778
10
17.2965171
20
8.6905165
40
8.8197649
50
275.1237217
51
276.4050072
0
ARC
8
DEFAULT_255_2_778
10
17.6026555
20
-0.0537588
40
0.6780654
50
350.7023501
51
358.2727469
0
LINE
8
DEFAULT_255_2_778
10
18.2718129
20
-0.1633094
11
18.271767
21
-0.1636391
0
ARC
8
DEFAULT_255_2_778
10
18.938526
20
-0.2726677
40
0.6756144
50
170.7131727
51
178.2891473
0
ARC
8
DEFAULT_255_2_778
10
18.9416455
20
-0.232086
40
0.6787396
50
181.7232423
51
189.2924245
0
LINE
8
DEFAULT_255_2_778
10
18.2718129
20
-0.3416844
11
18.2719536
21
-0.342696
0
ARC
8
DEFAULT_255_2_778
10
17.6093953
20
-0.4507038
40
0.6713041
50
1.6736923
51
9.2587032
0
ARC
8
DEFAULT_255_2_778
10
17.4568932
20
4.8780261
40
6.3328653
50
268.9117139
51
269.2123793
0
ARC
8
DEFAULT_255_2_778
10
17.4570959
20
4.8900092
40
6.3448501
50
269.2120367
51
269.9999715
0
ARC
8
DEFAULT_255_2_778
10
17.4572034
20
4.8855865
40
6.3404273
50
269.9989996
51
277.6168425
0
ARC
8
DEFAULT_255_2_778
10
18.6760777
20
-1.5086217
40
0.3940497
50
163.8320283
51
177.0142918
0
ARC
8
DEFAULT_255_2_778
10
19.5647554
20
-1.5636276
40
1.2844152
50
176.6287469
51
180.6097775
0
ARC
8
DEFAULT_255_2_778
10
18.9831292
20
-1.5995418
40
0.7030684
50
178.1868721
51
179.999652
0
ARC
8
DEFAULT_255_2_778
10
18.9849839
20
-1.5994717
40
0.704923
50
180.0053466
51
192.8125445
0
ARC
8
DEFAULT_255_2_778
10
22.8304948
20
1.073101
40
0.31272
50
353.9978647
51
359.7988464
0
ARC
8
DEFAULT_255_2_778
10
22.131705
20
1.1544855
40
1.0162194
50
350.7160013
51
353.5541951
0
ARC
8
DEFAULT_255_2_778
10
23.7468548
20
0.8872784
40
0.6208891
50
170.4264505
51
179.2715245
0
ARC
8
DEFAULT_255_2_778
10
23.6137595
20
0.8934056
40
0.4877467
50
179.7924576
51
180.0002845
0
ARC
8
DEFAULT_255_2_778
10
23.4370944
20
0.8944704
40
0.3110834
50
180.196569
51
185.9477567
0
ARC
8
DEFAULT_255_2_778
10
24.1246998
20
0.9741775
40
1.0032788
50
186.4061863
51
189.3016288
0
ARC
8
DEFAULT_255_2_778
10
22.5260556
20
0.7091212
40
0.6171947
50
0.6372422
51
9.5967659
0
ARC
8
DEFAULT_255_2_778
10
22.6573672
20
0.7151037
40
0.4858457
50
359.9999287
51
0.1039844
0
ARC
8
DEFAULT_255_2_778
10
21.9991452
20
-7.305499
40
8.1017868
50
81.8820276
51
84.3732
0
ARC
8
DEFAULT_255_2_778
10
22.2600188
20
-4.8809284
40
5.6633626
50
84.5946733
51
87.3249972
0
ARC
8
DEFAULT_255_2_778
10
22.2093369
20
-6.0265731
40
6.8101248
50
87.3489021
51
89.7336845
0
ARC
8
DEFAULT_255_2_778
10
22.1962105
20
-7.237418
40
8.0210212
50
89.6801237
51
90.0014117
0
ARC
8
DEFAULT_255_2_778
10
22.5600655
20
4.7310849
40
4.8401162
50
270.7676653
51
276.8781923
0
ARC
8
DEFAULT_255_2_778
10
24.0362529
20
-0.3592961
40
0.9407793
50
162.3593637
51
167.9963888
0
ARC
8
DEFAULT_255_2_778
10
23.5561472
20
-0.2613603
40
0.4508214
50
167.4810576
51
178.8734618
0
ARC
8
DEFAULT_255_2_778
10
23.7643695
20
-0.2185388
40
0.6598311
50
182.9500145
51
198.7924002
0
ARC
8
DEFAULT_255_2_778
10
22.314579
20
4.6984829
40
6.1533222
50
268.8959196
51
269.2009276
0
ARC
8
DEFAULT_255_2_778
10
22.3147704
20
4.7095918
40
6.1644327
50
269.2005887
51
269.9999705
0
ARC
8
DEFAULT_255_2_778
10
22.3148612
20
4.7057507
40
6.1605915
50
269.9991266
51
277.7273817
0
ARC
8
DEFAULT_255_2_778
10
22.4648242
20
-1.3785049
40
0.6786951
50
350.7075081
51
358.2782395
0
ARC
8
DEFAULT_255_2_778
10
23.8044016
20
-1.5976888
40
0.6786953
50
170.7075081
51
178.2782395
0
ARC
8
DEFAULT_255_2_778
10
23.4367906
20
-1.5762398
40
0.3107795
50
180.1948823
51
185.9181472
0
ARC
8
DEFAULT_255_2_778
10
24.1223021
20
-1.4969787
40
1.0008431
50
186.3851346
51
189.2994564
0
ARC
8
DEFAULT_255_2_778
10
22.5224669
20
-1.761967
40
0.6207937
50
0.7325617
51
9.5746005
0
ARC
8
DEFAULT_255_2_778
10
22.6567649
20
-1.7557944
40
0.486448
50
359.9997153
51
0.2078252
0
ARC
8
DEFAULT_255_2_778
10
24.4551321
20
7.3916624
40
6.3196659
50
270.0832356
51
270.686081
0
ARC
8
DEFAULT_255_2_778
10
23.9437556
20
55.4753965
40
54.4061141
50
270.6182406
51
270.6430221
0
ARC
8
DEFAULT_255_2_778
10
24.6670016
20
-7.7938081
40
8.8672326
50
90.0877695
51
90.7280199
0
ARC
8
DEFAULT_255_2_778
10
24.6588848
20
-2.3252675
40
3.3986861
50
88.3099751
51
90.092157
0
ARC
8
DEFAULT_255_2_778
10
24.7387463
20
-0.2836685
40
1.3557618
50
78.6109745
51
89.1389742
0
ARC
8
DEFAULT_255_2_778
10
24.9091409
20
0.5735721
40
0.4817586
50
63.1789634
51
78.3446145
0
ARC
8
DEFAULT_255_2_778
10
24.8831347
20
0.4355631
40
0.6178906
50
0.0240344
51
66.8035184
0
ARC
8
DEFAULT_255_2_778
10
24.8805634
20
0.4358214
40
0.6204619
50
357.9108795
51
0.000084
0
ARC
8
DEFAULT_255_2_778
10
24.7184048
20
0.4030887
40
0.7822734
50
335.7747728
51
0.7408319
0
ARC
8
DEFAULT_255_2_778
10
24.7658836
20
0.4036228
40
0.7394646
50
287.6145986
51
334.2273445
0
ARC
8
DEFAULT_255_2_778
10
24.6433648
20
0.6886977
40
1.0486928
50
280.7189507
51
289.281599
0
ARC
8
DEFAULT_255_2_778
10
36.8069909
20
6.6240529
40
13.8480515
50
210.1995386
51
214.3211914
0
LINE
8
DEFAULT_255_2_778
10
25.3700262
20
-1.1839155
11
25.3722781
21
-1.1872993
0
ARC
8
DEFAULT_255_2_778
10
-2.4557682
20
-19.7860236
40
33.4710727
50
33.0697797
51
33.7565731
0
ARC
8
DEFAULT_255_2_778
10
25.5457797
20
-3.3183051
40
1.5595535
50
82.3046525
51
84.3375931
0
ARC
8
DEFAULT_255_2_778
10
25.4214426
20
-5.1803686
40
3.4253245
50
85.3411631
51
91.0292709
0
ARC
8
DEFAULT_255_2_778
10
25.2950307
20
-4.1739668
40
2.4192401
50
88.4631866
51
89.9985372
0
ARC
8
DEFAULT_255_2_778
10
25.2941706
20
-4.1093631
40
2.3546367
50
89.977568
51
97.1029704
0
ARC
8
DEFAULT_255_2_778
10
26.2598152
20
0.2539723
40
2.1017003
50
210.2134557
51
213.2311297
0
ARC
8
DEFAULT_255_2_778
10
34.0971121
20
4.8203189
40
11.1722431
50
209.0437001
51
210.2243864
0
ARC
8
DEFAULT_255_2_778
10
5.8542705
20
-10.951813
40
21.1761946
50
29.253508
51
29.2639097
0
LINE
8
DEFAULT_255_2_778
10
24.3279031
20
-0.6001894
11
24.3272485
21
-0.599021
0
ARC
8
DEFAULT_255_2_778
10
11.8125595
20
-7.574193
40
14.3272631
50
29.1334943
51
29.878471
0
ARC
8
DEFAULT_255_2_778
10
20.1712495
20
-2.785803
40
4.6941984
50
30.0254896
51
30.0593094
0
ARC
8
DEFAULT_255_2_778
10
24.0243913
20
-2.8225874
40
1.0643297
50
80.5187462
51
83.1626387
0
ARC
8
DEFAULT_255_2_778
10
23.9639703
20
-3.5051226
40
1.7493333
50
83.8591657
51
90.3632157
0
ARC
8
DEFAULT_255_2_778
10
23.8743137
20
-14.6202189
40
12.8646343
50
89.65008
51
90.0792804
0
ARC
8
DEFAULT_255_2_778
10
23.8341347
20
-10.4639265
40
8.7083584
50
89.8527653
51
90.5987845
0
ARC
8
DEFAULT_255_2_778
10
23.7548317
20
-3.3595472
40
1.6035463
50
90.4182037
51
94.4947685
0
ARC
8
DEFAULT_255_2_778
10
23.7330376
20
-2.9814773
40
1.2249567
50
94.8643565
51
99.3505765
0
ARC
8
DEFAULT_255_2_778
10
24.3378921
20
0.8820855
40
1.1433199
50
262.9119599
51
266.6781917
0
ARC
8
DEFAULT_255_2_778
10
24.3273587
20
0.7066585
40
0.9675774
50
266.6989617
51
269.9603116
0
ARC
8
DEFAULT_255_2_778
10
24.3375843
20
0.3961459
40
0.6571548
50
269.0499719
51
288.4100387
0
ARC
8
DEFAULT_255_2_778
10
24.3984386
20
0.1895941
40
0.4420191
50
289.3812719
51
348.2935539
0
ARC
8
DEFAULT_255_2_778
10
23.9327035
20
0.3250756
40
0.9263423
50
345.9321931
51
0.5309837
0
ARC
8
DEFAULT_255_2_778
10
23.5989055
20
0.3377392
40
1.2601072
50
359.8145358
51
0.0029082
0
ARC
8
DEFAULT_255_2_778
10
24.1204521
20
0.3014402
40
0.7394554
50
2.8186715
51
15.3383584
0
ARC
8
DEFAULT_255_2_778
10
20.9830482
20
-0.4346566
40
3.9616366
50
13.602217
51
14.1424365
0
ARC
8
DEFAULT_255_2_778
10
24.3599294
20
0.4704925
40
0.4689092
50
7.6979328
51
26.3908988
0
ARC
8
DEFAULT_255_2_778
10
24.4865396
20
0.5131716
40
0.3370072
50
29.4604595
51
89.6197568
0
ARC
8
DEFAULT_255_2_778
10
24.3515618
20
-0.5480219
40
1.4049102
50
84.3951189
51
90.6382301
0
ARC
8
DEFAULT_255_2_778
10
24.3476143
20
-6.0171619
40
6.8739731
50
90.097537
51
90.6622438
0
ARC
8
DEFAULT_255_2_778
10
24.1580285
20
11.2457142
40
10.3899457
50
270.3574111
51
270.6073604
0
ARC
8
DEFAULT_255_2_778
10
24.1991105
20
5.0162048
40
4.1603019
50
270.0110495
51
270.3268125
0
ARC
8
DEFAULT_255_2_778
10
26.7686314
20
3.5130097
40
5.3748918
50
280.5553755
51
287.059257
0
ARC
8
DEFAULT_255_2_778
10
27.1382135
20
1.6420577
40
3.4679584
50
276.6383635
51
280.2150908
0
ARC
8
DEFAULT_255_2_778
10
27.228857
20
0.8241218
40
2.6450314
50
270.1788359
51
276.7362629
0
ARC
8
DEFAULT_255_2_778
10
27.2203881
20
0.4043567
40
2.2253165
50
253.117527
51
270.4306201
0
ARC
8
DEFAULT_255_2_778
10
26.9934751
20
-0.3006159
40
1.4848805
50
225.3161033
51
253.5961095
0
ARC
8
DEFAULT_255_2_778
10
26.8202577
20
-0.5040139
40
1.2186214
50
196.8596687
51
224.3817753
0
ARC
8
DEFAULT_255_2_778
10
27.0813088
20
-0.4261262
40
1.4910423
50
181.6187721
51
196.8146208
0
ARC
8
DEFAULT_255_2_778
10
27.3639663
20
-0.4072515
40
1.7741535
50
179.9917769
51
181.9702153
0
ARC
8
DEFAULT_255_2_778
10
27.4404104
20
-0.3973394
40
1.8506228
50
167.2445932
51
180.2990001
0
ARC
8
DEFAULT_255_2_778
10
27.0535378
20
-0.3079628
40
1.4535652
50
147.1576992
51
167.313711
0
ARC
8
DEFAULT_255_2_778
10
27.0529956
20
-0.3381165
40
1.4696864
50
107.6178947
51
146.1585337
0
ARC
8
DEFAULT_255_2_778
10
27.2730757
20
-0.9338902
40
2.1043332
50
92.4279107
51
108.4193933
0
ARC
8
DEFAULT_255_2_778
10
27.3050908
20
-1.3186813
40
2.4901845
50
89.9879886
51
92.7888214
0
ARC
8
DEFAULT_255_2_778
10
27.3072356
20
-0.767167
40
1.9386709
50
59.5264955
51
90.0479582
0
ARC
8
DEFAULT_255_2_778
10
29.7200845
20
0.3145758
40
1.5462962
50
157.6048225
51
173.4074429
0
ARC
8
DEFAULT_255_2_778
10
27.3177346
20
-0.0607722
40
0.9817553
50
34.2739084
51
89.9919675
0
ARC
8
DEFAULT_255_2_778
10
27.3178618
20
-0.0608254
40
0.9818087
50
89.9993897
51
90.7323418
0
ARC
8
DEFAULT_255_2_778
10
27.2961193
20
-0.0661328
40
0.9870788
50
89.4663434
51
110.4648791
0
ARC
8
DEFAULT_255_2_778
10
27.3261525
20
-0.0573943
40
0.989884
50
112.2706685
51
158.8033486
0
ARC
8
DEFAULT_255_2_778
10
27.9704704
20
-0.3556149
40
1.6990364
50
157.2830135
51
175.9696019
0
ARC
8
DEFAULT_255_2_778
10
28.3651355
20
-0.4026967
40
2.0961228
50
175.4440669
51
180.024606
0
ARC
8
DEFAULT_255_2_778
10
28.1755283
20
-0.4159757
40
1.9065557
50
179.6279896
51
190.4620266
0
ARC
8
DEFAULT_255_2_778
10
27.4988647
20
-0.545908
40
1.2175574
50
190.2313884
51
207.2375672
0
ARC
8
DEFAULT_255_2_778
10
27.1637624
20
-0.7188423
40
0.8404636
50
207.211068
51
260.469391
0
ARC
8
DEFAULT_255_2_778
10
27.2643521
20
-0.2934604
40
1.2769533
50
259.1784476
51
270.2943761
0
ARC
8
DEFAULT_255_2_778
10
27.2790561
20
-0.5724877
40
0.9979424
50
269.5324607
51
281.3755737
0
ARC
8
DEFAULT_255_2_778
10
27.356633
20
-0.9461231
40
0.6163502
50
281.1564402
51
298.9980569
0
ARC
8
DEFAULT_255_2_778
10
27.4278169
20
-1.0836638
40
0.4615649
50
299.546348
51
308.7964301
0
ARC
8
DEFAULT_255_2_778
10
27.8235396
20
9.9307175
40
10.4157144
50
267.1481101
51
269.9998527
0
ARC
8
DEFAULT_255_2_778
10
27.8234861
20
9.9307175
40
10.4157144
50
270.0001473
51
272.8518899
0
ARC
8
DEFAULT_255_2_778
10
29.0414266
20
0.3519876
40
0.8137993
50
321.005075
51
326.8508017
0
ARC
8
DEFAULT_255_2_778
10
28.1071914
20
0.9693451
40
1.9335807
50
326.6723367
51
330.0443025
0
ARC
8
DEFAULT_255_2_778
10
26.3903736
20
1.9636435
40
3.9175374
50
329.9826891
51
332.2035015
0
ARC
8
DEFAULT_255_2_778
10
23.3279729
20
3.5801437
40
7.380393
50
332.1889516
51
333.8548458
0
ARC
8
DEFAULT_255_2_778
10
20.2331064
20
5.1144701
40
10.834699
50
333.7829679
51
334.1814583
0
ARC
8
DEFAULT_255_2_778
10
17.3500042
20
6.5053856
40
14.0357793
50
334.1960903
51
334.8707146
0
ARC
8
DEFAULT_255_2_778
10
9.7686177
20
10.0505702
40
22.4051099
50
334.8960034
51
335.6716542
0
ARC
8
DEFAULT_255_2_778
10
-7.6007422
20
17.9261246
40
41.4765228
50
335.6431558
51
335.8474458
0
ARC
8
DEFAULT_255_2_778
10
-137.7226124
20
76.2634137
40
184.0771554
50
335.8509479
51
335.89185
0
ARC
8
DEFAULT_255_2_778
10
29.5803945
20
-3.6006995
40
1.8521294
50
82.0889657
51
91.2774882
0
ARC
8
DEFAULT_255_2_778
10
29.5000844
20
-23.4577646
40
21.7087692
50
89.8970209
51
90.0210393
0
ARC
8
DEFAULT_255_2_778
10
29.4597912
20
-5.8291211
40
4.0802523
50
89.5461278
51
91.9375601
0
ARC
8
DEFAULT_255_2_778
10
29.3831514
20
-3.2259675
40
1.4760399
50
92.3807621
51
94.5424106
0
ARC
8
DEFAULT_255_2_778
10
29.3615837
20
-2.9537506
40
1.2029699
50
94.545211
51
99.182561
0
LINE
8
DEFAULT_255_2_778
10
6.0601129
20
-1.7729969
11
6.0601129
21
1.0755031
0
LINE
8
DEFAULT_255_2_778
10
6.0601129
20
1.0755031
11
7.0793129
21
1.0755031
0
LINE
8
DEFAULT_255_2_778
10
6.6845129
20
-0.5133969
11
6.7258129
21
-1.7729969
0
LINE
8
DEFAULT_255_2_778
10
7.0242129
20
0.8590031
11
6.7565129
21
0.8590031
0
LINE
8
DEFAULT_255_2_778
10
6.7565129
20
0.8590031
11
6.7258129
21
-0.2870969
0
LINE
8
DEFAULT_255_2_778
10
8.9083129
20
0.7834031
11
8.9083129
21
-0.1087969
0
LINE
8
DEFAULT_255_2_778
10
8.9083129
20
-0.1087969
11
9.3372129
21
-0.1087969
0
LINE
8
DEFAULT_255_2_778
10
9.3372129
20
-0.3969969
11
8.9083129
21
-0.3969969
0
LINE
8
DEFAULT_255_2_778
10
8.9083129
20
-0.3969969
11
8.9083129
21
-1.4539969
0
LINE
8
DEFAULT_255_2_778
10
9.8555129
20
-1.7557969
11
8.2839129
21
-1.7557969
0
LINE
8
DEFAULT_255_2_778
10
8.2839129
20
-1.7557969
11
8.2839129
21
1.0686031
0
LINE
8
DEFAULT_255_2_778
10
8.2839129
20
1.0686031
11
9.8624129
21
1.0686031
0
LINE
8
DEFAULT_255_2_778
10
9.8624129
20
1.0686031
11
9.8555129
21
1.0717031
0
LINE
8
DEFAULT_255_2_778
10
12.4979129
20
-1.2893969
11
12.4088129
21
-1.6460969
0
LINE
8
DEFAULT_255_2_778
10
12.5186129
20
0.9450031
11
12.4294129
21
0.5161031
0
LINE
8
DEFAULT_255_2_778
10
12.4294129
20
0.5161031
11
12.3744129
21
0.5161031
0
LINE
8
DEFAULT_255_2_778
10
12.4530129
20
-1.2681969
11
12.4979129
21
-1.2893969
0
LINE
8
DEFAULT_255_2_778
10
13.8981129
20
-1.8243969
11
13.8981129
21
-1.8243969
0
LINE
8
DEFAULT_255_2_778
10
13.0435129
20
-0.4548969
11
13.0403129
21
-0.4654969
0
LINE
8
DEFAULT_255_2_778
10
17.3366129
20
0.7836031
11
17.3366129
21
-0.1085969
0
LINE
8
DEFAULT_255_2_778
10
17.3366129
20
-0.1085969
11
17.7655129
21
-0.1085969
0
LINE
8
DEFAULT_255_2_778
10
18.2804129
20
-0.4310969
11
17.7655129
21
-0.3966969
0
LINE
8
DEFAULT_255_2_778
10
17.7655129
20
-0.3966969
11
17.3366129
21
-0.3966969
0
LINE
8
DEFAULT_255_2_778
10
17.3366129
20
-0.3966969
11
17.3366129
21
-1.4536969
0
LINE
8
DEFAULT_255_2_778
10
18.2976129
20
-1.7557969
11
16.7053129
21
-1.7557969
0
LINE
8
DEFAULT_255_2_778
10
16.7053129
20
-1.7557969
11
16.7053129
21
1.0686031
0
LINE
8
DEFAULT_255_2_778
10
16.7053129
20
1.0686031
11
18.2976129
21
1.0686031
0
LINE
8
DEFAULT_255_2_778
10
18.2976129
20
1.0686031
11
18.2976129
21
1.0720031
0
LINE
8
DEFAULT_255_2_778
10
18.7265129
20
1.0720031
11
19.1382129
21
1.0720031
0
LINE
8
DEFAULT_255_2_778
10
19.1382129
20
1.0720031
11
20.9432129
21
-0.8599969
0
LINE
8
DEFAULT_255_2_778
10
20.9432129
20
-0.8599969
11
20.9432129
21
1.0720031
0
LINE
8
DEFAULT_255_2_778
10
20.9432129
20
1.0720031
11
21.2657129
21
1.0720031
0
LINE
8
DEFAULT_255_2_778
10
21.2657129
20
1.0720031
11
21.2657129
21
-1.7761969
0
LINE
8
DEFAULT_255_2_778
10
21.2657129
20
-1.7761969
11
20.9225129
21
-1.7761969
0
LINE
8
DEFAULT_255_2_778
10
20.9225129
20
-1.7761969
11
19.5086129
21
-0.2386969
0
LINE
8
DEFAULT_255_2_778
10
19.5086129
20
-0.2386969
11
19.0625129
21
0.2418031
0
LINE
8
DEFAULT_255_2_778
10
19.0625129
20
0.2418031
11
19.0625129
21
-1.7624969
0
LINE
8
DEFAULT_255_2_778
10
19.0625129
20
-1.7624969
11
18.7194129
21
-1.7624969
0
LINE
8
DEFAULT_255_2_778
10
18.7194129
20
-1.7624969
11
18.7265129
21
1.0720031
0
LINE
8
DEFAULT_255_2_778
10
22.1960129
20
0.7836031
11
22.1960129
21
-0.1085969
0
LINE
8
DEFAULT_255_2_778
10
22.1960129
20
-0.1085969
11
22.6249129
21
-0.1085969
0
LINE
8
DEFAULT_255_2_778
10
23.1397129
20
-0.4310969
11
22.6249129
21
-0.3966969
0
LINE
8
DEFAULT_255_2_778
10
22.6249129
20
-0.3966969
11
22.1960129
21
-0.3966969
0
LINE
8
DEFAULT_255_2_778
10
22.1960129
20
-0.3966969
11
22.1960129
21
-1.4536969
0
LINE
8
DEFAULT_255_2_778
10
23.1432129
20
-1.7557969
11
21.5647129
21
-1.7557969
0
LINE
8
DEFAULT_255_2_778
10
21.5647129
20
-1.7557969
11
21.5647129
21
1.0686031
0
LINE
8
DEFAULT_255_2_778
10
21.5647129
20
1.0686031
11
23.1432129
21
1.0686031
0
LINE
8
DEFAULT_255_2_778
10
23.1432129
20
1.0686031
11
23.1432129
21
1.0720031
0
LINE
8
DEFAULT_255_2_778
10
23.5721129
20
1.0720031
11
24.4643129
21
1.0720031
0
LINE
8
DEFAULT_255_2_778
10
25.5932129
20
-1.5221969
11
25.7546129
21
-1.7727969
0
LINE
8
DEFAULT_255_2_778
10
25.0030129
20
-1.7727969
11
24.5018129
21
-0.8977969
0
LINE
8
DEFAULT_255_2_778
10
24.2341129
20
-0.4344969
11
24.1997129
21
-0.4344969
0
LINE
8
DEFAULT_255_2_778
10
24.1997129
20
-0.4344969
11
24.1997129
21
-1.7727969
0
LINE
8
DEFAULT_255_2_778
10
23.5340129
20
-1.7727969
11
23.5340129
21
1.0755031
0
LINE
8
DEFAULT_255_2_778
10
23.5340129
20
1.0755031
11
23.5721129
21
1.0720031
0
LINE
8
DEFAULT_255_2_778
10
24.1999129
20
0.8559031
11
24.1999129
21
-0.2524969
0
LINE
8
DEFAULT_255_2_778
10
24.1999129
20
-0.2524969
11
24.1968129
21
-0.2524969
0
LINE
8
DEFAULT_255_2_778
10
28.1840129
20
0.4921031
11
28.1290129
21
0.4921031
0
LINE
8
DEFAULT_255_2_778
10
27.7170129
20
-1.4433969
11
27.7170129
21
-0.6882969
0
LINE
8
DEFAULT_255_2_778
10
27.7170129
20
-0.6882969
11
27.3053129
21
-0.6882969
0
LINE
8
DEFAULT_255_2_778
10
27.3053129
20
-0.6882969
11
27.3053129
21
-0.4720969
0
LINE
8
DEFAULT_255_2_778
10
28.3417129
20
-0.4720969
11
28.3417129
21
-1.6184969
0
LINE
8
DEFAULT_255_2_778
10
28.3417129
20
-1.6184969
11
28.3454129
21
-1.6253969
0
LINE
8
DEFAULT_255_2_778
10
29.2035129
20
-0.5717969
11
28.3113129
21
1.0755031
0
LINE
8
DEFAULT_255_2_778
10
28.3113129
20
1.0755031
11
29.0664129
21
1.0755031
0
LINE
8
DEFAULT_255_2_778
10
29.0664129
20
1.0755031
11
29.4233129
21
0.3410031
0
LINE
8
DEFAULT_255_2_778
10
29.4233129
20
0.3410031
11
29.6739129
21
-0.1600969
0
LINE
8
DEFAULT_255_2_778
10
30.2986129
20
1.0752031
11
30.7103129
21
1.0752031
0
LINE
8
DEFAULT_255_2_778
10
30.7103129
20
1.0752031
11
29.8353129
21
-0.4791969
0
LINE
8
DEFAULT_255_2_778
10
29.8353129
20
-0.4791969
11
29.8353129
21
-1.7661969
0
LINE
8
DEFAULT_255_2_778
10
29.1696129
20
-1.7661969
11
29.1696129
21
-0.5649969
0
LINE
8
DEFAULT_255_2_778
10
29.1696129
20
-0.5649969
11
29.2035129
21
-0.5717969
0
ENDSEC
0
EOF