0
SECTION
2
HEADER
9
$MEASUREMENT
70
1
0
ENDSEC
0
SECTION
2
TABLES
0
TABLE
2
LTYPE
0
LTYPE
72
65
70
64
2
CONTINUOUS
3
______
73
0
40
0
0
ENDTAB
0
TABLE
2
LAYER
0
LAYER
2
DEFAULT_255_2_778
70
0
62
255
6
CONTINUOUS
0
ENDTAB
0
ENDSEC
0
SECTION
2
ENTITIES
0
ARC
8
DEFAULT_255_2_778
10
4.5736562
20
7.8253355
40
4.3935457
50
180.2625885
51
205.0550401
0
ARC
8
DEFAULT_255_2_778
10
5.6004906
20
8.2737382
40
5.5137244
50
204.7573839
51
214.8460034
0
ARC
8
DEFAULT_255_2_778
10
6.6297771
20
8.9842469
40
6.7644175
50
214.8036669
51
222.4133221
0
ARC
8
DEFAULT_255_2_778
10
7.71632
20
9.9713881
40
8.2324127
50
222.385204
51
228.4896339
0
ARC
8
DEFAULT_255_2_778
10
8.794632
20
11.183763
40
9.8549405
50
228.4665493
51
233.4296362
0
ARC
8
DEFAULT_255_2_778
10
9.8930073
20
12.6649192
40
11.6989176
50
233.4313673
51
238.2078812
0
ARC
8
DEFAULT_255_2_778
10
10.9632992
20
14.383832
40
13.7238057
50
238.190678
51
242.1654209
0
ARC
8
DEFAULT_255_2_778
10
11.9527802
20
16.2567382
40
15.8420243
50
242.163615
51
245.9817827
0
ARC
8
DEFAULT_255_2_778
10
12.8685003
20
18.3077773
40
18.0881994
50
245.9766988
51
249.5403792
0
ARC
8
DEFAULT_255_2_778
10
13.6675946
20
20.4464278
40
20.3712622
50
249.5372087
51
252.9709747
0
ARC
8
DEFAULT_255_2_778
10
14.3274578
20
22.5961716
40
22.6199988
50
252.9675125
51
256.2884064
0
ARC
8
DEFAULT_255_2_778
10
14.8233101
20
24.6201974
40
24.7038767
50
256.2838682
51
259.4366155
0
ARC
8
DEFAULT_255_2_778
10
15.1703258
20
26.4789982
40
26.594792
50
259.4358109
51
262.7365541
0
ARC
8
DEFAULT_255_2_778
10
15.3761877
20
28.0790015
40
28.2079833
50
262.7326568
51
265.9426616
0
ARC
8
DEFAULT_255_2_778
10
15.4664758
20
29.3401572
40
29.4723666
50
265.9410499
51
269.3756489
0
ARC
8
DEFAULT_255_2_778
10
15.4779431
20
29.9231309
40
30.0554312
50
269.3658996
51
270.0002163
0
ARC
8
DEFAULT_255_2_778
10
15.4827039
20
29.5415221
40
29.6738227
50
269.9910269
51
273.3847332
0
ARC
8
DEFAULT_255_2_778
10
15.5557323
20
28.3341159
40
28.4642111
50
273.3814818
51
276.7508747
0
ARC
8
DEFAULT_255_2_778
10
15.7433349
20
26.7589215
40
26.8778849
50
276.7484578
51
280.0294751
0
ARC
8
DEFAULT_255_2_778
10
16.0692371
20
24.921428
40
25.011714
50
280.0273822
51
283.2532442
0
ARC
8
DEFAULT_255_2_778
10
16.5328379
20
22.9540363
40
22.9904382
50
283.2527011
51
286.3721108
0
ARC
8
DEFAULT_255_2_778
10
17.1412144
20
20.8901285
40
20.8387334
50
286.3667638
51
289.7233395
0
ARC
8
DEFAULT_255_2_778
10
17.9150482
20
18.7369997
40
18.5507695
50
289.7177791
51
293.3193539
0
ARC
8
DEFAULT_255_2_778
10
18.8298338
20
16.6186498
40
16.2433388
50
293.3140688
51
297.1690855
0
ARC
8
DEFAULT_255_2_778
10
19.8406312
20
14.6515975
40
14.0317771
50
297.1646858
51
301.2764768
0
ARC
8
DEFAULT_255_2_778
10
20.9245946
20
12.8715066
40
11.9476241
50
301.2656073
51
305.9330899
0
ARC
8
DEFAULT_255_2_778
10
22.0465256
20
11.3258159
40
10.03768
50
305.9253413
51
311.1052106
0
ARC
8
DEFAULT_255_2_778
10
23.1713343
20
10.0409793
40
8.3300531
50
311.0856791
51
317.2822284
0
ARC
8
DEFAULT_255_2_778
10
24.2737738
20
9.026661
40
6.8319859
50
317.2599432
51
324.7741877
0
ARC
8
DEFAULT_255_2_778
10
25.3087557
20
8.300944
40
5.5679323
50
324.7314772
51
334.6941956
0
ARC
8
DEFAULT_255_2_778
10
26.2632807
20
7.8620839
40
4.5174276
50
334.5513252
51
352.7482989
0
ARC
8
DEFAULT_255_2_778
10
26.5754766
20
7.805173
40
4.2005799
50
352.9808302
51
0.0003654
0
ARC
8
DEFAULT_255_2_778
10
26.3825608
20
7.7850645
40
4.3935419
50
0.2625832
51
25.0550576
0
ARC
8
DEFAULT_255_2_778
10
25.3557389
20
7.3366677
40
5.5137067
50
24.7573966
51
34.8460522
0
ARC
8
DEFAULT_255_2_778
10
24.3264281
20
6.6261384
40
6.7644314
50
34.8037318
51
42.4133772
0
ARC
8
DEFAULT_255_2_778
10
23.2399133
20
5.6390178
40
8.2323921
50
42.3852749
51
48.4897279
0
ARC
8
DEFAULT_255_2_778
10
22.1615597
20
4.4265927
40
9.8549852
50
48.4666408
51
53.4297142
0
ARC
8
DEFAULT_255_2_778
10
21.0632125
20
2.9454696
40
11.698919
50
53.4314476
51
58.2079727
0
ARC
8
DEFAULT_255_2_778
10
19.9929152
20
1.2265384
40
13.7238254
50
58.1907763
51
62.1655261
0
ARC
8
DEFAULT_255_2_778
10
19.0034171
20
-0.6464109
40
15.84209
50
62.1637248
51
65.9818914
0
ARC
8
DEFAULT_255_2_778
10
18.0876819
20
-2.6974996
40
18.0883165
50
65.976814
51
69.5404878
0
ARC
8
DEFAULT_255_2_778
10
17.2885714
20
-4.8362082
40
20.3714396
50
69.5373199
51
72.9710748
0
ARC
8
DEFAULT_255_2_778
10
16.6287095
20
-6.9859685
40
22.6201916
50
72.967618
51
76.2885049
0
ARC
8
DEFAULT_255_2_778
10
16.1328512
20
-9.0100237
40
24.7040994
50
76.2839611
51
79.4367033
0
ARC
8
DEFAULT_255_2_778
10
15.7858116
20
-10.8689648
40
26.5951569
50
79.4358972
51
82.736623
0
ARC
8
DEFAULT_255_2_778
10
15.5799355
20
-12.4690873
40
28.2084684
50
82.732724
51
85.9427046
0
ARC
8
DEFAULT_255_2_778
10
15.4896391
20
-13.7303693
40
29.4729783
50
85.9410922
51
89.3756574
0
ARC
8
DEFAULT_255_2_778
10
15.4781702
20
-14.3133912
40
30.0560911
50
89.3659064
51
90.0002166
0
ARC
8
DEFAULT_255_2_778
10
15.4734101
20
-13.9304827
40
29.6731828
50
89.991028
51
93.3847696
0
ARC
8
DEFAULT_255_2_778
10
15.4003883
20
-12.7232019
40
28.4636968
50
93.3815182
51
96.7509387
0
ARC
8
DEFAULT_255_2_778
10
15.2128
20
-11.1481433
40
26.8775071
50
96.7485218
51
100.0295567
0
ARC
8
DEFAULT_255_2_778
10
14.8869087
20
-9.3107268
40
25.0114139
50
100.0274637
51
103.2533401
0
ARC
8
DEFAULT_255_2_778
10
14.4233122
20
-7.3433727
40
22.9901758
50
103.2527943
51
106.3722191
0
ARC
8
DEFAULT_255_2_778
10
13.8149715
20
-5.2796055
40
20.838616
50
106.3668686
51
109.723444
0
ARC
8
DEFAULT_255_2_778
10
13.0411571
20
-3.1265367
40
18.5507151
50
109.7178906
51
113.3194586
0
ARC
8
DEFAULT_255_2_778
10
12.1263592
20
-1.0081652
40
16.2432596
50
113.314179
51
117.169199
0
ARC
8
DEFAULT_255_2_778
10
11.1155407
20
0.9589067
40
14.031671
50
117.1647771
51
121.2765859
0
ARC
8
DEFAULT_255_2_778
10
10.0316238
20
2.7389106
40
11.9476164
50
121.2657095
51
125.9331832
0
ARC
8
DEFAULT_255_2_778
10
8.9096656
20
4.2846272
40
10.0376354
50
125.9254136
51
131.1052961
0
ARC
8
DEFAULT_255_2_778
10
7.7848644
20
5.5694468
40
8.3300261
50
131.0857442
51
137.2823055
0
ARC
8
DEFAULT_255_2_778
10
6.6824874
20
6.5837075
40
6.8320437
50
137.2600375
51
144.7742121
0
ARC
8
DEFAULT_255_2_778
10
5.6474541
20
7.3094618
40
5.5679267
50
144.7315151
51
154.6942399
0
ARC
8
DEFAULT_255_2_778
10
4.6929393
20
7.7483142
40
4.5174347
50
154.5513477
51
172.7482919
0
ARC
8
DEFAULT_255_2_778
10
4.3807367
20
7.8052266
40
4.2005799
50
172.9808302
51
180.0003654
0
ARC
8
DEFAULT_255_2_778
10
15.4828922
20
30.0541248
40
29.597183
50
269.9912817
51
273.2607765
0
ARC
8
DEFAULT_255_2_778
10
15.5543479
20
28.828379
40
28.3693574
50
273.257507
51
276.5052025
0
ARC
8
DEFAULT_255_2_778
10
15.7413505
20
27.201297
40
26.7315652
50
276.5020713
51
279.7295818
0
ARC
8
DEFAULT_255_2_778
10
16.0684302
20
25.2973096
40
24.7996882
50
279.728185
51
282.8427633
0
ARC
8
DEFAULT_255_2_778
10
16.5287604
20
23.2792187
40
22.7297619
50
282.8421566
51
285.8599248
0
ARC
8
DEFAULT_255_2_778
10
17.1316439
20
21.1642792
40
20.5305726
50
285.8544856
51
289.1094145
0
ARC
8
DEFAULT_255_2_778
10
17.8970947
20
18.9605043
40
18.1976485
50
289.1037032
51
292.6064186
0
ARC
8
DEFAULT_255_2_778
10
18.8007194
20
16.7943523
40
15.8505759
50
292.600886
51
296.3634091
0
ARC
8
DEFAULT_255_2_778
10
19.7976779
20
14.7853212
40
13.6077805
50
296.3586348
51
300.3885355
0
ARC
8
DEFAULT_255_2_778
10
20.8653778
20
12.9692396
40
11.5010938
50
300.3769351
51
304.9741962
0
ARC
8
DEFAULT_255_2_778
10
21.9693984
20
11.3935401
40
9.5771167
50
304.9655624
51
310.0978738
0
ARC
8
DEFAULT_255_2_778
10
23.0754721
20
10.0845143
40
7.8633674
50
310.0763892
51
316.2600361
0
ARC
8
DEFAULT_255_2_778
10
24.1590526
20
9.0514768
40
6.3662691
50
316.2346678
51
323.7983488
0
ARC
8
DEFAULT_255_2_778
10
25.1651556
20
8.3195293
40
5.1220929
50
323.758153
51
333.6243277
0
ARC
8
DEFAULT_255_2_778
10
26.0692874
20
7.8809933
40
4.1172685
50
333.5021408
51
350.2739901
0
ARC
8
DEFAULT_255_2_778
10
26.4234334
20
7.8053046
40
3.7554552
50
350.4993703
51
359.9944714
0
ARC
8
DEFAULT_255_2_778
10
26.2508523
20
7.7860791
40
3.9280817
50
0.2751423
51
25.1149953
0
ARC
8
DEFAULT_255_2_778
10
25.3045382
20
7.3724143
40
4.9605775
50
24.8020505
51
34.7860247
0
ARC
8
DEFAULT_255_2_778
10
24.331308
20
6.7000966
40
6.143447
50
34.7573555
51
42.6485936
0
ARC
8
DEFAULT_255_2_778
10
23.2651643
20
5.7238519
40
7.589027
50
42.6164146
51
48.8820333
0
ARC
8
DEFAULT_255_2_778
10
22.1981925
20
4.5079129
40
9.2067173
50
48.855924
51
53.9035594
0
ARC
8
DEFAULT_255_2_778
10
21.1170397
20
3.0256967
40
11.0413443
50
53.9017012
51
58.6230467
0
ARC
8
DEFAULT_255_2_778
10
20.0560593
20
1.2928141
40
13.073228
50
58.6074029
51
62.6045786
0
ARC
8
DEFAULT_255_2_778
10
19.0584688
20
-0.630765
40
15.240102
50
62.6022527
51
66.4160787
0
ARC
8
DEFAULT_255_2_778
10
18.1315139
20
-2.7497746
40
17.5529885
50
66.4104234
51
69.9488226
0
ARC
8
DEFAULT_255_2_778
10
17.3203525
20
-4.9686508
40
19.9154857
50
69.9452786
51
73.3374836
0
ARC
8
DEFAULT_255_2_778
10
16.6488936
20
-7.2069208
40
22.2523014
50
73.3336812
51
76.6005253
0
ARC
8
DEFAULT_255_2_778
10
16.1437743
20
-9.3183691
40
24.4233277
50
76.5956832
51
79.6868284
0
ARC
8
DEFAULT_255_2_778
10
15.7902864
20
-11.2585448
40
26.395442
50
79.6858942
51
82.9138809
0
ARC
8
DEFAULT_255_2_778
10
15.5810781
20
-12.9252331
40
28.0752082
50
82.9097873
51
86.0434854
0
ARC
8
DEFAULT_255_2_778
10
15.4930489
20
-14.1685764
40
29.3216623
50
86.0395198
51
89.0183938
0
ARC
8
DEFAULT_255_2_778
10
15.4787401
20
-14.7739873
40
29.9272297
50
89.0108598
51
90.0006729
0
ARC
8
DEFAULT_255_2_778
10
15.4738866
20
-14.4443415
40
29.597584
50
89.9912848
51
93.2606999
0
ARC
8
DEFAULT_255_2_778
10
15.4024422
20
-13.2186152
40
28.3697783
50
93.2574476
51
96.5050687
0
ARC
8
DEFAULT_255_2_778
10
15.2154128
20
-11.5912413
40
26.731693
50
96.501943
51
99.7294196
0
ARC
8
DEFAULT_255_2_778
10
14.8883196
20
-9.6872117
40
24.7997722
50
99.7279961
51
102.8425519
0
ARC
8
DEFAULT_255_2_778
10
14.428012
20
-7.6692147
40
22.7299425
50
102.8419288
51
105.8596663
0
ARC
8
DEFAULT_255_2_778
10
13.8252083
20
-5.5545067
40
20.5309977
50
105.8542373
51
109.1090958
0
ARC
8
DEFAULT_255_2_778
10
13.0596478
20
-3.3503581
40
18.1976846
50
109.1034022
51
112.6061116
0
ARC
8
DEFAULT_255_2_778
10
12.1560571
20
-1.1842531
40
15.8506685
50
112.6005817
51
116.3630879
0
ARC
8
DEFAULT_255_2_778
10
11.1590923
20
0.8248156
40
13.6078367
50
116.3583074
51
120.3882008
0
ARC
8
DEFAULT_255_2_778
10
10.0912724
20
2.6411177
40
11.5008989
50
120.3765783
51
124.9739325
0
ARC
8
DEFAULT_255_2_778
10
8.9873755
20
4.2166477
40
9.5771316
50
124.9652717
51
130.0975975
0
ARC
8
DEFAULT_255_2_778
10
7.8813061
20
5.5256901
40
7.8633722
50
130.0761542
51
136.2598326
0
ARC
8
DEFAULT_255_2_778
10
6.7977393
20
6.558728
40
6.3662835
50
136.2345039
51
143.7982252
0
ARC
8
DEFAULT_255_2_778
10
5.7916406
20
7.2906798
40
5.1221082
50
143.7580659
51
153.6243146
0
ARC
8
DEFAULT_255_2_778
10
4.8875402
20
7.7292025
40
4.1173178
50
153.5021557
51
170.2740726
0
ARC
8
DEFAULT_255_2_778
10
4.5334447
20
7.8048806
40
3.7555561
50
170.4994251
51
179.9944832
0
ARC
8
DEFAULT_255_2_778
10
4.705886
20
7.8241073
40
3.9280427
50
180.2751744
51
205.1152944
0
ARC
8
DEFAULT_255_2_778
10
5.6522269
20
8.2377886
40
4.9605696
50
204.8023271
51
214.7863468
0
ARC
8
DEFAULT_255_2_778
10
6.6255136
20
8.9101535
40
6.1435125
50
214.7576774
51
222.6488645
0
ARC
8
DEFAULT_255_2_778
10
7.6916713
20
9.8864244
40
7.5891204
50
222.616708
51
228.8822799
0
ARC
8
DEFAULT_255_2_778
10
8.7586524
20
11.102385
40
9.2068332
50
228.8561723
51
233.9037697
0
ARC
8
DEFAULT_255_2_778
10
9.8398101
20
12.5846154
40
11.0414745
50
233.9018995
51
238.6232121
0
ARC
8
DEFAULT_255_2_778
10
10.9007911
20
14.3175023
40
13.073362
50
238.6075503
51
242.6047022
0
ARC
8
DEFAULT_255_2_778
10
11.8984113
20
16.2411414
40
15.240303
50
242.6023636
51
246.4161525
0
ARC
8
DEFAULT_255_2_778
10
12.8253834
20
18.3601998
40
17.553241
50
246.4104998
51
249.9488564
0
ARC
8
DEFAULT_255_2_778
10
13.6365439
20
20.5790792
40
19.915741
50
249.9453141
51
253.3374789
0
ARC
8
DEFAULT_255_2_778
10
14.3079561
20
22.817197
40
22.2523974
50
253.3336798
51
256.6005077
0
ARC
8
DEFAULT_255_2_778
10
14.8130761
20
24.9286365
40
24.4234153
50
256.5956607
51
259.6867867
0
ARC
8
DEFAULT_255_2_778
10
15.1665293
20
26.8686143
40
26.3953286
50
259.685853
51
262.913838
0
ARC
8
DEFAULT_255_2_778
10
15.3757178
20
28.5351207
40
28.074912
50
262.9097413
51
266.0434494
0
ARC
8
DEFAULT_255_2_778
10
15.4637319
20
29.7782287
40
29.3211303
50
266.0394826
51
269.0183809
0
ARC
8
DEFAULT_255_2_778
10
15.4780372
20
30.3834684
40
29.9265264
50
269.0108482
51
270.0006728
0
ARC
8
DEFAULT_255_2_778
10
8.5030467
20
11.556715
40
4.6627345
50
269.861732
51
274.9511573
0
ARC
8
DEFAULT_255_2_778
10
8.6303669
20
10.1348061
40
3.2351455
50
274.8780989
51
281.9349868
0
ARC
8
DEFAULT_255_2_778
10
8.859614
20
9.0685071
40
2.1444913
50
281.8340201
51
291.7616885
0
ARC
8
DEFAULT_255_2_778
10
9.1414033
20
8.3730739
40
1.3941517
50
291.6023317
51
306.6185911
0
ARC
8
DEFAULT_255_2_778
10
9.1529919
20
8.3145294
40
1.3404951
50
307.7136967
51
327.4448313
0
ARC
8
DEFAULT_255_2_778
10
8.6266754
20
8.658838
40
1.9694022
50
327.2414201
51
339.0399106
0
ARC
8
DEFAULT_255_2_778
10
7.759185
20
8.9973761
40
2.9005975
50
338.9249407
51
347.1242897
0
ARC
8
DEFAULT_255_2_778
10
7.0017467
20
9.1857164
40
3.6809895
50
346.893619
51
348.8531883
0
ARC
8
DEFAULT_255_2_778
10
7.1848498
20
9.1532046
40
3.495057
50
348.7958155
51
352.1354056
0
ARC
8
DEFAULT_255_2_778
10
8.0343204
20
9.0366356
40
2.6376259
50
352.118841
51
356.1543521
0
ARC
8
DEFAULT_255_2_778
10
8.6461154
20
8.9944902
40
2.024382
50
356.1831702
51
359.9244751
0
ARC
8
DEFAULT_255_2_778
10
9.2379863
20
8.9998325
40
1.4325318
50
359.6795969
51
8.4605311
0
ARC
8
DEFAULT_255_2_778
10
9.7723267
20
9.0820634
40
0.8919121
50
8.2858293
51
21.6643113
0
ARC
8
DEFAULT_255_2_778
10
10.0640075
20
9.1989079
40
0.5777003
50
21.5738868
51
41.8705813
0
ARC
8
DEFAULT_255_2_778
10
10.0073094
20
9.120915
40
0.6722817
50
43.5953501
51
65.0766633
0
ARC
8
DEFAULT_255_2_778
10
9.7444305
20
8.5814714
40
1.2723148
50
64.5779991
51
76.1997072
0
ARC
8
DEFAULT_255_2_778
10
9.5026596
20
7.6303963
40
2.253621
50
75.9982529
51
83.4984295
0
ARC
8
DEFAULT_255_2_778
10
9.3310361
20
6.1822116
40
3.7119307
50
83.3974641
51
88.6424168
0
ARC
8
DEFAULT_255_2_778
10
9.2846175
20
4.8627224
40
5.032172
50
88.4699866
51
90.0196181
0
LINE
8
DEFAULT_255_2_778
10
5.0021945
20
3.1966941
11
5.001856
21
3.1966938
0
ARC
8
DEFAULT_255_2_778
10
5.0018159
20
3.3633105
40
0.1666168
50
220.0077266
51
270.0138047
0
ARC
8
DEFAULT_255_2_778
10
4.9995378
20
3.3607443
40
0.1632228
50
180.0346498
51
219.831823
0
ARC
8
DEFAULT_255_2_778
10
4.9993898
20
3.3606415
40
0.1630748
50
174.5529018
51
179.9985675
0
ARC
8
DEFAULT_255_2_778
10
5.0003511
20
3.3605464
40
0.1640409
50
169.0543654
51
174.5517261
0
ARC
8
DEFAULT_255_2_778
10
6.5688783
20
11.3130897
40
0.1656059
50
89.752215
51
168.5042821
0
ARC
8
DEFAULT_255_2_778
10
9.9604404
20
6.2950496
40
5.18366
50
83.9697067
51
90.1397776
0
ARC
8
DEFAULT_255_2_778
10
10.0981642
20
7.5705894
40
3.900711
50
75.9864494
51
84.013196
0
ARC
8
DEFAULT_255_2_778
10
10.335813
20
8.5105311
40
2.931198
50
65.122531
51
76.0444613
0
ARC
8
DEFAULT_255_2_778
10
10.6291533
20
9.128971
40
2.246749
50
45.6105151
51
65.2744297
0
ARC
8
DEFAULT_255_2_778
10
10.7331871
20
9.2499837
40
2.0875235
50
41.5064316
51
45.327548
0
ARC
8
DEFAULT_255_2_778
10
10.7388167
20
9.2587368
40
2.0775088
50
14.0551695
51
41.4285403
0
ARC
8
DEFAULT_255_2_778
10
10.2184362
20
9.1171906
40
2.6167084
50
3.529107
51
14.294519
0
ARC
8
DEFAULT_255_2_778
10
9.712749
20
9.0762341
40
3.1239731
50
359.9661764
51
3.7079458
0
ARC
8
DEFAULT_255_2_778
10
9.2766519
20
9.0780222
40
3.5600715
50
355.3906528
51
359.9415426
0
ARC
8
DEFAULT_255_2_778
10
8.6945865
20
9.1242803
40
4.1439718
50
351.5418971
51
355.3998776
0
ARC
8
DEFAULT_255_2_778
10
8.105269
20
9.2102039
40
4.7395184
50
348.8168518
51
351.562344
0
ARC
8
DEFAULT_255_2_778
10
9.0422449
20
9.0090932
40
3.781361
50
334.8686308
51
349.0527637
0
ARC
8
DEFAULT_255_2_778
10
9.3428583
20
8.8791469
40
3.4540315
50
330.4865364
51
334.7023522
0
ARC
8
DEFAULT_255_2_778
10
9.1485766
20
9.0071201
40
3.6861795
50
315.2764449
51
330.2431458
0
ARC
8
DEFAULT_255_2_778
10
8.8467076
20
9.2860009
40
4.0969302
50
312.2565564
51
315.4760625
0
ARC
8
DEFAULT_255_2_778
10
9.3034593
20
8.7231919
40
3.3734706
50
295.6228337
51
312.9427531
0
ARC
8
DEFAULT_255_2_778
10
9.4104307
20
8.5228646
40
3.1465995
50
287.7820828
51
295.4439983
0
ARC
8
DEFAULT_255_2_778
10
9.25424
20
9.0454326
40
3.6919179
50
281.1506506
51
287.6135087
0
ARC
8
DEFAULT_255_2_778
10
8.9657264
20
10.4862543
40
5.1613373
50
276.2519268
51
281.1997993
0
ARC
8
DEFAULT_255_2_778
10
8.7617656
20
12.329236
40
7.01557
50
272.0669627
51
276.2686401
0
ARC
8
DEFAULT_255_2_778
10
8.6857651
20
14.1346768
40
8.8225838
50
269.9709667
51
272.1373171
0
ARC
8
DEFAULT_255_2_778
10
6.7608083
20
3.3625556
40
0.165364
50
269.6833738
51
348.5731024
0
LINE
8
DEFAULT_255_2_778
10
9.2828945
20
9.8948941
11
8.2160945
21
9.8948941
0
LINE
8
DEFAULT_255_2_778
10
8.2160945
20
9.8948941
11
7.6239945
21
6.8931941
0
LINE
8
DEFAULT_255_2_778
10
7.6239945
20
6.8931941
11
8.4912945
21
6.8931941
0
LINE
8
DEFAULT_255_2_778
10
8.4912945
20
6.8931941
11
8.4917945
21
6.8939941
0
LINE
8
DEFAULT_255_2_778
10
4.8392945
20
3.3916941
11
6.4065945
21
11.3460941
0
LINE
8
DEFAULT_255_2_778
10
6.5695945
20
11.4786941
11
9.9477945
21
11.4786941
0
LINE
8
DEFAULT_255_2_778
10
8.6812945
20
5.3120941
11
7.3133945
21
5.3120941
0
LINE
8
DEFAULT_255_2_778
10
7.3133945
20
5.3120941
11
6.9228945
21
3.3297941
0
LINE
8
DEFAULT_255_2_778
10
6.7598945
20
3.1971941
11
5.0024945
21
3.1971941
0
LINE
8
DEFAULT_255_2_778
10
5.0024945
20
3.1971941
11
5.0021945
21
3.1966941
0
ARC
8
DEFAULT_255_2_778
10
9.288235
20
5.2585353
40
4.4736827
50
87.1165948
51
90.0687715
0
ARC
8
DEFAULT_255_2_778
10
9.3491827
20
6.4367848
40
3.2938594
50
83.4016283
51
87.1444305
0
ARC
8
DEFAULT_255_2_778
10
9.4597825
20
7.383184
40
2.3410205
50
78.8617696
51
83.4289786
0
ARC
8
DEFAULT_255_2_778
10
9.6029283
20
8.1030633
40
1.607049
50
73.0774857
51
78.9111679
0
ARC
8
DEFAULT_255_2_778
10
9.7629801
20
8.6249826
40
1.0611422
50
65.6961314
51
73.1423965
0
ARC
8
DEFAULT_255_2_778
10
9.8791498
20
8.8891966
40
0.7725367
50
61.6613371
51
65.4832786
0
ARC
8
DEFAULT_255_2_778
10
9.9622
20
9.0407754
40
0.5997022
50
55.0668215
51
61.7707831
0
ARC
8
DEFAULT_255_2_778
10
10.055085
20
9.1734262
40
0.4377647
50
47.4638304
51
55.0917395
0
ARC
8
DEFAULT_255_2_778
10
10.1213342
20
9.246752
40
0.3389473
50
42.5167832
51
47.3359453
0
ARC
8
DEFAULT_255_2_778
10
10.0452596
20
9.1885736
40
0.4344214
50
18.5789046
51
41.391744
0
ARC
8
DEFAULT_255_2_778
10
9.7089971
20
9.0682915
40
0.7915129
50
6.7396813
51
19.0767236
0
ARC
8
DEFAULT_255_2_778
10
9.1893355
20
9.0005297
40
1.3155511
50
359.7439201
51
7.0143587
0
ARC
8
DEFAULT_255_2_778
10
8.5480393
20
8.9997917
40
1.9568409
50
354.9378367
51
359.8494498
0
ARC
8
DEFAULT_255_2_778
10
7.779835
20
9.0662882
40
2.7279168
50
351.0665835
51
354.9703198
0
ARC
8
DEFAULT_255_2_778
10
7.0101706
20
9.1835445
40
3.5064551
50
348.8606962
51
351.1267904
0
ARC
8
DEFAULT_255_2_778
10
7.3976048
20
9.0974088
40
3.109694
50
341.9955407
51
349.0387289
0
ARC
8
DEFAULT_255_2_778
10
8.3729187
20
8.7756327
40
2.0826856
50
331.7774499
51
342.1209546
0
ARC
8
DEFAULT_255_2_778
10
9.0109401
20
8.4281992
40
1.3562207
50
315.8100145
51
331.9637959
0
ARC
8
DEFAULT_255_2_778
10
9.2305043
20
8.226839
40
1.0584654
50
307.2961407
51
315.3410616
0
ARC
8
DEFAULT_255_2_778
10
9.1295638
20
8.3843055
40
1.2449873
50
290.9679634
51
306.6005204
0
ARC
8
DEFAULT_255_2_778
10
8.8499477
20
9.0924383
40
2.0063021
50
281.3469385
51
291.1877957
0
ARC
8
DEFAULT_255_2_778
10
8.6242206
20
10.1870265
40
3.1239128
50
274.5221383
51
281.4561669
0
ARC
8
DEFAULT_255_2_778
10
8.502236
20
11.6366531
40
4.5786502
50
269.8689735
51
274.6136146
0
ARC
8
DEFAULT_255_2_778
10
6.5679205
20
11.2921507
40
0.3500695
50
89.6816968
51
89.9938923
0
ARC
8
DEFAULT_255_2_778
10
6.568036
20
11.3114199
40
0.3308002
50
90.0135323
51
168.5099228
0
ARC
8
DEFAULT_255_2_778
10
4.9962305
20
3.3606128
40
0.325778
50
168.9748242
51
175.1994434
0
ARC
8
DEFAULT_255_2_778
10
4.9952671
20
3.360706
40
0.3248103
50
175.201593
51
179.9989049
0
ARC
8
DEFAULT_255_2_778
10
4.9947885
20
3.3607262
40
0.3243317
50
180.0024781
51
220.0080814
0
ARC
8
DEFAULT_255_2_778
10
5.0017742
20
3.3668042
40
0.3335901
50
220.0363197
51
270.0024593
0
ARC
8
DEFAULT_255_2_778
10
5.0019578
20
3.2240269
40
0.1908129
50
269.9491639
51
270.1524002
0
ARC
8
DEFAULT_255_2_778
10
6.7613105
20
3.3834053
40
0.350196
50
269.6817548
51
269.9939202
0
ARC
8
DEFAULT_255_2_778
10
6.7612769
20
3.3638114
40
0.3306022
50
269.9993708
51
348.5202897
0
ARC
8
DEFAULT_255_2_778
10
8.6932858
20
13.6405038
40
8.492498
50
269.916878
51
273.7033991
0
ARC
8
DEFAULT_255_2_778
10
8.8291034
20
11.5636237
40
6.4111824
50
273.6910199
51
278.0625326
0
ARC
8
DEFAULT_255_2_778
10
9.0709901
20
9.8785118
40
4.7088023
50
278.0241745
51
283.6197608
0
ARC
8
DEFAULT_255_2_778
10
9.3275833
20
8.7952949
40
3.5956284
50
283.7105139
51
287.7333249
0
ARC
8
DEFAULT_255_2_778
10
9.3720032
20
8.618201
40
3.4134392
50
287.9285606
51
309.8453704
0
ARC
8
DEFAULT_255_2_778
10
9.1385534
20
8.9261532
40
3.799496
50
309.5728282
51
312.6948095
0
ARC
8
DEFAULT_255_2_778
10
9.0408584
20
9.100931
40
3.9944729
50
312.0247653
51
325.9281352
0
ARC
8
DEFAULT_255_2_778
10
9.3680927
20
8.8655656
40
3.5915727
50
326.1137362
51
330.5041088
0
ARC
8
DEFAULT_255_2_778
10
9.1545297
20
8.9712498
40
3.8295135
50
330.7010569
51
346.2339084
0
ARC
8
DEFAULT_255_2_778
10
8.7917235
20
9.0744295
40
4.2064736
50
346.0448097
51
348.8336963
0
ARC
8
DEFAULT_255_2_778
10
8.1670979
20
9.2003033
40
4.8436517
50
348.8037974
51
352.3002301
0
ARC
8
DEFAULT_255_2_778
10
8.7931887
20
9.1155293
40
4.2118478
50
352.3019263
51
355.9628147
0
ARC
8
DEFAULT_255_2_778
10
9.3127128
20
9.0789526
40
3.6910377
50
355.9614087
51
359.9570332
0
ARC
8
DEFAULT_255_2_778
10
9.9270181
20
9.0853991
40
3.0767452
50
359.8284064
51
8.8274827
0
ARC
8
DEFAULT_255_2_778
10
10.5278598
20
9.1817785
40
2.4682319
50
8.7570828
51
22.4445522
0
ARC
8
DEFAULT_255_2_778
10
10.7738803
20
9.2772903
40
2.2043894
50
22.5914392
51
41.6059975
0
ARC
8
DEFAULT_255_2_778
10
10.65702
20
9.1648127
40
2.3664637
50
41.76354
51
64.3293653
0
ARC
8
DEFAULT_255_2_778
10
10.3566003
20
8.5611346
40
3.0407133
50
64.1549481
51
75.4227309
0
ARC
8
DEFAULT_255_2_778
10
10.1129596
20
7.641944
40
3.9916376
50
75.3588441
51
83.4578875
0
ARC
8
DEFAULT_255_2_778
10
9.9668111
20
6.3969203
40
5.2452065
50
83.4213269
51
89.7559893
0
ARC
8
DEFAULT_255_2_778
10
9.9486572
20
5.587478
40
6.0547366
50
89.616822
51
90.0008693
0
ARC
8
DEFAULT_255_2_778
10
8.5046248
20
11.573034
40
4.8425348
50
269.8549488
51
275.0540659
0
ARC
8
DEFAULT_255_2_778
10
8.637652
20
10.1076791
40
3.3711597
50
274.9959654
51
282.0223848
0
ARC
8
DEFAULT_255_2_778
10
8.8688777
20
9.0414302
40
2.2801384
50
281.9203404
51
292.0366292
0
ARC
8
DEFAULT_255_2_778
10
9.1460601
20
8.3643852
40
1.5485595
50
291.9291149
51
306.8499887
0
ARC
8
DEFAULT_255_2_778
10
9.1446595
20
8.3290228
40
1.5212661
50
307.6909773
51
328.2630096
0
ARC
8
DEFAULT_255_2_778
10
8.6088058
20
8.6700766
40
2.1564114
50
328.0454972
51
339.3786939
0
ARC
8
DEFAULT_255_2_778
10
7.7234911
20
9.0082563
40
3.1041098
50
339.2916943
51
347.3166955
0
ARC
8
DEFAULT_255_2_778
10
6.9469283
20
9.1985566
40
3.9035354
50
347.0942801
51
348.8487574
0
ARC
8
DEFAULT_255_2_778
10
7.2214832
20
9.1464413
40
3.6240856
50
348.8176523
51
352.1992294
0
ARC
8
DEFAULT_255_2_778
10
8.0470497
20
9.0339967
40
2.790897
50
352.1859018
51
356.2219213
0
ARC
8
DEFAULT_255_2_778
10
8.6410049
20
8.9936897
40
2.195577
50
356.2501694
51
359.9335659
0
ARC
8
DEFAULT_255_2_778
10
9.2354624
20
8.9995862
40
1.6011401
50
359.6978985
51
8.6678999
0
ARC
8
DEFAULT_255_2_778
10
9.7835118
20
9.0859421
40
1.0463396
50
8.5159612
51
22.1437826
0
ARC
8
DEFAULT_255_2_778
10
10.0734022
20
9.2039247
40
0.7333597
50
22.1429004
51
42.0501193
0
ARC
8
DEFAULT_255_2_778
10
10.0216869
20
9.1344071
40
0.8184993
50
43.2390322
51
64.2165055
0
ARC
8
DEFAULT_255_2_778
10
9.7565396
20
8.6070205
40
1.408744
50
63.8361386
51
75.4748746
0
ARC
8
DEFAULT_255_2_778
10
9.5113283
20
7.6862083
40
2.3616338
50
75.3188788
51
83.1087835
0
ARC
8
DEFAULT_255_2_778
10
9.3356443
20
6.2863302
40
3.7724839
50
83.0108082
51
88.4460065
0
ARC
8
DEFAULT_255_2_778
10
9.2855113
20
4.9817744
40
5.0779408
50
88.2797318
51
90.0230853
0
ARC
8
DEFAULT_255_2_778
10
9.9617841
20
6.2401879
40
5.0747433
50
84.1296855
51
90.1458585
0
ARC
8
DEFAULT_255_2_778
10
10.1010039
20
7.5641796
40
3.7434569
50
76.2386788
51
84.1767589
0
ARC
8
DEFAULT_255_2_778
10
10.3376122
20
8.5176153
40
2.7611072
50
65.362379
51
76.3012489
0
ARC
8
DEFAULT_255_2_778
10
10.623104
20
9.1266001
40
2.0885552
50
45.6640042
51
65.5168047
0
ARC
8
DEFAULT_255_2_778
10
10.7173804
20
9.2371326
40
1.9436347
50
41.5271951
51
45.3746507
0
ARC
8
DEFAULT_255_2_778
10
10.7343243
20
9.2560941
40
1.9183811
50
13.9698933
51
41.4387295
0
ARC
8
DEFAULT_255_2_778
10
10.2283509
20
9.119685
40
2.4423415
50
3.4769191
51
14.2098007
0
ARC
8
DEFAULT_255_2_778
10
9.7236621
20
9.0792753
40
2.9485682
50
359.9644144
51
3.6659463
0
ARC
8
DEFAULT_255_2_778
10
9.2762208
20
9.0812627
40
3.3960111
50
355.3532432
51
359.9355725
0
ARC
8
DEFAULT_255_2_778
10
8.6636476
20
9.1303143
40
4.0105447
50
351.5188138
51
355.3637517
0
ARC
8
DEFAULT_255_2_778
10
8.0340378
20
9.222359
40
4.646845
50
348.8305753
51
351.5412505
0
ARC
8
DEFAULT_255_2_778
10
9.0398094
20
9.007454
40
3.61853
50
335.4595636
51
349.0840076
0
ARC
8
DEFAULT_255_2_778
10
9.3227066
20
8.8896143
40
3.3122602
50
330.4688988
51
335.2813558
0
ARC
8
DEFAULT_255_2_778
10
9.1633397
20
8.9931311
40
3.5019654
50
314.6312939
51
330.2804602
0
ARC
8
DEFAULT_255_2_778
10
8.8167815
20
9.3212793
40
3.9789937
50
312.2041191
51
314.8629504
0
ARC
8
DEFAULT_255_2_778
10
9.28692
20
8.7389579
40
3.2320937
50
297.6413905
51
312.9651721
0
ARC
8
DEFAULT_255_2_778
10
9.4072719
20
8.5305973
40
2.9916945
50
287.7747871
51
297.4508325
0
ARC
8
DEFAULT_255_2_778
10
9.2361605
20
9.102807
40
3.5888447
50
280.7850928
51
287.5873765
0
ARC
8
DEFAULT_255_2_778
10
8.9488816
20
10.58833
40
5.1018864
50
275.6567159
51
280.832538
0
ARC
8
DEFAULT_255_2_778
10
8.755437
20
12.4860951
40
7.0094796
50
271.876212
51
275.701213
0
ARC
8
DEFAULT_255_2_778
10
8.6859739
20
14.3099718
40
8.834658
50
269.9727058
51
271.9391956
0
LINE
8
DEFAULT_255_2_778
10
8.3528653
20
9.7322147
11
9.2828653
21
9.7322147
0
LINE
8
DEFAULT_255_2_778
10
8.4917653
20
7.0580147
11
7.8258653
21
7.0580147
0
LINE
8
DEFAULT_255_2_778
10
7.8258653
20
7.0580147
11
8.3528653
21
9.7322147
0
LINE
8
DEFAULT_255_2_778
10
8.3528653
20
9.7322147
11
8.3528653
21
9.7322147
0
LINE
8
DEFAULT_255_2_778
10
9.9480653
20
11.6422147
11
6.5698653
21
11.6422147
0
LINE
8
DEFAULT_255_2_778
10
6.2438653
20
11.3773147
11
4.6764653
21
3.4229147
0
LINE
8
DEFAULT_255_2_778
10
5.0024653
20
3.0332147
11
6.7593653
21
3.0332147
0
LINE
8
DEFAULT_255_2_778
10
7.0852653
20
3.2980147
11
7.4498653
21
5.1480147
0
LINE
8
DEFAULT_255_2_778
10
7.4498653
20
5.1480147
11
8.6809653
21
5.1480147
0
LINE
8
DEFAULT_255_2_778
10
7.4236653
20
6.7305147
11
8.4923653
21
6.7305147
0
LINE
8
DEFAULT_255_2_778
10
9.2834653
20
10.0597147
11
8.0798653
21
10.0597147
0
LINE
8
DEFAULT_255_2_778
10
8.0798653
20
10.0597147
11
7.4239653
21
6.7305147
0
LINE
8
DEFAULT_255_2_778
10
8.6817653
20
5.4753147
11
7.1770653
21
5.4753147
0
LINE
8
DEFAULT_255_2_778
10
7.1770653
20
5.4753147
11
6.7593653
21
3.3602147
0
LINE
8
DEFAULT_255_2_778
10
6.7593653
20
3.3602147
11
5.0024653
21
3.3602147
0
LINE
8
DEFAULT_255_2_778
10
5.0024653
20
3.3602147
11
6.5695653
21
11.3146147
0
LINE
8
DEFAULT_255_2_778
10
6.5695653
20
11.3146147
11
9.9477653
21
11.3146147
0
LINE
8
DEFAULT_255_2_778
10
16.783092
20
5.3112568
11
16.7827536
21
5.3112564
0
ARC
8
DEFAULT_255_2_778
10
16.7827801
20
5.4782308
40
0.1669744
50
220.0649648
51
269.9909104
0
ARC
8
DEFAULT_255_2_778
10
16.7808707
20
5.4754219
40
0.1637078
50
180.0207226
51
219.742707
0
ARC
8
DEFAULT_255_2_778
10
16.7814189
20
5.4753536
40
0.1642559
50
173.9826924
51
179.9968343
0
ARC
8
DEFAULT_255_2_778
10
16.782628
20
5.4752249
40
0.1654718
50
169.1909949
51
173.9822645
0
ARC
8
DEFAULT_255_2_778
10
14.9725315
20
9.4917928
40
2.3866051
50
348.7516512
51
352.8514312
0
ARC
8
DEFAULT_255_2_778
10
15.6960652
20
9.4020297
40
1.6575256
50
352.8177957
51
357.8254422
0
ARC
8
DEFAULT_255_2_778
10
16.0956631
20
9.3835943
40
1.2575202
50
357.9739666
51
359.9752749
0
ARC
8
DEFAULT_255_2_778
10
16.4949739
20
9.390437
40
0.8582411
50
359.5069501
51
9.4385314
0
ARC
8
DEFAULT_255_2_778
10
16.9270856
20
9.4656596
40
0.419657
50
8.9821714
51
26.0961786
0
ARC
8
DEFAULT_255_2_778
10
17.09855
20
9.546803
40
0.229993
50
26.7320078
51
42.693829
0
ARC
8
DEFAULT_255_2_778
10
17.0920362
20
9.5354006
40
0.2425447
50
43.6302195
51
54.0117396
0
ARC
8
DEFAULT_255_2_778
10
17.0154476
20
9.4308199
40
0.3721702
50
53.9321312
51
62.3981784
0
ARC
8
DEFAULT_255_2_778
10
16.9697104
20
9.3483882
40
0.4664174
50
62.1108327
51
62.772554
0
ARC
8
DEFAULT_255_2_778
10
16.8959126
20
9.1932295
40
0.6381709
50
63.2545057
51
72.8867908
0
ARC
8
DEFAULT_255_2_778
10
16.7570456
20
8.7521868
40
1.1005536
50
72.7338761
51
79.5986881
0
ARC
8
DEFAULT_255_2_778
10
16.6332574
20
8.0920792
40
1.7721646
50
79.5153689
51
84.642088
0
ARC
8
DEFAULT_255_2_778
10
16.5480136
20
7.2189528
40
2.6494382
50
84.5698266
51
88.201497
0
ARC
8
DEFAULT_255_2_778
10
16.5165713
20
6.3593999
40
3.5095572
50
88.1288469
51
90.0323129
0
ARC
8
DEFAULT_255_2_778
10
14.2250606
20
5.4769287
40
0.1651748
50
269.6640032
51
348.6269216
0
LINE
8
DEFAULT_255_2_778
10
12.481192
20
5.3117568
11
12.4808536
21
5.3117564
0
ARC
8
DEFAULT_255_2_778
10
12.4808135
20
5.4783732
40
0.1666168
50
220.0077266
51
270.0138047
0
ARC
8
DEFAULT_255_2_778
10
12.47818
20
5.475865
40
0.1629873
50
180.1530172
51
219.9275231
0
ARC
8
DEFAULT_255_2_778
10
12.4749897
20
5.475429
40
0.1597965
50
174.3416788
51
179.9997534
0
ARC
8
DEFAULT_255_2_778
10
12.4755238
20
5.4753693
40
0.160334
50
168.7106959
51
174.339258
0
ARC
8
DEFAULT_255_2_778
10
14.047821
20
13.428342
40
0.1654165
50
89.7329331
51
168.5579445
0
LINE
8
DEFAULT_255_2_778
10
15.791692
20
13.5937568
11
15.7920304
21
13.5937571
0
ARC
8
DEFAULT_255_2_778
10
15.792004
20
13.4267827
40
0.1669744
50
40.0649648
51
89.9909104
0
ARC
8
DEFAULT_255_2_778
10
15.7948373
20
13.429723
40
0.1629141
50
0.1086542
51
39.9149245
0
ARC
8
DEFAULT_255_2_778
10
15.7965003
20
13.430036
40
0.1612507
50
353.7357284
51
359.9985843
0
ARC
8
DEFAULT_255_2_778
10
15.7954726
20
13.4301467
40
0.1622844
50
348.8472354
51
353.7364664
0
ARC
8
DEFAULT_255_2_778
10
16.9393312
20
3.8935363
40
7.5854295
50
86.623898
51
90.0886705
0
ARC
8
DEFAULT_255_2_778
10
17.0716551
20
6.0662973
40
5.4086486
50
81.895817
51
86.6677587
0
ARC
8
DEFAULT_255_2_778
10
17.3104689
20
7.7215878
40
3.7362237
50
75.572052
51
81.9429998
0
ARC
8
DEFAULT_255_2_778
10
17.612409
20
8.8816813
40
2.5374876
50
66.7421535
51
75.6480513
0
ARC
8
DEFAULT_255_2_778
10
17.9400881
20
9.6335271
40
1.7173535
50
53.0971271
51
66.8812707
0
ARC
8
DEFAULT_255_2_778
10
18.1268949
20
9.897864
40
1.3938365
50
47.8815961
51
52.7130675
0
ARC
8
DEFAULT_255_2_778
10
18.1861915
20
9.9700523
40
1.3005293
50
16.689235
51
47.6864187
0
ARC
8
DEFAULT_255_2_778
10
17.7452325
20
9.8263651
40
1.7642122
50
5.0086576
51
17.0464737
0
ARC
8
DEFAULT_255_2_778
10
17.2370741
20
9.7728023
40
2.2751243
50
359.9175265
51
5.2351293
0
ARC
8
DEFAULT_255_2_778
10
16.758098
20
9.7731656
40
2.7541005
50
355.29147
51
359.9243121
0
ARC
8
DEFAULT_255_2_778
10
16.1873493
20
9.8193466
40
3.326714
50
351.4748807
51
355.3056929
0
ARC
8
DEFAULT_255_2_778
10
15.6050539
20
9.9048568
40
3.9152522
50
348.8265001
51
351.5005761
0
ARC
8
DEFAULT_255_2_778
10
18.5550522
20
5.4771407
40
0.1650874
50
269.6320476
51
348.6165541
0
LINE
8
DEFAULT_255_2_778
10
16.620092
20
5.5062568
11
17.313292
21
9.0262568
0
LINE
8
DEFAULT_255_2_778
10
16.514592
20
9.8689568
11
15.258792
21
9.8689568
0
LINE
8
DEFAULT_255_2_778
10
15.258792
20
9.8689568
11
14.386992
21
5.4443568
0
LINE
8
DEFAULT_255_2_778
10
14.224092
20
5.3117568
11
12.481192
21
5.3117568
0
LINE
8
DEFAULT_255_2_778
10
12.318292
20
5.5067568
11
13.885692
21
13.4611568
0
LINE
8
DEFAULT_255_2_778
10
14.048592
20
13.5937568
11
15.791692
21
13.5937568
0
LINE
8
DEFAULT_255_2_778
10
15.954692
20
13.3987568
11
15.576292
21
11.4789568
0
LINE
8
DEFAULT_255_2_778
10
15.576292
20
11.4789568
11
16.927592
21
11.4789568
0
LINE
8
DEFAULT_255_2_778
10
19.446092
20
9.1461568
11
18.716892
21
5.4445568
0
LINE
8
DEFAULT_255_2_778
10
18.553992
20
5.3120568
11
16.783392
21
5.3120568
0
LINE
8
DEFAULT_255_2_778
10
16.783392
20
5.3120568
11
16.783092
21
5.3112568
0
ARC
8
DEFAULT_255_2_778
10
14.0463269
20
13.4074197
40
0.3496296
50
89.6814966
51
89.9938886
0
ARC
8
DEFAULT_255_2_778
10
14.0465074
20
13.4261682
40
0.3308811
50
90.0247929
51
168.4984834
0
ARC
8
DEFAULT_255_2_778
10
12.4741627
20
5.4752196
40
0.3252582
50
168.9170698
51
175.0308823
0
ARC
8
DEFAULT_255_2_778
10
12.4729245
20
5.4753412
40
0.3240142
50
175.0333379
51
179.9993401
0
ARC
8
DEFAULT_255_2_778
10
12.4731606
20
5.4754683
40
0.3242504
50
180.0217932
51
220.0000499
0
ARC
8
DEFAULT_255_2_778
10
12.4801793
20
5.4816334
40
0.3335901
50
220.0363197
51
270.0024593
0
ARC
8
DEFAULT_255_2_778
10
12.480363
20
5.3388561
40
0.1908129
50
269.9491639
51
270.1524002
0
ARC
8
DEFAULT_255_2_778
10
14.2256169
20
5.4986749
40
0.3506364
50
269.6819546
51
269.9939239
0
ARC
8
DEFAULT_255_2_778
10
14.2255934
20
5.4787492
40
0.3307107
50
269.9976209
51
348.5049202
0
ARC
8
DEFAULT_255_2_778
10
16.5178449
20
6.4845472
40
3.2203982
50
87.6028763
51
90.054698
0
ARC
8
DEFAULT_255_2_778
10
16.5527986
20
7.2999481
40
2.404249
50
84.6190125
51
87.6223848
0
ARC
8
DEFAULT_255_2_778
10
16.6193204
20
7.9940538
40
1.7069644
50
80.7760573
51
84.6571696
0
ARC
8
DEFAULT_255_2_778
10
16.7095776
20
8.5454007
40
1.1482792
50
76.1084157
51
80.8116207
0
ARC
8
DEFAULT_255_2_778
10
16.7894378
20
8.8741515
40
0.8099717
50
72.8173703
51
76.0091054
0
ARC
8
DEFAULT_255_2_778
10
16.8707351
20
9.1296343
40
0.5418793
50
66.2141251
51
73.0494078
0
ARC
8
DEFAULT_255_2_778
10
16.9736336
20
9.3608235
40
0.2888279
50
57.6340395
51
66.3956576
0
ARC
8
DEFAULT_255_2_778
10
17.0668439
20
9.5062788
40
0.116075
50
47.6662281
51
58.0604245
0
ARC
8
DEFAULT_255_2_778
10
17.1197018
20
9.5654241
40
0.0367634
50
44.3950784
51
46.4864781
0
ARC
8
DEFAULT_255_2_778
10
17.1015096
20
9.5497734
40
0.0607313
50
30.4476178
51
42.9379725
0
ARC
8
DEFAULT_255_2_778
10
16.9977956
20
9.4931636
40
0.1788688
50
13.2661893
51
29.2449676
0
ARC
8
DEFAULT_255_2_778
10
16.7246679
20
9.4220119
40
0.4610823
50
4.991338
51
14.0834748
0
ARC
8
DEFAULT_255_2_778
10
16.3678951
20
9.386571
40
0.8195966
50
359.8038082
51
5.2895275
0
ARC
8
DEFAULT_255_2_778
10
15.9502346
20
9.3870015
40
1.2372565
50
355.3046225
51
359.8501019
0
ARC
8
DEFAULT_255_2_778
10
15.4547517
20
9.4262363
40
1.734289
50
351.8537447
51
355.3527291
0
ARC
8
DEFAULT_255_2_778
10
14.883637
20
9.5074792
40
2.3111531
50
348.7739698
51
351.866241
0
ARC
8
DEFAULT_255_2_778
10
16.7777942
20
5.4751568
40
0.3265388
50
168.9855996
51
174.8906342
0
ARC
8
DEFAULT_255_2_778
10
16.7763657
20
5.4752935
40
0.3251038
50
174.892202
51
179.998566
0
ARC
8
DEFAULT_255_2_778
10
16.7754453
20
5.4753014
40
0.3241834
50
179.9999575
51
220.017623
0
ARC
8
DEFAULT_255_2_778
10
16.7825548
20
5.4811006
40
0.3333573
50
219.9952408
51
270.0066807
0
ARC
8
DEFAULT_255_2_778
10
16.782763
20
5.3385561
40
0.1908129
50
269.9491639
51
270.1524002
0
ARC
8
DEFAULT_255_2_778
10
18.5558153
20
5.497808
40
0.3500695
50
269.6816968
51
269.9938923
0
ARC
8
DEFAULT_255_2_778
10
18.5556998
20
5.4785387
40
0.3308002
50
270.0135323
51
348.5099228
0
ARC
8
DEFAULT_255_2_778
10
15.6764261
20
9.8919643
40
4.0088274
50
348.8121156
51
352.2365832
0
ARC
8
DEFAULT_255_2_778
10
16.2860828
20
9.80882
40
3.3935272
50
352.2370557
51
355.8875199
0
ARC
8
DEFAULT_255_2_778
10
16.78887
20
9.7728388
40
2.8894542
50
355.884176
51
359.9455953
0
ARC
8
DEFAULT_255_2_778
10
17.3896315
20
9.7796905
40
2.2887115
50
359.759787
51
9.4585339
0
ARC
8
DEFAULT_255_2_778
10
17.95906
20
9.8773152
40
1.7109836
50
9.3674119
51
23.8766356
0
ARC
8
DEFAULT_255_2_778
10
18.2097455
20
9.9843008
40
1.438452
50
24.0216214
51
47.9027634
0
ARC
8
DEFAULT_255_2_778
10
18.02988
20
9.7714687
40
1.7169801
50
48.2104026
51
63.7648595
0
ARC
8
DEFAULT_255_2_778
10
17.7020705
20
9.1190462
40
2.4471115
50
63.6329565
51
73.4336394
0
ARC
8
DEFAULT_255_2_778
10
17.3869414
20
8.076627
40
3.5361148
50
73.3554159
51
80.3122676
0
ARC
8
DEFAULT_255_2_778
10
17.1331918
20
6.6244413
40
5.0102956
50
80.2464031
51
85.1817364
0
ARC
8
DEFAULT_255_2_778
10
16.9698946
20
4.7290948
40
6.9126612
50
85.1525643
51
88.9856215
0
ARC
8
DEFAULT_255_2_778
10
16.9288592
20
3.1442161
40
8.4980279
50
88.8981651
51
90.0093627
0
ARC
8
DEFAULT_255_2_778
10
15.8013355
20
13.4298137
40
0.3216198
50
348.7454837
51
355.0535653
0
ARC
8
DEFAULT_255_2_778
10
15.8017356
20
13.429764
40
0.3212168
50
355.0562438
51
359.999546
0
ARC
8
DEFAULT_255_2_778
10
15.7985417
20
13.4293542
40
0.324411
50
0.0719174
51
39.9682555
0
ARC
8
DEFAULT_255_2_778
10
15.7919115
20
13.4234783
40
0.333267
50
40.0102574
51
89.9708184
0
ARC
8
DEFAULT_255_2_778
10
15.7918284
20
13.5439804
40
0.2127652
50
89.9319052
51
90.2040935
0
ARC
8
DEFAULT_255_2_778
10
16.9398959
20
4.0860966
40
7.2283586
50
86.3176388
51
90.100868
0
ARC
8
DEFAULT_255_2_778
10
17.0784808
20
6.1955982
40
5.1143122
50
81.5072163
51
86.349185
0
ARC
8
DEFAULT_255_2_778
10
17.3206768
20
7.7932731
40
3.4983898
50
75.0042843
51
81.565977
0
ARC
8
DEFAULT_255_2_778
10
17.6271207
20
8.925716
40
2.3252226
50
66.1328978
51
75.0780107
0
ARC
8
DEFAULT_255_2_778
10
17.9600872
20
9.6664044
40
1.5131569
50
52.2296961
51
66.3145948
0
ARC
8
DEFAULT_255_2_778
10
18.1496667
20
9.9271555
40
1.190964
50
47.8513652
51
51.7557259
0
ARC
8
DEFAULT_255_2_778
10
18.179846
20
9.9670656
40
1.1411309
50
16.7307054
51
47.6300996
0
ARC
8
DEFAULT_255_2_778
10
17.7515678
20
9.8271989
40
1.591579
50
4.9469235
51
17.1143103
0
ARC
8
DEFAULT_255_2_778
10
17.2441491
20
9.7740174
40
2.1017139
50
359.9110145
51
5.1984729
0
ARC
8
DEFAULT_255_2_778
10
16.7520536
20
9.7745998
40
2.5938095
50
355.2499408
51
359.9150322
0
ARC
8
DEFAULT_255_2_778
10
16.1477614
20
9.8238653
40
3.200106
50
351.4665894
51
355.2668543
0
ARC
8
DEFAULT_255_2_778
10
15.5212576
20
9.9159318
40
3.833336
50
348.8758344
51
351.4952459
0
ARC
8
DEFAULT_255_2_778
10
14.9077982
20
9.504471
40
2.618366
50
348.7631801
51
352.5340684
0
ARC
8
DEFAULT_255_2_778
10
15.6620562
20
9.4065425
40
1.857778
50
352.5060806
51
357.2713076
0
ARC
8
DEFAULT_255_2_778
10
16.0914333
20
9.3833136
40
1.4277845
50
357.3821182
51
359.9636332
0
ARC
8
DEFAULT_255_2_778
10
16.5210251
20
9.3904421
40
0.9982248
50
359.538822
51
10.0840865
0
ARC
8
DEFAULT_255_2_778
10
16.9473434
20
9.4695088
40
0.5646573
50
9.7593969
51
27.7281123
0
ARC
8
DEFAULT_255_2_778
10
17.1037741
20
9.5473025
40
0.3900145
50
28.3044815
51
43.0305945
0
ARC
8
DEFAULT_255_2_778
10
17.0256805
20
9.4546891
40
0.5105017
50
44.6480086
51
68.213557
0
ARC
8
DEFAULT_255_2_778
10
16.8057505
20
8.9395589
40
1.070544
50
67.5160877
51
79.3447901
0
ARC
8
DEFAULT_255_2_778
10
16.6181362
20
7.9921455
40
2.036332
50
79.0858139
51
86.3002854
0
ARC
8
DEFAULT_255_2_778
10
16.5221777
20
6.6797912
40
3.3521615
50
86.1109753
51
90.1317326
0
LINE
8
DEFAULT_255_2_778
10
15.7910705
20
13.7570439
11
14.0482705
21
13.7570439
0
LINE
8
DEFAULT_255_2_778
10
13.7222705
20
13.4921439
11
12.1549705
21
5.5377439
0
LINE
8
DEFAULT_255_2_778
10
12.4808705
20
5.1480439
11
14.2236705
21
5.1480439
0
LINE
8
DEFAULT_255_2_778
10
14.5496705
20
5.4128439
11
15.3952705
21
9.7049439
0
LINE
8
DEFAULT_255_2_778
10
15.3952705
20
9.7049439
11
16.5147705
21
9.7049439
0
LINE
8
DEFAULT_255_2_778
10
17.1505705
20
9.0575439
11
16.4572705
21
5.5375439
0
LINE
8
DEFAULT_255_2_778
10
16.7832705
20
5.1477439
11
18.5538705
21
5.1477439
0
LINE
8
DEFAULT_255_2_778
10
18.8798705
20
5.4126439
11
19.6090705
21
9.1141439
0
LINE
8
DEFAULT_255_2_778
10
16.9274705
20
11.6422439
11
15.7767705
21
11.6422439
0
LINE
8
DEFAULT_255_2_778
10
15.7767705
20
11.6422439
11
16.1167705
21
13.3670439
0
LINE
8
DEFAULT_255_2_778
10
15.7910705
20
13.4292439
11
15.3743705
21
11.3144439
0
LINE
8
DEFAULT_255_2_778
10
15.3743705
20
11.3144439
11
16.9271705
21
11.3144439
0
LINE
8
DEFAULT_255_2_778
10
19.2825705
20
9.1763439
11
18.5533705
21
5.4747439
0
LINE
8
DEFAULT_255_2_778
10
18.5533705
20
5.4747439
11
16.7827705
21
5.4747439
0
LINE
8
DEFAULT_255_2_778
10
16.7827705
20
5.4747439
11
17.4759705
21
8.9942439
0
LINE
8
DEFAULT_255_2_778
10
16.5144705
20
10.0319439
11
15.1219705
21
10.0319439
0
LINE
8
DEFAULT_255_2_778
10
15.1219705
20
10.0319439
11
14.2242705
21
5.4747439
0
LINE
8
DEFAULT_255_2_778
10
14.2242705
20
5.4747439
11
12.4814705
21
5.4747439
0
LINE
8
DEFAULT_255_2_778
10
12.4814705
20
5.4747439
11
14.0487705
21
13.4292439
0
LINE
8
DEFAULT_255_2_778
10
14.0487705
20
13.4292439
11
15.7916705
21
13.4292439
0
ARC
8
DEFAULT_255_2_778
10
22.2148018
20
11.5560092
40
4.6620287
50
269.8618386
51
274.9515296
0
ARC
8
DEFAULT_255_2_778
10
22.342068
20
10.1348602
40
3.2352014
50
274.8784277
51
281.9350378
0
ARC
8
DEFAULT_255_2_778
10
22.5713734
20
9.0683332
40
2.144312
50
281.8338235
51
291.7622258
0
ARC
8
DEFAULT_255_2_778
10
22.853437
20
8.3722789
40
1.393294
50
291.6020557
51
306.6259375
0
ARC
8
DEFAULT_255_2_778
10
22.8651364
20
8.3143494
40
1.3400598
50
307.7022023
51
327.4394071
0
ARC
8
DEFAULT_255_2_778
10
22.3396882
20
8.6580859
40
1.9679276
50
327.2380116
51
339.0441445
0
ARC
8
DEFAULT_255_2_778
10
21.4708944
20
8.9970474
40
2.9004911
50
338.9292055
51
347.1297044
0
ARC
8
DEFAULT_255_2_778
10
20.710476
20
9.1860442
40
3.6839335
50
346.8984427
51
348.8570144
0
ARC
8
DEFAULT_255_2_778
10
20.8944946
20
9.1536105
40
3.4971181
50
348.7957251
51
352.1335638
0
ARC
8
DEFAULT_255_2_778
10
21.7458586
20
9.0367544
40
2.6377722
50
352.1169506
51
356.1524777
0
ARC
8
DEFAULT_255_2_778
10
22.3584703
20
8.9945296
40
2.0237081
50
356.1814274
51
359.924166
0
ARC
8
DEFAULT_255_2_778
10
22.9509988
20
8.9998741
40
1.4312005
50
359.6788118
51
8.4674872
0
ARC
8
DEFAULT_255_2_778
10
23.4851213
20
9.0821393
40
0.8907909
50
8.2925394
51
21.6882202
0
ARC
8
DEFAULT_255_2_778
10
23.7761257
20
9.1988375
40
0.5772614
50
21.5994242
51
41.9190313
0
ARC
8
DEFAULT_255_2_778
10
23.7185005
20
9.1204484
40
0.6728022
50
43.6080176
51
65.0755641
0
ARC
8
DEFAULT_255_2_778
10
23.4557967
20
8.5813356
40
1.2724615
50
64.5783467
51
76.1984621
0
ARC
8
DEFAULT_255_2_778
10
23.2141221
20
7.6306844
40
2.2533331
50
75.9973325
51
83.4979659
0
ARC
8
DEFAULT_255_2_778
10
23.042513
20
6.1826882
40
3.711454
50
83.3970609
51
88.6424438
0
ARC
8
DEFAULT_255_2_778
10
22.9960836
20
4.8628932
40
5.0320012
50
88.4699599
51
90.0196258
0
LINE
8
DEFAULT_255_2_778
10
18.7141599
20
3.1966941
11
18.7138215
21
3.1966938
0
ARC
8
DEFAULT_255_2_778
10
18.7137814
20
3.3633105
40
0.1666168
50
220.0077266
51
270.0138047
0
ARC
8
DEFAULT_255_2_778
10
18.7111479
20
3.3608023
40
0.1629873
50
180.1530172
51
219.9275231
0
ARC
8
DEFAULT_255_2_778
10
18.7079576
20
3.3603664
40
0.1597965
50
174.3416788
51
179.9997534
0
ARC
8
DEFAULT_255_2_778
10
18.7084917
20
3.3603066
40
0.160334
50
168.7106959
51
174.339258
0
ARC
8
DEFAULT_255_2_778
10
20.2807889
20
11.3132793
40
0.1654165
50
89.7329331
51
168.5579445
0
ARC
8
DEFAULT_255_2_778
10
23.6724503
20
6.2925834
40
5.1861263
50
83.9711315
51
90.1402023
0
ARC
8
DEFAULT_255_2_778
10
23.8105053
20
7.5715601
40
3.8997247
50
75.9856148
51
84.0146362
0
ARC
8
DEFAULT_255_2_778
10
24.0482968
20
8.5120753
40
2.9296207
50
65.1172683
51
76.0433733
0
ARC
8
DEFAULT_255_2_778
10
24.340803
20
9.1287656
40
2.247109
50
45.6086249
51
65.267017
0
ARC
8
DEFAULT_255_2_778
10
24.4432598
20
9.2480329
40
2.0902338
50
41.5120959
51
45.3284621
0
ARC
8
DEFAULT_255_2_778
10
24.4517789
20
9.2596522
40
2.0761558
50
14.0373227
51
41.4278004
0
ARC
8
DEFAULT_255_2_778
10
23.9278994
20
9.1172942
40
2.6189437
50
3.5218157
51
14.2788049
0
ARC
8
DEFAULT_255_2_778
10
23.4183764
20
9.0761066
40
3.1300499
50
359.9661743
51
3.7013979
0
ARC
8
DEFAULT_255_2_778
10
22.9792998
20
9.0779094
40
3.5691278
50
355.4031491
51
359.9413945
0
ARC
8
DEFAULT_255_2_778
10
22.3928497
20
9.1243878
40
4.1574167
50
351.5676763
51
355.4124055
0
ARC
8
DEFAULT_255_2_778
10
21.7987951
20
9.21074
40
4.7577126
50
348.8535864
51
351.5880787
0
ARC
8
DEFAULT_255_2_778
10
22.7452144
20
9.0121096
40
3.7907662
50
334.8849571
51
349.0338235
0
ARC
8
DEFAULT_255_2_778
10
23.0604836
20
8.8759029
40
3.4475081
50
330.4871161
51
334.7107411
0
ARC
8
DEFAULT_255_2_778
10
22.8605421
20
9.0071201
40
3.6861795
50
315.2764449
51
330.2431458
0
ARC
8
DEFAULT_255_2_778
10
22.558673
20
9.2860009
40
4.0969302
50
312.2565564
51
315.4760625
0
ARC
8
DEFAULT_255_2_778
10
23.0154247
20
8.7231919
40
3.3734706
50
295.6228337
51
312.9427531
0
ARC
8
DEFAULT_255_2_778
10
23.1223962
20
8.5228646
40
3.1465995
50
287.7820828
51
295.4439983
0
ARC
8
DEFAULT_255_2_778
10
22.9662054
20
9.0454326
40
3.6919179
50
281.1506506
51
287.6135087
0
ARC
8
DEFAULT_255_2_778
10
22.6776919
20
10.4862543
40
5.1613373
50
276.2519268
51
281.1997993
0
ARC
8
DEFAULT_255_2_778
10
22.4737311
20
12.329236
40
7.01557
50
272.0669627
51
276.2686401
0
ARC
8
DEFAULT_255_2_778
10
22.3977306
20
14.1346768
40
8.8225838
50
269.9709667
51
272.1373171
0
ARC
8
DEFAULT_255_2_778
10
20.4717761
20
3.3627985
40
0.1656059
50
269.752215
51
348.5042821
0
LINE
8
DEFAULT_255_2_778
10
22.9943599
20
9.8948941
11
21.9275599
21
9.8948941
0
LINE
8
DEFAULT_255_2_778
10
21.9275599
20
9.8948941
11
21.3354599
21
6.8931941
0
LINE
8
DEFAULT_255_2_778
10
21.3354599
20
6.8931941
11
22.2027599
21
6.8931941
0
LINE
8
DEFAULT_255_2_778
10
22.2027599
20
6.8931941
11
22.2035599
21
6.8939941
0
LINE
8
DEFAULT_255_2_778
10
18.5512599
20
3.3916941
11
20.1186599
21
11.3460941
0
LINE
8
DEFAULT_255_2_778
10
20.2815599
20
11.4786941
11
23.6597599
21
11.4786941
0
LINE
8
DEFAULT_255_2_778
10
22.3932599
20
5.3120941
11
21.0245599
21
5.3120941
0
LINE
8
DEFAULT_255_2_778
10
21.0245599
20
5.3120941
11
20.6340599
21
3.3297941
0
LINE
8
DEFAULT_255_2_778
10
20.4710599
20
3.1971941
11
18.7141599
21
3.1971941
0
LINE
8
DEFAULT_255_2_778
10
18.7141599
20
3.1971941
11
18.7141599
21
3.1966941
0
ARC
8
DEFAULT_255_2_778
10
23.000087
20
5.2589486
40
4.4732291
50
87.1177256
51
90.0686067
0
ARC
8
DEFAULT_255_2_778
10
23.0609501
20
6.4362052
40
3.2944018
50
83.4048654
51
87.1453594
0
ARC
8
DEFAULT_255_2_778
10
23.171458
20
7.3822963
40
2.3418795
50
78.8682057
51
83.4321551
0
ARC
8
DEFAULT_255_2_778
10
23.3144262
20
8.1017098
40
1.6083995
50
73.0900321
51
78.9174991
0
ARC
8
DEFAULT_255_2_778
10
23.4743727
20
8.6237089
40
1.0624474
50
65.7181969
51
73.1546244
0
ARC
8
DEFAULT_255_2_778
10
23.5904804
20
8.8880561
40
0.7737448
50
61.6896833
51
65.5056662
0
ARC
8
DEFAULT_255_2_778
10
23.6736312
20
9.0399912
40
0.6005495
50
55.0952774
51
61.7994505
0
ARC
8
DEFAULT_255_2_778
10
23.7666303
20
9.1729416
40
0.4383011
50
47.4934999
51
55.1205156
0
ARC
8
DEFAULT_255_2_778
10
23.8329136
20
9.2463909
40
0.339369
50
42.5479343
51
47.3645622
0
ARC
8
DEFAULT_255_2_778
10
23.7566897
20
9.1883232
40
0.4348781
50
18.5966366
51
41.3931928
0
ARC
8
DEFAULT_255_2_778
10
23.4209096
20
9.0680979
40
0.791496
50
6.7520529
51
19.0937002
0
ARC
8
DEFAULT_255_2_778
10
22.9028249
20
9.0004349
40
1.3139578
50
359.7443704
51
7.0259389
0
ARC
8
DEFAULT_255_2_778
10
22.2648245
20
8.9996918
40
1.9519519
50
354.9269969
51
359.8497363
0
ARC
8
DEFAULT_255_2_778
10
21.5019563
20
9.0658706
40
2.717684
50
351.0419381
51
354.9594004
0
ARC
8
DEFAULT_255_2_778
10
20.7386741
20
9.1824721
40
3.4898143
50
348.8258441
51
351.1022345
0
ARC
8
DEFAULT_255_2_778
10
21.1093702
20
9.0974686
40
3.109694
50
341.9955407
51
349.0387289
0
ARC
8
DEFAULT_255_2_778
10
22.0846841
20
8.7756925
40
2.0826856
50
331.7774499
51
342.1209546
0
ARC
8
DEFAULT_255_2_778
10
22.7227055
20
8.428259
40
1.3562207
50
315.8100145
51
331.9637959
0
ARC
8
DEFAULT_255_2_778
10
22.9422698
20
8.2268988
40
1.0584654
50
307.2961407
51
315.3410616
0
ARC
8
DEFAULT_255_2_778
10
22.8420593
20
8.382797
40
1.243293
50
290.9661916
51
306.6166024
0
ARC
8
DEFAULT_255_2_778
10
22.5619032
20
9.0922324
40
2.0060175
50
281.3449947
51
291.1878164
0
ARC
8
DEFAULT_255_2_778
10
22.3359693
20
10.187901
40
3.124728
50
274.521656
51
281.4547108
0
ARC
8
DEFAULT_255_2_778
10
22.2139929
20
11.6374565
40
4.5793939
50
269.8691004
51
274.6132371
0
ARC
8
DEFAULT_255_2_778
10
20.279686
20
11.2922104
40
0.3500695
50
89.6816968
51
89.9938923
0
ARC
8
DEFAULT_255_2_778
10
20.2798014
20
11.3114797
40
0.3308002
50
90.0135323
51
168.5099228
0
ARC
8
DEFAULT_255_2_778
10
18.7087544
20
3.3605874
40
0.3265388
50
168.9855996
51
174.8906342
0
ARC
8
DEFAULT_255_2_778
10
18.7073259
20
3.360724
40
0.3251038
50
174.892202
51
179.998566
0
ARC
8
DEFAULT_255_2_778
10
18.7064055
20
3.3607319
40
0.3241834
50
179.9999575
51
220.017623
0
ARC
8
DEFAULT_255_2_778
10
18.7132363
20
3.3662107
40
0.3329378
50
219.9838131
51
269.9967946
0
ARC
8
DEFAULT_255_2_778
10
18.7134711
20
3.2470248
40
0.213752
50
269.9320667
51
270.20361
0
ARC
8
DEFAULT_255_2_778
10
20.4730759
20
3.3834651
40
0.350196
50
269.6817548
51
269.9939202
0
ARC
8
DEFAULT_255_2_778
10
20.4730423
20
3.3638712
40
0.3306022
50
269.9993708
51
348.5202897
0
ARC
8
DEFAULT_255_2_778
10
22.4049028
20
13.6464684
40
8.4984029
50
269.9165885
51
273.700344
0
ARC
8
DEFAULT_255_2_778
10
22.5411595
20
11.5610394
40
6.408528
50
273.6879826
51
278.060944
0
ARC
8
DEFAULT_255_2_778
10
22.7834306
20
9.8728849
40
4.7030817
50
278.0225241
51
283.624518
0
ARC
8
DEFAULT_255_2_778
10
23.0400407
20
8.7899542
40
3.5901824
50
283.7155475
51
287.7444983
0
ARC
8
DEFAULT_255_2_778
10
23.0846676
20
8.6156684
40
3.4106037
50
287.9228021
51
309.8588899
0
ARC
8
DEFAULT_255_2_778
10
22.8537022
20
8.9200623
40
3.7923313
50
309.5900983
51
312.7189692
0
ARC
8
DEFAULT_255_2_778
10
22.7430567
20
9.1078566
40
4.0056293
50
312.0594055
51
325.7832992
0
ARC
8
DEFAULT_255_2_778
10
23.0498356
20
8.8859013
40
3.6271546
50
325.957521
51
330.4576963
0
ARC
8
DEFAULT_255_2_778
10
22.8768548
20
8.967318
40
3.8178178
50
330.6746919
51
346.3304786
0
ARC
8
DEFAULT_255_2_778
10
22.4828388
20
9.0786312
40
4.2270056
50
346.126535
51
348.8341694
0
ARC
8
DEFAULT_255_2_778
10
21.8761146
20
9.2005476
40
4.8458546
50
348.8091404
51
352.3037632
0
ARC
8
DEFAULT_255_2_778
10
22.5026511
20
9.115752
40
4.2136062
50
352.3054663
51
355.9647053
0
ARC
8
DEFAULT_255_2_778
10
23.0222476
20
9.0791902
40
3.6927249
50
355.9632575
51
359.9570323
0
ARC
8
DEFAULT_255_2_778
10
23.6368844
20
9.0856366
40
3.0781008
50
359.8284581
51
8.8245635
0
ARC
8
DEFAULT_255_2_778
10
24.2380863
20
9.1820426
40
2.4692277
50
8.7541472
51
22.4381393
0
ARC
8
DEFAULT_255_2_778
10
24.4843266
20
9.2776139
40
2.2051589
50
22.5849563
51
41.5964526
0
ARC
8
DEFAULT_255_2_778
10
24.3682855
20
9.1653725
40
2.3664637
50
41.76354
51
64.3293653
0
ARC
8
DEFAULT_255_2_778
10
24.0678657
20
8.5616944
40
3.0407133
50
64.1549481
51
75.4227309
0
ARC
8
DEFAULT_255_2_778
10
23.824225
20
7.6425038
40
3.9916376
50
75.3588441
51
83.4578875
0
ARC
8
DEFAULT_255_2_778
10
23.6780765
20
6.3974801
40
5.2452065
50
83.4213269
51
89.7559893
0
ARC
8
DEFAULT_255_2_778
10
23.6599226
20
5.5880378
40
6.0547366
50
89.616822
51
90.0008693
0
ARC
8
DEFAULT_255_2_778
10
22.2160679
20
11.5707219
40
4.8404629
50
269.8551506
51
275.0566456
0
ARC
8
DEFAULT_255_2_778
10
22.3489219
20
10.1079919
40
3.3717176
50
274.9986808
51
282.0245035
0
ARC
8
DEFAULT_255_2_778
10
22.5800322
20
9.0424583
40
2.2814196
50
281.9226209
51
292.0341759
0
ARC
8
DEFAULT_255_2_778
10
22.8573732
20
8.3649738
40
1.5493741
50
291.9262227
51
306.8390744
0
ARC
8
DEFAULT_255_2_778
10
22.8574487
20
8.3273016
40
1.519346
50
307.688604
51
328.0738881
0
ARC
8
DEFAULT_255_2_778
10
22.3278092
20
8.6661452
40
2.1480696
50
327.8738301
51
339.3117569
0
ARC
8
DEFAULT_255_2_778
10
21.4420751
20
9.0057065
40
3.0966532
50
339.2238615
51
347.3167828
0
ARC
8
DEFAULT_255_2_778
10
20.6624007
20
9.1968834
40
3.8993077
50
347.0915795
51
348.8594695
0
ARC
8
DEFAULT_255_2_778
10
20.943699
20
9.1461003
40
3.6135008
50
348.7877174
51
352.1800197
0
ARC
8
DEFAULT_255_2_778
10
21.7656657
20
9.033867
40
2.7839075
50
352.1666822
51
356.2136222
0
ARC
8
DEFAULT_255_2_778
10
22.3571174
20
8.9936358
40
2.1910902
50
356.2420186
51
359.9335745
0
ARC
8
DEFAULT_255_2_778
10
22.949331
20
8.9995166
40
1.5988974
50
359.6982333
51
8.6779586
0
ARC
8
DEFAULT_255_2_778
10
23.4955467
20
9.0856784
40
1.0459382
50
8.5266516
51
22.156781
0
ARC
8
DEFAULT_255_2_778
10
23.7847101
20
9.203439
40
0.7337155
50
22.1560893
51
42.0508806
0
ARC
8
DEFAULT_255_2_778
10
23.7332998
20
9.1341924
40
0.8184471
50
43.2400079
51
64.2199404
0
ARC
8
DEFAULT_255_2_778
10
23.4680216
20
8.6064951
40
1.4090282
50
63.8389144
51
75.4765054
0
ARC
8
DEFAULT_255_2_778
10
23.2227674
20
7.6854315
40
2.3621721
50
75.3204073
51
83.1092453
0
ARC
8
DEFAULT_255_2_778
10
23.0470948
20
6.2855633
40
3.7730108
50
83.0112652
51
88.44597
0
ARC
8
DEFAULT_255_2_778
10
22.9969758
20
4.9813499
40
5.078125
50
88.2797636
51
90.023074
0
ARC
8
DEFAULT_255_2_778
10
23.6730471
20
6.2410395
40
5.0739514
50
84.1291624
51
90.1458539
0
ARC
8
DEFAULT_255_2_778
10
23.812241
20
7.5646185
40
3.7430782
50
76.237591
51
84.1763068
0
ARC
8
DEFAULT_255_2_778
10
24.048877
20
8.5180588
40
2.7607175
50
65.359809
51
76.300318
0
ARC
8
DEFAULT_255_2_778
10
24.3345363
20
9.1272966
40
2.0878656
50
45.6551277
51
65.5147418
0
ARC
8
DEFAULT_255_2_778
10
24.429105
20
9.2381123
40
1.9425399
50
41.5156076
51
45.3652741
0
ARC
8
DEFAULT_255_2_778
10
24.4462424
20
9.2562122
40
1.9177121
50
13.9720193
51
41.4500654
0
ARC
8
DEFAULT_255_2_778
10
23.940112
20
9.1197307
40
2.4418426
50
3.4772259
51
14.2122778
0
ARC
8
DEFAULT_255_2_778
10
23.4352645
20
9.0793022
40
2.9482288
50
359.9644032
51
3.6664007
0
ARC
8
DEFAULT_255_2_778
10
22.9876575
20
9.081292
40
3.3958376
50
355.3531666
51
359.9355227
0
ARC
8
DEFAULT_255_2_778
10
22.3750757
20
9.130345
40
4.0103797
50
351.5187468
51
355.363678
0
ARC
8
DEFAULT_255_2_778
10
21.7453511
20
9.2224111
40
4.6467965
50
348.8305532
51
351.5411396
0
ARC
8
DEFAULT_255_2_778
10
22.7510748
20
9.0075138
40
3.61853
50
335.4595636
51
349.0840076
0
ARC
8
DEFAULT_255_2_778
10
23.033972
20
8.8896741
40
3.3122602
50
330.4688988
51
335.2813558
0
ARC
8
DEFAULT_255_2_778
10
22.8755553
20
8.9925494
40
3.5008222
50
314.6271433
51
330.2818688
0
ARC
8
DEFAULT_255_2_778
10
22.5202535
20
9.3289453
40
3.9898634
50
312.2136456
51
314.8648235
0
ARC
8
DEFAULT_255_2_778
10
22.9990598
20
8.7376226
40
3.2304769
50
297.6380228
51
312.970687
0
ARC
8
DEFAULT_255_2_778
10
23.1163247
20
8.5348818
40
2.9964884
50
287.7898308
51
297.449944
0
ARC
8
DEFAULT_255_2_778
10
22.9471865
20
9.1060366
40
3.5920341
50
280.7789874
51
287.5752567
0
ARC
8
DEFAULT_255_2_778
10
22.659817
20
10.592808
40
5.1063186
50
275.6550321
51
280.8265801
0
ARC
8
DEFAULT_255_2_778
10
22.4665449
20
12.4894061
40
7.0127334
50
271.8763558
51
275.6995034
0
ARC
8
DEFAULT_255_2_778
10
22.3972276
20
14.3091029
40
8.8337294
50
269.9727787
51
271.9392586
0
LINE
8
DEFAULT_255_2_778
10
22.0646307
20
9.7321745
11
22.9947307
21
9.7321745
0
LINE
8
DEFAULT_255_2_778
10
22.2035307
20
7.0580745
11
21.5378307
21
7.0580745
0
LINE
8
DEFAULT_255_2_778
10
21.5378307
20
7.0580745
11
22.0646307
21
9.7321745
0
LINE
8
DEFAULT_255_2_778
10
22.0646307
20
9.7321745
11
22.0646307
21
9.7321745
0
LINE
8
DEFAULT_255_2_778
10
23.6598307
20
11.6422745
11
20.2816307
21
11.6422745
0
LINE
8
DEFAULT_255_2_778
10
19.9556307
20
11.3773745
11
18.3882307
21
3.4229745
0
LINE
8
DEFAULT_255_2_778
10
18.7142307
20
3.0332745
11
20.4711307
21
3.0332745
0
LINE
8
DEFAULT_255_2_778
10
20.7970307
20
3.2980745
11
21.1614307
21
5.1480745
0
LINE
8
DEFAULT_255_2_778
10
21.1614307
20
5.1480745
11
22.3925307
21
5.1480745
0
LINE
8
DEFAULT_255_2_778
10
21.1352307
20
6.7302745
11
22.2038307
21
6.7302745
0
LINE
8
DEFAULT_255_2_778
10
22.9949307
20
10.0594745
11
21.7913307
21
10.0594745
0
LINE
8
DEFAULT_255_2_778
10
21.7913307
20
10.0594745
11
21.1352307
21
6.7304745
0
LINE
8
DEFAULT_255_2_778
10
22.3930307
20
5.4753745
11
20.8883307
21
5.4753745
0
LINE
8
DEFAULT_255_2_778
10
20.8883307
20
5.4753745
11
20.4713307
21
3.3602745
0
LINE
8
DEFAULT_255_2_778
10
20.4713307
20
3.3602745
11
18.7145307
21
3.3602745
0
LINE
8
DEFAULT_255_2_778
10
18.7145307
20
3.3602745
11
20.2819307
21
11.3146745
0
LINE
8
DEFAULT_255_2_778
10
20.2819307
20
11.3146745
11
23.6601307
21
11.3146745
0
ENDSEC
0
EOF