0
SECTION
2
HEADER
9
$MEASUREMENT
70
1
0
ENDSEC
0
SECTION
2
TABLES
0
TABLE
2
LTYPE
0
LTYPE
72
65
70
64
2
CONTINUOUS
3
______
73
0
40
0
0
ENDTAB
0
TABLE
2
LAYER
0
LAYER
2
DEFAULT_255_2_778
70
0
62
255
6
CONTINUOUS
0
ENDTAB
0
ENDSEC
0
SECTION
2
ENTITIES
0
LINE
8
DEFAULT_255_2_778
10
17.3301336
20
-0.0846336
11
17.3301336
21
16.6687664
0
LINE
8
DEFAULT_255_2_778
10
17.3301336
20
16.6687664
11
0.3968336
21
16.6687664
0
LINE
8
DEFAULT_255_2_778
10
0.3968336
20
16.6687664
11
0.3968336
21
-0.2645336
0
LINE
8
DEFAULT_255_2_778
10
0.3968336
20
-0.2645336
11
17.3301336
21
-0.2645336
0
LINE
8
DEFAULT_255_2_778
10
17.3301336
20
-0.2645336
11
17.3301336
21
-0.0846336
0
LINE
8
DEFAULT_255_2_778
10
2.2489336
20
10.6219664
11
6.3446336
21
14.8129664
0
LINE
8
DEFAULT_255_2_778
10
6.3446336
20
14.8129664
11
6.6537336
21
14.6875664
0
LINE
8
DEFAULT_255_2_778
10
6.6537336
20
14.6875664
11
6.6537336
21
13.1688664
0
LINE
8
DEFAULT_255_2_778
10
6.6537336
20
13.1688664
11
10.4245336
21
9.6964664
0
LINE
8
DEFAULT_255_2_778
10
10.4245336
20
9.6964664
11
12.7687336
21
10.2716664
0
LINE
8
DEFAULT_255_2_778
10
12.7687336
20
10.2716664
11
12.9423336
21
9.9742664
0
LINE
8
DEFAULT_255_2_778
10
12.9423336
20
9.9742664
11
10.5213336
21
7.4009664
0
LINE
8
DEFAULT_255_2_778
10
10.5213336
20
7.4009664
11
15.4780336
21
1.8362664
0
LINE
8
DEFAULT_255_2_778
10
15.4780336
20
1.8362664
11
15.2240336
21
1.5822664
0
LINE
8
DEFAULT_255_2_778
10
15.2240336
20
1.5822664
11
9.5974336
21
6.5574664
0
LINE
8
DEFAULT_255_2_778
10
9.5974336
20
6.5574664
11
7.2797336
21
4.1857664
0
LINE
8
DEFAULT_255_2_778
10
7.2797336
20
4.1857664
11
6.9738336
21
4.3418664
0
LINE
8
DEFAULT_255_2_778
10
6.9738336
20
4.3418664
11
7.3442336
21
6.4568664
0
LINE
8
DEFAULT_255_2_778
10
7.3442336
20
6.4568664
11
4.1375336
21
10.4118664
0
LINE
8
DEFAULT_255_2_778
10
4.1375336
20
10.4118664
11
2.3764336
21
10.3166664
0
LINE
8
DEFAULT_255_2_778
10
2.3764336
20
10.3166664
11
2.2388336
21
10.6214664
0
LINE
8
DEFAULT_255_2_778
10
2.2388336
20
10.6214664
11
2.2489336
21
10.6219664
0
ENDSEC
0
EOF