0
SECTION
2
HEADER
9
$MEASUREMENT
70
1
0
ENDSEC
0
SECTION
2
TABLES
0
TABLE
2
LTYPE
0
LTYPE
72
65
70
64
2
CONTINUOUS
3
______
73
0
40
0
0
ENDTAB
0
TABLE
2
LAYER
0
LAYER
2
DEFAULT_255_2_778
70
0
62
255
6
CONTINUOUS
0
ENDTAB
0
ENDSEC
0
SECTION
2
ENTITIES
0
LINE
8
DEFAULT_255_2_778
10
5.0681304
20
12.3692456
11
0.2233304
21
2.5939456
0
LINE
8
DEFAULT_255_2_778
10
0.2233304
20
2.5939456
11
9.9430304
21
2.5939456
0
LINE
8
DEFAULT_255_2_778
10
9.9430304
20
2.5939456
11
5.0681304
21
12.3692456
0
LINE
8
DEFAULT_255_2_778
10
7.2786496
20
16.8010466
11
5.3260496
21
12.8973466
0
LINE
8
DEFAULT_255_2_778
10
5.3260496
20
12.8973466
11
7.2744496
21
9.0577466
0
LINE
8
DEFAULT_255_2_778
10
7.2744496
20
9.0577466
11
9.2339496
21
12.8957466
0
LINE
8
DEFAULT_255_2_778
10
9.2339496
20
12.8957466
11
7.2786496
21
16.8010466
0
LINE
8
DEFAULT_255_2_778
10
14.3287503
20
2.6238478
11
9.4868503
21
12.3287478
0
LINE
8
DEFAULT_255_2_778
10
9.4868503
20
12.3287478
11
7.5670503
21
8.4322478
0
LINE
8
DEFAULT_255_2_778
10
7.5670503
20
8.4322478
11
10.4502503
21
2.6050478
0
LINE
8
DEFAULT_255_2_778
10
10.4502503
20
2.6050478
11
14.3287503
21
2.6238478
0
LINE
8
DEFAULT_255_2_778
10
3.076071
20
2.0843838
11
1.976471
21
-0.1323162
0
LINE
8
DEFAULT_255_2_778
10
1.976471
20
-0.1323162
11
12.442371
21
-0.1198162
0
LINE
8
DEFAULT_255_2_778
10
12.442371
20
-0.1198162
11
11.356771
21
2.1150838
0
LINE
8
DEFAULT_255_2_778
10
11.356771
20
2.1150838
11
3.076071
21
2.0843838
0
ENDSEC
0
EOF