0
SECTION
2
HEADER
9
$MEASUREMENT
70
1
0
ENDSEC
0
SECTION
2
TABLES
0
TABLE
2
LTYPE
0
LTYPE
72
65
70
64
2
CONTINUOUS
3
______
73
0
40
0
0
ENDTAB
0
TABLE
2
LAYER
0
LAYER
2
DEFAULT_255_2_778
70
0
62
255
6
CONTINUOUS
0
ENDTAB
0
ENDSEC
0
SECTION
2
ENTITIES
0
ARC
8
DEFAULT_255_2_778
10
3.3379386
20
8.7012894
40
3.0734095
50
172.9625732
51
180.0974314
0
ARC
8
DEFAULT_255_2_778
10
2.9186957
20
8.7532003
40
2.6509649
50
164.6593238
51
172.9659255
0
ARC
8
DEFAULT_255_2_778
10
2.6522348
20
8.825487
40
2.3748741
50
155.8080264
51
164.6404282
0
ARC
8
DEFAULT_255_2_778
10
2.5210036
20
8.8834379
40
2.2314204
50
146.7509019
51
155.7844969
0
ARC
8
DEFAULT_255_2_778
10
2.4821571
20
8.9080172
40
2.1854571
50
139.5649831
51
146.7314157
0
ARC
8
DEFAULT_255_2_778
10
2.4772343
20
8.9120497
40
2.1790948
50
136.8831641
51
139.561736
0
ARC
8
DEFAULT_255_2_778
10
2.475322
20
8.9138629
40
2.1764596
50
134.3631429
51
136.8835989
0
ARC
8
DEFAULT_255_2_778
10
2.5072706
20
8.8855305
40
2.2190558
50
127.8503792
51
134.4413946
0
ARC
8
DEFAULT_255_2_778
10
2.5558599
20
8.8223097
40
2.2987904
50
121.5054659
51
127.8397733
0
ARC
8
DEFAULT_255_2_778
10
2.6100244
20
8.7352004
40
2.4013643
50
118.0256385
51
121.5211798
0
ARC
8
DEFAULT_255_2_778
10
2.6926964
20
8.572967
40
2.5834208
50
109.2494404
51
117.9535508
0
ARC
8
DEFAULT_255_2_778
10
2.7784722
20
8.3328693
40
2.8383745
50
103.0892436
51
109.2862689
0
ARC
8
DEFAULT_255_2_778
10
2.808071
20
8.2115345
40
2.9632604
50
98.9015009
51
103.1153719
0
ARC
8
DEFAULT_255_2_778
10
2.8011389
20
8.2603485
40
2.9139616
50
95.5534694
51
98.9153562
0
ARC
8
DEFAULT_255_2_778
10
2.7768128
20
8.5169012
40
2.656259
50
92.8078943
51
95.5667543
0
ARC
8
DEFAULT_255_2_778
10
2.7537063
20
8.9956322
40
2.176971
50
90.6594352
51
92.8177122
0
ARC
8
DEFAULT_255_2_778
10
2.7479967
20
9.3732865
40
1.7992765
50
90.0020111
51
90.6160396
0
ARC
8
DEFAULT_255_2_778
10
5.5438122
20
7.7876667
40
3.384901
50
83.6413428
51
90.0944282
0
ARC
8
DEFAULT_255_2_778
10
5.6007768
20
8.2964202
40
2.8729684
50
76.2069436
51
83.6467028
0
ARC
8
DEFAULT_255_2_778
10
5.6876245
20
8.651135
40
2.5077767
50
67.8433797
51
76.2017743
0
ARC
8
DEFAULT_255_2_778
10
5.7724653
20
8.8613391
40
2.2810983
50
58.7628553
51
67.8257853
0
ARC
8
DEFAULT_255_2_778
10
5.8238473
20
8.9480902
40
2.1802781
50
50.0180812
51
58.7351459
0
ARC
8
DEFAULT_255_2_778
10
5.8334511
20
8.9602365
40
2.1648003
50
48.1518944
51
50.006287
0
ARC
8
DEFAULT_255_2_778
10
5.8316367
20
8.9582202
40
2.1675128
50
45.411549
51
48.1517237
0
ARC
8
DEFAULT_255_2_778
10
5.8256928
20
8.9522009
40
2.1759722
50
42.840095
51
45.4113541
0
ARC
8
DEFAULT_255_2_778
10
5.8308262
20
8.9705537
40
2.159752
50
36.2833186
51
42.5756855
0
ARC
8
DEFAULT_255_2_778
10
5.7890724
20
8.9404535
40
2.2112225
50
29.8744731
51
36.2717813
0
ARC
8
DEFAULT_255_2_778
10
5.723765
20
8.9022918
40
2.2868601
50
26.769953
51
29.8885301
0
ARC
8
DEFAULT_255_2_778
10
5.5954233
20
8.8406037
40
2.4292328
50
17.9711767
51
26.7055683
0
ARC
8
DEFAULT_255_2_778
10
5.3854801
20
8.7711848
40
2.6503521
50
11.4879265
51
17.9983395
0
ARC
8
DEFAULT_255_2_778
10
5.2611273
20
8.7446939
40
2.7774897
50
6.6514284
51
11.5125555
0
ARC
8
DEFAULT_255_2_778
10
5.2957999
20
8.7480055
40
2.742667
50
3.1565813
51
6.6666119
0
ARC
8
DEFAULT_255_2_778
10
5.5334028
20
8.7602848
40
2.5047487
50
0.0430224
51
3.1754046
0
ARC
8
DEFAULT_255_2_778
10
5.8343055
20
8.7619747
40
2.2038454
50
359.1579345
51
0.0049631
0
ARC
8
DEFAULT_255_2_778
10
6.0634462
20
8.7583307
40
1.974676
50
357.9898012
51
359.165944
0
ARC
8
DEFAULT_255_2_778
10
6.3694549
20
8.7475944
40
1.6684789
50
356.981852
51
357.9896536
0
ARC
8
DEFAULT_255_2_778
10
6.5794391
20
8.7369026
40
1.4582232
50
356.6252865
51
356.966954
0
ARC
8
DEFAULT_255_2_778
10
4.7716272
20
5.2887968
40
3.2635111
50
353.1959976
51
0.0977246
0
ARC
8
DEFAULT_255_2_778
10
5.2361665
20
5.2333622
40
2.7956759
50
345.4176236
51
353.1961754
0
ARC
8
DEFAULT_255_2_778
10
5.5510585
20
5.1517811
40
2.4703879
50
336.7951177
51
345.4100202
0
ARC
8
DEFAULT_255_2_778
10
5.7333663
20
5.0745346
40
2.2723917
50
328.0743495
51
336.7740505
0
ARC
8
DEFAULT_255_2_778
10
5.8236375
20
5.0189423
40
2.1663771
50
319.7067836
51
328.0597005
0
ARC
8
DEFAULT_255_2_778
10
5.8561901
20
4.9924711
40
2.124429
50
319.0173402
51
319.6835634
0
ARC
8
DEFAULT_255_2_778
10
5.8682657
20
4.9818186
40
2.1083267
50
316.019802
51
319.0206594
0
ARC
8
DEFAULT_255_2_778
10
5.8927162
20
4.9581887
40
2.0743237
50
313.1713988
51
316.0204881
0
ARC
8
DEFAULT_255_2_778
10
5.838024
20
5.0149583
40
2.1531462
50
306.6421049
51
313.1992555
0
ARC
8
DEFAULT_255_2_778
10
5.7969244
20
5.0708944
40
2.2225569
50
300.3272657
51
306.6316384
0
ARC
8
DEFAULT_255_2_778
10
5.7491699
20
5.1513668
40
2.3161302
50
296.8493566
51
300.3417608
0
ARC
8
DEFAULT_255_2_778
10
5.6757976
20
5.3028879
40
2.4844569
50
288.1796394
51
296.7808307
0
ARC
8
DEFAULT_255_2_778
10
5.5971798
20
5.5376332
40
2.7320134
50
281.8296265
51
288.2101228
0
ARC
8
DEFAULT_255_2_778
10
5.5674972
20
5.6726778
40
2.8702751
50
277.5084936
51
281.8569282
0
ARC
8
DEFAULT_255_2_778
10
5.5700889
20
5.6472586
40
2.8447352
50
273.9381202
51
277.5236431
0
ARC
8
DEFAULT_255_2_778
10
5.585584
20
5.4130363
40
2.610002
50
271.0718666
51
273.9518987
0
ARC
8
DEFAULT_255_2_778
10
5.5926992
20
5.0921267
40
2.2890157
50
270.0083903
51
271.0440603
0
ARC
8
DEFAULT_255_2_778
10
5.5928235
20
4.8786971
40
2.0755861
50
269.290776
51
270.0058215
0
ARC
8
DEFAULT_255_2_778
10
5.5904687
20
4.6849276
40
1.8818022
50
268.7084162
51
269.2894406
0
ARC
8
DEFAULT_255_2_778
10
5.585962
20
4.4861878
40
1.6830115
50
268.1399244
51
268.7092972
0
ARC
8
DEFAULT_255_2_778
10
5.5947389
20
5.3926671
40
0.8103187
50
270.3460964
51
275.0969634
0
ARC
8
DEFAULT_255_2_778
10
5.5715203
20
5.6907323
40
1.1092733
50
274.9237322
51
281.2469386
0
ARC
8
DEFAULT_255_2_778
10
5.599377
20
5.5560546
40
0.9717493
50
281.1847683
51
286.8776986
0
ARC
8
DEFAULT_255_2_778
10
5.7343151
20
5.1659693
40
0.559515
50
285.2520952
51
311.4142815
0
ARC
8
DEFAULT_255_2_778
10
5.7867273
20
5.0684391
40
0.4524049
50
314.6086686
51
343.0034262
0
ARC
8
DEFAULT_255_2_778
10
5.3143937
20
5.2270995
40
0.9505849
50
342.180026
51
355.5368087
0
ARC
8
DEFAULT_255_2_778
10
4.6251164
20
5.2973859
40
1.6433237
50
354.9637929
51
0.1595902
0
ARC
8
DEFAULT_255_2_778
10
5.353021
20
8.7438846
40
0.9154174
50
0.1864238
51
4.3915789
0
ARC
8
DEFAULT_255_2_778
10
5.2130406
20
8.7356726
40
1.0556187
50
4.2542182
51
11.1753351
0
ARC
8
DEFAULT_255_2_778
10
5.3837367
20
8.7694436
40
0.8816141
50
11.1722329
51
16.8650829
0
ARC
8
DEFAULT_255_2_778
10
5.7133135
20
8.8834126
40
0.5333173
50
15.4198819
51
41.6959397
0
ARC
8
DEFAULT_255_2_778
10
5.7586214
20
8.8631959
40
0.5149247
50
46.7355582
51
77.9563834
0
ARC
8
DEFAULT_255_2_778
10
5.6120279
20
8.3586383
40
1.0396621
50
75.8569008
51
82.8012855
0
ARC
8
DEFAULT_255_2_778
10
5.5471549
20
7.8256239
40
1.5766063
50
82.8896251
51
89.8806762
0
ARC
8
DEFAULT_255_2_778
10
5.5384626
20
7.4322292
40
1.9700339
50
89.6517007
51
90.0008439
0
ARC
8
DEFAULT_255_2_778
10
2.7284235
20
8.2627875
40
1.1394889
50
89.7229395
51
98.5222266
0
ARC
8
DEFAULT_255_2_778
10
2.6734383
20
8.6206788
40
0.777402
50
98.4233901
51
110.7515702
0
ARC
8
DEFAULT_255_2_778
10
2.5957286
20
8.8242526
40
0.5595014
50
110.6964041
51
128.5112029
0
ARC
8
DEFAULT_255_2_778
10
2.5658668
20
8.8681379
40
0.5065831
50
128.9590332
51
154.3965147
0
ARC
8
DEFAULT_255_2_778
10
2.6500603
20
8.8243046
40
0.6014597
50
154.0968487
51
160.8185416
0
ARC
8
DEFAULT_255_2_778
10
2.8021213
20
8.7756882
40
0.7610629
50
161.1229892
51
173.1269535
0
ARC
8
DEFAULT_255_2_778
10
3.0982506
20
8.7361094
40
1.0598077
50
172.9184532
51
177.989595
0
ARC
8
DEFAULT_255_2_778
10
3.8661315
20
8.7105785
40
1.8281121
50
178.0341903
51
180.2265434
0
ARC
8
DEFAULT_255_2_778
10
21.0562053
20
8.7004282
40
19.0181717
50
179.9911966
51
180.0029076
0
ARC
8
DEFAULT_255_2_778
10
14.1238365
20
5.2795331
40
3.0740015
50
352.9628251
51
0.0974824
0
ARC
8
DEFAULT_255_2_778
10
14.5434756
20
5.227583
40
2.6511591
50
344.6672939
51
352.9660091
0
ARC
8
DEFAULT_255_2_778
10
14.8103115
20
5.155219
40
2.3746863
50
335.8114985
51
344.6487299
0
ARC
8
DEFAULT_255_2_778
10
14.9417964
20
5.0971695
40
2.2309605
50
326.7488893
51
335.7878269
0
ARC
8
DEFAULT_255_2_778
10
14.9807019
20
5.0725529
40
2.1849274
50
319.5587891
51
326.7293265
0
ARC
8
DEFAULT_255_2_778
10
14.9853797
20
5.068725
40
2.1788841
50
316.8803385
51
319.5556085
0
ARC
8
DEFAULT_255_2_778
10
14.9871341
20
5.0670726
40
2.1764739
50
314.3631821
51
316.8805215
0
ARC
8
DEFAULT_255_2_778
10
14.9548113
20
5.0957796
40
2.2195996
50
307.8538489
51
314.4415571
0
ARC
8
DEFAULT_255_2_778
10
14.9063173
20
5.1588617
40
2.2991661
50
301.5117439
51
307.84337
0
ARC
8
DEFAULT_255_2_778
10
14.8521784
20
5.2459006
40
2.4016668
50
298.0333611
51
301.527545
0
ARC
8
DEFAULT_255_2_778
10
14.76959
20
5.4079358
40
2.5835083
50
289.2552154
51
297.961161
0
ARC
8
DEFAULT_255_2_778
10
14.6838635
20
5.6478153
40
2.83824
50
283.0934456
51
289.2920412
0
ARC
8
DEFAULT_255_2_778
10
14.6543173
20
5.7688622
40
2.9628335
50
278.9044835
51
283.1196702
0
ARC
8
DEFAULT_255_2_778
10
14.6612772
20
5.7198111
40
2.9132964
50
275.555513
51
278.9185733
0
ARC
8
DEFAULT_255_2_778
10
14.6856204
20
5.4630541
40
2.6553888
50
272.809179
51
275.5690617
0
ARC
8
DEFAULT_255_2_778
10
14.7087341
20
4.9843597
40
2.176137
50
270.6601949
51
272.8190447
0
ARC
8
DEFAULT_255_2_778
10
14.7144695
20
4.6063063
40
1.798043
50
270.002042
51
270.6162546
0
ARC
8
DEFAULT_255_2_778
10
11.9186454
20
6.1934972
40
3.3852386
50
263.640313
51
270.0945812
0
ARC
8
DEFAULT_255_2_778
10
11.861613
20
5.6842225
40
2.8727805
50
256.2037871
51
263.6456815
0
ARC
8
DEFAULT_255_2_778
10
11.7746824
20
5.3292394
40
2.5073082
50
247.8371236
51
256.1985349
0
ARC
8
DEFAULT_255_2_778
10
11.6898555
20
5.1191183
40
2.2807119
50
238.7534819
51
247.819367
0
ARC
8
DEFAULT_255_2_778
10
11.6387456
20
5.032836
40
2.1804339
50
230.0075629
51
238.7256179
0
ARC
8
DEFAULT_255_2_778
10
11.6301076
20
5.0218469
40
2.1664633
50
228.1424125
51
229.9958017
0
ARC
8
DEFAULT_255_2_778
10
11.632041
20
5.0239476
40
2.169318
50
225.4069944
51
228.1414009
0
ARC
8
DEFAULT_255_2_778
10
11.638242
20
5.0302132
40
2.1781335
50
222.8407532
51
225.4065509
0
ARC
8
DEFAULT_255_2_778
10
11.6308687
20
5.009976
40
2.1589887
50
216.2825781
51
222.5800048
0
ARC
8
DEFAULT_255_2_778
10
11.6727936
20
5.0401981
40
2.2106691
50
209.8692298
51
216.2709797
0
ARC
8
DEFAULT_255_2_778
10
11.7382502
20
5.0784422
40
2.2864774
50
206.7629258
51
209.8833905
0
ARC
8
DEFAULT_255_2_778
10
11.8665823
20
5.1401111
40
2.4288332
50
197.9706646
51
206.6986391
0
ARC
8
DEFAULT_255_2_778
10
12.0762529
20
5.2094381
40
2.6496647
50
191.4908968
51
197.9978069
0
ARC
8
DEFAULT_255_2_778
10
12.2001406
20
5.2358443
40
2.7763298
50
186.6556176
51
191.5155992
0
ARC
8
DEFAULT_255_2_778
10
12.1647307
20
5.2324466
40
2.7407646
50
183.1599309
51
186.670862
0
ARC
8
DEFAULT_255_2_778
10
11.9262477
20
5.2201143
40
2.5019645
50
180.043386
51
183.1789947
0
ARC
8
DEFAULT_255_2_778
10
11.6206401
20
5.2184325
40
2.1963562
50
179.1519012
51
180.0055503
0
ARC
8
DEFAULT_255_2_778
10
11.3931319
20
5.2221117
40
1.9688184
50
177.9764945
51
179.1609595
0
ARC
8
DEFAULT_255_2_778
10
11.0850494
20
5.2329943
40
1.6605437
50
176.9601512
51
177.9764118
0
ARC
8
DEFAULT_255_2_778
10
10.8806174
20
5.2434311
40
1.4558458
50
176.6003516
51
176.9436601
0
ARC
8
DEFAULT_255_2_778
10
12.6910863
20
8.6876285
40
3.2637574
50
173.1958988
51
180.0977005
0
ARC
8
DEFAULT_255_2_778
10
12.2265934
20
8.7430628
40
2.7959683
50
165.4176343
51
173.1961678
0
ARC
8
DEFAULT_255_2_778
10
11.9115661
20
8.8246819
40
2.4705398
50
156.7948604
51
165.4100969
0
ARC
8
DEFAULT_255_2_778
10
11.7288514
20
8.902108
40
2.2720991
50
148.072455
51
156.7738859
0
ARC
8
DEFAULT_255_2_778
10
11.637761
20
8.9582202
40
2.1651143
50
139.7000958
51
148.0579146
0
ARC
8
DEFAULT_255_2_778
10
11.6057371
20
8.9842063
40
2.1238834
50
139.0096203
51
139.6759818
0
ARC
8
DEFAULT_255_2_778
10
11.5921861
20
8.9961383
40
2.1058282
50
136.0121482
51
139.01283
0
ARC
8
DEFAULT_255_2_778
10
11.5669723
20
9.0205128
40
2.0707589
50
133.1623125
51
136.0128691
0
ARC
8
DEFAULT_255_2_778
10
11.6245579
20
8.9611538
40
2.1534493
50
126.645336
51
133.1995183
0
ARC
8
DEFAULT_255_2_778
10
11.6655485
20
8.9053655
40
2.2226765
50
120.3327984
51
126.6347887
0
ARC
8
DEFAULT_255_2_778
10
11.7131974
20
8.8250686
40
2.316045
50
116.8556329
51
120.3470082
0
ARC
8
DEFAULT_255_2_778
10
11.7864652
20
8.6737991
40
2.4840999
50
108.1836662
51
116.7871453
0
ARC
8
DEFAULT_255_2_778
10
11.8650455
20
8.4392021
40
2.7315037
50
101.8316784
51
108.2140131
0
ARC
8
DEFAULT_255_2_778
10
11.8947278
20
8.3041541
40
2.8697687
50
97.5092438
51
101.8588672
0
ARC
8
DEFAULT_255_2_778
10
11.8921592
20
8.3294052
40
2.8443986
50
93.9381065
51
97.5244204
0
ARC
8
DEFAULT_255_2_778
10
11.8766787
20
8.5633704
40
2.6099226
50
91.0713605
51
93.9518169
0
ARC
8
DEFAULT_255_2_778
10
11.8695938
20
8.8835595
40
2.2896575
50
90.0083919
51
91.043912
0
ARC
8
DEFAULT_255_2_778
10
11.8694406
20
9.0924612
40
2.0807557
50
89.2907742
51
90.0050153
0
ARC
8
DEFAULT_255_2_778
10
11.8718138
20
9.2881682
40
1.8850344
50
88.7085521
51
89.2892706
0
ARC
8
DEFAULT_255_2_778
10
11.8763288
20
9.4889527
40
1.684199
50
88.1386377
51
88.7081629
0
ARC
8
DEFAULT_255_2_778
10
11.8677183
20
8.5905399
40
0.811138
50
90.3450394
51
95.0929018
0
ARC
8
DEFAULT_255_2_778
10
11.8908861
20
8.2929694
40
1.1095953
50
94.9204723
51
101.2416368
0
ARC
8
DEFAULT_255_2_778
10
11.8630056
20
8.4278346
40
0.9718831
50
101.179505
51
106.8706895
0
ARC
8
DEFAULT_255_2_778
10
11.7280823
20
8.8180042
40
0.5595745
50
105.2440447
51
131.4130288
0
ARC
8
DEFAULT_255_2_778
10
11.6761377
20
8.9153786
40
0.4529031
50
134.6349951
51
162.9951159
0
ARC
8
DEFAULT_255_2_778
10
12.1480348
20
8.7567864
40
0.9506476
50
162.1723524
51
175.528617
0
ARC
8
DEFAULT_255_2_778
10
12.8351751
20
8.6866277
40
1.641248
50
174.9569629
51
180.1593497
0
ARC
8
DEFAULT_255_2_778
10
12.1093462
20
5.2401416
40
0.9154174
50
180.1864238
51
184.3915789
0
ARC
8
DEFAULT_255_2_778
10
12.2493265
20
5.2483536
40
1.0556187
50
184.2542182
51
191.1753351
0
ARC
8
DEFAULT_255_2_778
10
12.0786304
20
5.2145826
40
0.8816141
50
191.1722329
51
196.8650829
0
ARC
8
DEFAULT_255_2_778
10
11.7490536
20
5.1006137
40
0.5333173
50
195.4198819
51
221.6959397
0
ARC
8
DEFAULT_255_2_778
10
11.7036515
20
5.1207202
40
0.5147798
50
226.7347915
51
257.9398838
0
ARC
8
DEFAULT_255_2_778
10
11.8502568
20
5.6248272
40
1.0390887
50
255.8417305
51
262.7843954
0
ARC
8
DEFAULT_255_2_778
10
11.9152087
20
6.1573968
40
1.5756007
50
262.8736734
51
269.8801989
0
ARC
8
DEFAULT_255_2_778
10
11.9238728
20
6.5353764
40
1.9536133
50
269.649275
51
270.0017812
0
ARC
8
DEFAULT_255_2_778
10
14.7219612
20
5.7524727
40
1.1707248
50
270.292292
51
278.939945
0
ARC
8
DEFAULT_255_2_778
10
14.7802936
20
5.3892737
40
0.8028739
50
278.855525
51
290.7121096
0
ARC
8
DEFAULT_255_2_778
10
14.8605897
20
5.1788435
40
0.5776459
50
290.6443491
51
307.815777
0
ARC
8
DEFAULT_255_2_778
10
14.8995895
20
5.1233474
40
0.5099032
50
308.1772283
51
332.6866324
0
ARC
8
DEFAULT_255_2_778
10
14.8256886
20
5.1634923
40
0.5939883
50
332.5169385
51
340.6589418
0
ARC
8
DEFAULT_255_2_778
10
14.6709295
20
5.2139264
40
0.7567257
50
340.9365886
51
353.0656346
0
ARC
8
DEFAULT_255_2_778
10
14.35305
20
5.255814
40
1.0773418
50
352.8952979
51
358.4788652
0
ARC
8
DEFAULT_255_2_778
10
13.3402812
20
5.2827942
40
2.09047
50
358.4765081
51
0.2348593
0
LINE
8
DEFAULT_255_2_778
10
2.0383336
20
-0.2071369
11
0.2645336
21
-0.2071369
0
LINE
8
DEFAULT_255_2_778
10
0.2645336
20
-0.2071369
11
0.2645336
21
8.6960631
0
LINE
8
DEFAULT_255_2_778
10
2.7479336
20
11.1725631
11
5.5382336
21
11.1725631
0
LINE
8
DEFAULT_255_2_778
10
8.0351336
20
8.6510631
11
8.0351336
21
5.2943631
0
LINE
8
DEFAULT_255_2_778
10
5.5313336
20
2.8040631
11
2.0383336
21
2.8040631
0
LINE
8
DEFAULT_255_2_778
10
2.0383336
20
2.8040631
11
2.0383336
21
-0.2071369
0
LINE
8
DEFAULT_255_2_778
10
6.2684336
20
5.3019631
11
6.2684336
21
8.7468631
0
LINE
8
DEFAULT_255_2_778
10
5.5384336
20
9.4022631
11
2.7339336
21
9.4022631
0
LINE
8
DEFAULT_255_2_778
10
2.0380336
20
8.6994631
11
2.0380336
21
4.5852631
0
LINE
8
DEFAULT_255_2_778
10
2.0380336
20
4.5852631
11
5.5996336
21
4.5823631
0
LINE
8
DEFAULT_255_2_778
10
15.4241336
20
14.1951631
11
17.1978336
21
14.1951631
0
LINE
8
DEFAULT_255_2_778
10
17.1978336
20
14.1951631
11
17.1978336
21
5.2847631
0
LINE
8
DEFAULT_255_2_778
10
14.7145336
20
2.8082631
11
11.9242336
21
2.8082631
0
LINE
8
DEFAULT_255_2_778
10
9.4273336
20
5.3297631
11
9.4273336
21
8.6820631
0
LINE
8
DEFAULT_255_2_778
10
11.9310336
20
11.1722631
11
15.4241336
21
11.1722631
0
LINE
8
DEFAULT_255_2_778
10
15.4241336
20
11.1722631
11
15.4241336
21
14.1951631
0
LINE
8
DEFAULT_255_2_778
10
11.1939336
20
8.6820631
11
11.1939336
21
5.2371631
0
LINE
8
DEFAULT_255_2_778
10
11.9239336
20
4.5817631
11
14.7279336
21
4.5817631
0
LINE
8
DEFAULT_255_2_778
10
15.4307336
20
5.2913631
11
15.4307336
21
9.4016631
0
LINE
8
DEFAULT_255_2_778
10
15.4307336
20
9.4016631
11
11.8628336
21
9.4016631
0
ENDSEC
0
EOF