0
SECTION
2
HEADER
9
$MEASUREMENT
70
1
0
ENDSEC
0
SECTION
2
TABLES
0
TABLE
2
LTYPE
0
LTYPE
72
65
70
64
2
CONTINUOUS
3
______
73
0
40
0
0
ENDTAB
0
TABLE
2
LAYER
0
LAYER
2
DEFAULT_255_2_778
70
0
62
255
6
CONTINUOUS
0
ENDTAB
0
ENDSEC
0
SECTION
2
ENTITIES
0
ARC
8
DEFAULT_255_2_778
10
12.3283931
20
12.9990394
40
1.6726603
50
90.1746116
51
92.5049937
0
ARC
8
DEFAULT_255_2_778
10
12.3278318
20
13.0127678
40
1.6589303
50
90.0026549
51
90.1566698
0
ARC
8
DEFAULT_255_2_778
10
12.3379012
20
13.3453269
40
1.32641
50
75.4631414
51
90.4382879
0
ARC
8
DEFAULT_255_2_778
10
12.3509719
20
13.4955657
40
1.1779667
50
32.2339302
51
74.2442336
0
ARC
8
DEFAULT_255_2_778
10
11.6605505
20
12.9701152
40
2.0436636
50
28.9358551
51
34.3710801
0
ARC
8
DEFAULT_255_2_778
10
10.2298635
20
4.6424779
40
7.4415013
50
24.7569995
51
30.73419
0
ARC
8
DEFAULT_255_2_778
10
38.97176
20
18.2110903
40
24.3425943
50
205.4284977
51
206.3564271
0
ARC
8
DEFAULT_255_2_778
10
16.8090146
20
7.200208
40
0.4055533
50
21.4618299
51
30.1823306
0
ARC
8
DEFAULT_255_2_778
10
16.9956992
20
7.2721798
40
0.2054842
50
6.6723606
51
21.8307175
0
ARC
8
DEFAULT_255_2_778
10
17.0667389
20
7.2824584
40
0.1337455
50
0.0823379
51
5.8349178
0
ARC
8
DEFAULT_255_2_778
10
17.0834114
20
7.2891038
40
0.1172504
50
280.7493308
51
356.8450108
0
ARC
8
DEFAULT_255_2_778
10
16.922497
20
7.7129922
40
0.5692262
50
278.5562883
51
288.7299501
0
ARC
8
DEFAULT_255_2_778
10
16.9347125
20
7.3764866
40
0.2377033
50
269.1019736
51
287.7518362
0
ARC
8
DEFAULT_255_2_778
10
16.9439229
20
7.8306251
40
0.6919336
50
262.5985023
51
268.9287748
0
ARC
8
DEFAULT_255_2_778
10
16.7656511
20
6.4582888
40
0.6919334
50
82.5985023
51
88.9287748
0
ARC
8
DEFAULT_255_2_778
10
12.8198054
20
8.7569867
40
1.607033
50
249.1122321
51
270.7766075
0
ARC
8
DEFAULT_255_2_778
10
12.7987038
20
8.6407699
40
1.4910885
50
227.4569508
51
248.2775644
0
ARC
8
DEFAULT_255_2_778
10
13.0453248
20
8.9295494
40
1.8706529
50
222.8187568
51
227.8720873
0
ARC
8
DEFAULT_255_2_778
10
-2.533838
20
-5.4263231
40
19.314288
50
42.6445355
51
46.6623947
0
LINE
8
DEFAULT_255_2_778
10
10.7214781
20
8.6213926
11
10.7073258
21
8.6350579
0
ARC
8
DEFAULT_255_2_778
10
37.1868886
20
36.2151111
40
38.2338408
50
225.1576838
51
226.1662078
0
ARC
8
DEFAULT_255_2_778
10
6.1801022
20
6.4330278
40
4.7423178
50
48.6751142
51
76.8596927
0
ARC
8
DEFAULT_255_2_778
10
5.951235
20
5.6599543
40
5.5473793
50
76.3729404
51
78.0244228
0
ARC
8
DEFAULT_255_2_778
10
5.9646931
20
5.8970662
40
5.3127577
50
77.6358059
51
88.5172925
0
ARC
8
DEFAULT_255_2_778
10
5.7798722
20
1.8746025
40
9.3390053
50
88.0223253
51
90.0680087
0
ARC
8
DEFAULT_255_2_778
10
5.8800599
20
-12.1367649
40
23.3506314
50
90.273033
51
91.9093994
0
ARC
8
DEFAULT_255_2_778
10
4.3240141
20
34.5385675
40
23.3506314
50
270.273033
51
271.9093994
0
ARC
8
DEFAULT_255_2_778
10
4.4219091
20
12.781741
40
1.5935958
50
255.4867705
51
270.4809918
0
ARC
8
DEFAULT_255_2_778
10
4.3883705
20
12.5748662
40
1.3850532
50
222.8235384
51
254.6852488
0
ARC
8
DEFAULT_255_2_778
10
4.8021807
20
13.013995
40
1.9874758
50
220.5618771
51
223.9996716
0
ARC
8
DEFAULT_255_2_778
10
2.4524375
20
11.0134232
40
1.0985734
50
40.138265
51
48.959404
0
ARC
8
DEFAULT_255_2_778
10
6.129696
20
15.1210911
40
4.4147398
50
226.8660749
51
227.9667262
0
ARC
8
DEFAULT_255_2_778
10
3.4930732
20
12.3281464
40
0.5740767
50
213.5462588
51
228.3176475
0
ARC
8
DEFAULT_255_2_778
10
3.1881789
20
12.1206256
40
0.2053361
50
192.2090477
51
212.2992861
0
ARC
8
DEFAULT_255_2_778
10
3.1331286
20
12.1060119
40
0.1484639
50
179.8539556
51
191.1896899
0
ARC
8
DEFAULT_255_2_778
10
3.2715465
20
12.0901599
40
0.2873402
50
149.7510053
51
176.7619257
0
ARC
8
DEFAULT_255_2_778
10
4.4408535
20
11.4538311
40
1.6184741
50
145.4148123
51
151.1445188
0
ARC
8
DEFAULT_255_2_778
10
1.9865095
20
13.1420885
40
1.3604569
50
325.5515911
51
332.2671918
0
ARC
8
DEFAULT_255_2_778
10
-228.7709303
20
138.5203727
40
263.979275
50
331.4873176
51
331.626095
0
ARC
8
DEFAULT_255_2_778
10
23.8094216
20
2.2302939
40
23.0259027
50
148.8194374
51
151.9128553
0
ARC
8
DEFAULT_255_2_778
10
14.5695111
20
7.7191843
40
12.279304
50
148.2259833
51
148.409397
0
ARC
8
DEFAULT_255_2_778
10
4.9819076
20
13.6817695
40
0.9890702
50
100.5018703
51
149.409819
0
ARC
8
DEFAULT_255_2_778
10
4.9669635
20
13.6657725
40
1.0022302
50
89.9014674
51
99.4951122
0
ARC
8
DEFAULT_255_2_778
10
6.1479298
20
76.0271318
40
61.3704613
50
268.8989851
51
270.0669617
0
ARC
8
DEFAULT_255_2_778
10
6.1841046
20
139.3173971
40
124.6606897
50
270.0163388
51
270.3068263
0
ARC
8
DEFAULT_255_2_778
10
4.8538214
20
388.3340092
40
373.680855
50
270.3063287
51
270.4021112
0
ARC
8
DEFAULT_255_2_778
10
8.9409256
20
-171.3042581
40
185.9723819
50
90.0657886
51
90.451221
0
ARC
8
DEFAULT_255_2_778
10
8.9111804
20
190.3464522
40
190.4830685
50
269.5543497
51
269.9363544
0
ARC
8
DEFAULT_255_2_778
10
5.9480613
20
-190.597172
40
190.4720798
50
89.5543331
51
89.9363265
0
ARC
8
DEFAULT_255_2_778
10
6.0891701
20
-63.5929051
40
63.4677345
50
89.9362972
51
91.082542
0
ARC
8
DEFAULT_255_2_778
10
4.8792822
20
0.8021127
40
0.9386736
50
254.599615
51
270.6595288
0
ARC
8
DEFAULT_255_2_778
10
4.883221
20
0.6951395
40
0.8372071
50
211.0168408
51
252.395031
0
ARC
8
DEFAULT_255_2_778
10
5.7497892
20
1.3511496
40
1.9213905
50
212.4323472
51
214.4684142
0
ARC
8
DEFAULT_255_2_778
10
12.54108
20
5.6058932
40
9.9353764
50
207.4341461
51
212.1377693
0
ARC
8
DEFAULT_255_2_778
10
33.3197615
20
16.7454386
40
33.5110831
50
207.8759104
51
207.9701039
0
ARC
8
DEFAULT_255_2_778
10
-112.3930763
20
-59.9691755
40
131.1624992
50
27.7376944
51
27.9286885
0
ARC
8
DEFAULT_255_2_778
10
3.7351441
20
1.6151929
40
0.2855545
50
186.2206397
51
212.0404283
0
ARC
8
DEFAULT_255_2_778
10
3.6892071
20
1.6065925
40
0.2389826
50
180.0038982
51
185.3641951
0
ARC
8
DEFAULT_255_2_778
10
3.6925227
20
1.6063977
40
0.2422983
50
168.6213275
51
179.9577694
0
ARC
8
DEFAULT_255_2_778
10
3.7666133
20
1.5857438
40
0.319057
50
143.3402764
51
167.6101745
0
ARC
8
DEFAULT_255_2_778
10
3.9514591
20
1.458138
40
0.5435867
50
134.672714
51
144.1834721
0
ARC
8
DEFAULT_255_2_778
10
4.2139744
20
1.3261854
40
0.8273334
50
117.4024112
51
141.1906104
0
ARC
8
DEFAULT_255_2_778
10
4.3536363
20
0.9358495
40
1.2394
50
88.1971294
51
114.8286561
0
ARC
8
DEFAULT_255_2_778
10
4.4323654
20
-0.7994701
40
2.9743715
50
89.9899527
51
90.7654739
0
ARC
8
DEFAULT_255_2_778
10
4.6360598
20
21.6841117
40
19.5102683
50
269.403332
51
272.9842339
0
ARC
8
DEFAULT_255_2_778
10
5.3691191
20
6.0559696
40
3.8660159
50
274.1929838
51
286.0910965
0
ARC
8
DEFAULT_255_2_778
10
5.465918
20
5.672832
40
3.4710846
50
286.3087526
51
314.1676352
0
ARC
8
DEFAULT_255_2_778
10
5.016773
20
6.1800672
40
4.1479904
50
313.7360105
51
318.2723049
0
ARC
8
DEFAULT_255_2_778
10
14.6626082
20
-2.3332527
40
8.7175005
50
129.5095272
51
138.7097181
0
ARC
8
DEFAULT_255_2_778
10
16.3230309
20
-4.2446736
40
11.2487571
50
129.0909752
51
129.8405511
0
ARC
8
DEFAULT_255_2_778
10
9.7600184
20
3.786526
40
0.8775494
50
91.4320605
51
127.1480298
0
ARC
8
DEFAULT_255_2_778
10
15.5176649
20
3.0562573
40
1.6075864
50
86.7844503
51
90.4162126
0
ARC
8
DEFAULT_255_2_778
10
15.5939186
20
4.3160673
40
0.345526
50
75.1174519
51
87.6911647
0
ARC
8
DEFAULT_255_2_778
10
15.6752248
20
4.5927404
40
0.0577433
50
359.5410281
51
82.598969
0
ARC
8
DEFAULT_255_2_778
10
15.5781496
20
4.5983363
40
0.1549351
50
339.2000852
51
357.7589547
0
ARC
8
DEFAULT_255_2_778
10
15.2241545
20
4.7219881
40
0.529865
50
333.3893651
51
340.2936735
0
ARC
8
DEFAULT_255_2_778
10
14.2862518
20
5.1824756
40
1.574703
50
330.8311794
51
333.695058
0
ARC
8
DEFAULT_255_2_778
10
13.1066031
20
5.8274838
40
2.9191479
50
330.9449702
51
331.0614002
0
ARC
8
DEFAULT_255_2_778
10
465.0769097
20
-248.0384936
40
515.4848771
50
150.880935
51
150.9596058
0
ARC
8
DEFAULT_255_2_778
10
1.1569819
20
9.5420737
40
15.1463021
50
328.222071
51
330.9668129
0
ARC
8
DEFAULT_255_2_778
10
-23.8153125
20
23.8170083
40
43.9044844
50
327.3314224
51
329.5481566
0
ARC
8
DEFAULT_255_2_778
10
12.7504365
20
0.354094
40
0.4586097
50
271.0510956
51
329.0595529
0
ARC
8
DEFAULT_255_2_778
10
12.640723
20
1.0811494
40
1.1914582
50
269.7626326
51
275.6898952
0
ARC
8
DEFAULT_255_2_778
10
1.7140392
20
12.9811435
40
8.4329617
50
312.3225934
51
314.581091
0
ARC
8
DEFAULT_255_2_778
10
13.0699348
20
0.5110591
40
8.4329617
50
132.3225934
51
134.581091
0
ARC
8
DEFAULT_255_2_778
10
5.2936598
20
5.9621225
40
0.9195918
50
275.5814783
51
318.2181013
0
ARC
8
DEFAULT_255_2_778
10
5.3193791
20
5.9326494
40
0.8880481
50
269.9747003
51
274.1147505
0
ARC
8
DEFAULT_255_2_778
10
5.3863712
20
36.5545739
40
31.5100447
50
269.1774517
51
269.877473
0
ARC
8
DEFAULT_255_2_778
10
4.4766021
20
-27.0835513
40
32.1345833
50
89.1843937
51
89.8710767
0
LINE
8
DEFAULT_255_2_778
10
4.5489092
20
5.0509506
11
4.5443245
21
5.0509513
0
ARC
8
DEFAULT_255_2_778
10
4.476788
20
-2.762528
40
7.8137711
50
89.5047709
51
95.190566
0
ARC
8
DEFAULT_255_2_778
10
4.0251995
20
1.8463215
40
3.1831353
50
94.6005139
51
126.3099735
0
ARC
8
DEFAULT_255_2_778
10
4.405911
20
1.2458398
40
3.8927641
50
125.5918315
51
126.9005459
0
ARC
8
DEFAULT_255_2_778
10
1.7238489
20
4.8125251
40
0.5698331
50
299.5705301
51
307.227471
0
ARC
8
DEFAULT_255_2_778
10
1.8542528
20
4.5794199
40
0.3027407
50
286.7380958
51
299.8766565
0
ARC
8
DEFAULT_255_2_778
10
1.8919012
20
4.4559055
40
0.1736175
50
270.5405687
51
286.5792115
0
ARC
8
DEFAULT_255_2_778
10
1.9078975
20
4.4599268
40
0.1782104
50
207.9886373
51
265.3786868
0
ARC
8
DEFAULT_255_2_778
10
2.5365637
20
4.9203123
40
0.9559316
50
210.5096719
51
214.6873748
0
ARC
8
DEFAULT_255_2_778
10
14.3402069
20
11.9725542
40
14.7058283
50
209.0496854
51
210.8341997
0
ARC
8
DEFAULT_255_2_778
10
44.3933497
20
28.6862122
40
49.0938736
50
208.5170516
51
209.0709511
0
ARC
8
DEFAULT_255_2_778
10
-15.451117
20
-4.1609213
40
19.1740633
50
29.3866343
51
31.2861909
0
ARC
8
DEFAULT_255_2_778
10
13.2709482
20
13.3642644
40
14.4725426
50
208.2402542
51
211.527675
0
ARC
8
DEFAULT_255_2_778
10
6.0406682
20
9.4088308
40
6.2316055
50
206.5945656
51
207.6566502
0
ARC
8
DEFAULT_255_2_778
10
-45.7846362
20
-16.6260907
40
51.7656363
50
26.6825423
51
26.7922152
0
ARC
8
DEFAULT_255_2_778
10
2.6777589
20
7.8759552
40
2.5387724
50
201.7158162
51
207.4004772
0
ARC
8
DEFAULT_255_2_778
10
1.0908857
20
7.2481422
40
0.8322351
50
186.6616131
51
201.9836795
0
ARC
8
DEFAULT_255_2_778
10
0.770961
20
7.2006529
40
0.5090605
50
180.0729772
51
185.5297425
0
ARC
8
DEFAULT_255_2_778
10
0.6977076
20
7.2006789
40
0.4358074
50
172.9588286
51
180.0886683
0
ARC
8
DEFAULT_255_2_778
10
1.5965904
20
7.0638554
40
1.3449269
50
151.0623805
51
171.8679819
0
ARC
8
DEFAULT_255_2_778
10
4.647585
20
5.555283
40
4.7474936
50
150.7583961
51
152.9457016
0
ARC
8
DEFAULT_255_2_778
10
360.8238358
20
-193.1578821
40
412.6058507
50
150.8230903
51
150.8415851
0
ARC
8
DEFAULT_255_2_778
10
4.0002563
20
5.9995115
40
3.9663061
50
148.6283971
51
149.8658531
0
ARC
8
DEFAULT_255_2_778
10
1.7041609
20
7.4032819
40
1.2750995
50
145.2269019
51
148.7737751
0
ARC
8
DEFAULT_255_2_778
10
1.0273904
20
7.8766548
40
0.4492199
50
136.7833803
51
145.5911097
0
ARC
8
DEFAULT_255_2_778
10
0.8559599
20
8.0348245
40
0.2159887
50
128.9168062
51
136.2212004
0
ARC
8
DEFAULT_255_2_778
10
0.7967356
20
8.1120511
40
0.1187225
50
103.4822094
51
130.0911234
0
ARC
8
DEFAULT_255_2_778
10
0.7907618
20
8.1283772
40
0.1014733
50
89.8719427
51
102.3512899
0
ARC
8
DEFAULT_255_2_778
10
0.7844099
20
8.0587736
40
0.1712031
50
63.3251052
51
87.7977847
0
ARC
8
DEFAULT_255_2_778
10
0.6286943
20
7.7201623
40
0.5438327
50
56.5547456
51
64.6810957
0
ARC
8
DEFAULT_255_2_778
10
0.0598622
20
6.838621
40
1.5929475
50
53.9879477
51
56.9580225
0
ARC
8
DEFAULT_255_2_778
10
-2.1721642
20
3.7530316
40
5.4011992
50
53.0049368
51
54.0804247
0
ARC
8
DEFAULT_255_2_778
10
4.2844162
20
12.1916708
40
5.2244532
50
232.1399482
51
251.7959597
0
ARC
8
DEFAULT_255_2_778
10
4.2105516
20
12.0807897
40
5.0961702
50
252.1954028
51
265.7959369
0
ARC
8
DEFAULT_255_2_778
10
3.9240842
20
9.5282602
40
2.5314282
50
268.0275917
51
269.991377
0
ARC
8
DEFAULT_255_2_778
10
3.9243523
20
9.3854873
40
2.3886554
50
269.9844293
51
272.9981296
0
ARC
8
DEFAULT_255_2_778
10
5.0768548
20
-39.612467
40
46.6238932
50
89.9286802
51
91.2628732
0
ARC
8
DEFAULT_255_2_778
10
5.1039276
20
-85.2755134
40
92.2869088
50
89.6395725
51
89.9807768
0
ARC
8
DEFAULT_255_2_778
10
3.9185833
20
-274.6882997
40
281.7034039
50
89.5329697
51
89.6408336
0
ARC
8
DEFAULT_255_2_778
10
7.4761396
20
145.1983165
40
138.1983272
50
269.4770459
51
269.9270516
0
ARC
8
DEFAULT_255_2_778
10
7.3411758
20
5.3053954
40
1.6952015
50
81.8645532
51
91.3855073
0
ARC
8
DEFAULT_255_2_778
10
7.3874725
20
5.7609237
40
1.2378462
50
78.682852
51
81.0020753
0
LINE
8
DEFAULT_255_2_778
10
7.630387
20
6.9747013
11
7.6190981
21
6.9859902
0
LINE
8
DEFAULT_255_2_778
10
7.6190981
20
6.9859902
11
7.6247426
21
6.9803457
0
LINE
8
DEFAULT_255_2_778
10
7.6247426
20
6.9803457
11
7.630387
21
6.9747013
0
ARC
8
DEFAULT_255_2_778
10
12.543536
20
8.1653664
40
2.6955815
50
248.5521468
51
265.9847715
0
ARC
8
DEFAULT_255_2_778
10
12.5244338
20
8.0605141
40
2.5910868
50
228.9916033
51
248.0974982
0
ARC
8
DEFAULT_255_2_778
10
12.8309038
20
8.4375125
40
3.0767133
50
224.9512049
51
229.2915842
0
ARC
8
DEFAULT_255_2_778
10
6.3168482
20
6.7289262
40
2.7200491
50
45.734869
51
81.2682025
0
ARC
8
DEFAULT_255_2_778
10
6.3299651
20
6.7109804
40
2.7358405
50
81.5967779
51
85.6119542
0
LINE
8
DEFAULT_255_2_778
10
4.761287
20
9.4896013
11
4.7588938
21
9.4896013
0
ARC
8
DEFAULT_255_2_778
10
4.5667289
20
15.3366618
40
5.8502174
50
260.8022869
51
271.8823602
0
ARC
8
DEFAULT_255_2_778
10
4.0245863
20
11.6886831
40
2.163016
50
239.7706011
51
259.5326423
0
ARC
8
DEFAULT_255_2_778
10
4.6831111
20
12.5993408
40
3.2832423
50
226.0638998
51
237.8420175
0
ARC
8
DEFAULT_255_2_778
10
41.7871361
20
53.7479814
40
58.6883998
50
227.8081872
51
227.8528042
0
ARC
8
DEFAULT_255_2_778
10
-2.5324748
20
4.9459669
40
7.2349952
50
47.3308607
51
50.2136952
0
ARC
8
DEFAULT_255_2_778
10
2.1325983
20
10.5332522
40
0.0447706
50
182.0533438
51
218.1420631
0
ARC
8
DEFAULT_255_2_778
10
2.2442542
20
10.5493018
40
0.157391
50
179.6590984
51
186.4401055
0
ARC
8
DEFAULT_255_2_778
10
2.512676
20
10.5414713
40
0.4259002
50
169.2750915
51
178.8205166
0
ARC
8
DEFAULT_255_2_778
10
2.8424683
20
10.4887
40
0.7598117
50
167.9970201
51
169.9932056
0
ARC
8
DEFAULT_255_2_778
10
2.914037
20
10.4745937
40
0.83275
50
161.8354335
51
168.071717
0
ARC
8
DEFAULT_255_2_778
10
2.7044398
20
10.4808712
40
0.6344258
50
138.735092
51
156.4651897
0
ARC
8
DEFAULT_255_2_778
10
-42.9704087
20
47.9505714
40
58.4435897
50
320.6566362
51
320.7215995
0
ARC
8
DEFAULT_255_2_778
10
1.5161809
20
11.578583
40
0.9807915
50
320.185009
51
328.3821152
0
ARC
8
DEFAULT_255_2_778
10
2.7671201
20
10.8623532
40
0.462231
50
143.6344824
51
154.080045
0
ARC
8
DEFAULT_255_2_778
10
2.5516626
20
11.0243772
40
0.1926831
50
123.0969075
51
144.4426573
0
ARC
8
DEFAULT_255_2_778
10
2.4989094
20
11.1036005
40
0.0975122
50
90.5431789
51
122.5484219
0
ARC
8
DEFAULT_255_2_778
10
2.4890564
20
11.0596126
40
0.141777
50
47.6849541
51
86.3893664
0
ARC
8
DEFAULT_255_2_778
10
2.2763422
20
10.7967816
40
0.4797318
50
37.6472931
51
50.0321258
0
ARC
8
DEFAULT_255_2_778
10
4.8921749
20
13.3378393
40
3.1706966
50
225.1539722
51
229.8251339
0
ARC
8
DEFAULT_255_2_778
10
8.1278218
20
17.1874518
40
8.1995014
50
229.9032693
51
231.6219968
0
ARC
8
DEFAULT_255_2_778
10
4.1088392
20
11.9877233
40
1.6299454
50
228.8922371
51
268.5199611
0
ARC
8
DEFAULT_255_2_778
10
4.2292665
20
12.9348523
40
2.5816516
50
266.390584
51
270.0381843
0
ARC
8
DEFAULT_255_2_778
10
5.7321893
20
4.9613474
40
5.3924327
50
69.0589122
51
90.8394466
0
ARC
8
DEFAULT_255_2_778
10
6.0565956
20
6.2138373
40
4.1092737
50
47.60726
51
67.0413409
0
ARC
8
DEFAULT_255_2_778
10
4.1079011
20
3.8620518
40
7.1614868
50
47.1053258
51
48.7786548
0
ARC
8
DEFAULT_255_2_778
10
12.3375225
20
7.7410637
40
1.3876819
50
225.7774146
51
262.0939213
0
ARC
8
DEFAULT_255_2_778
10
12.4794441
20
8.4521817
40
2.1119949
50
260.9338553
51
270.2127697
0
ARC
8
DEFAULT_255_2_778
10
16.2905485
20
5.7691302
40
0.5717938
50
66.8916493
51
87.1190844
0
ARC
8
DEFAULT_255_2_778
10
17.4688277
20
8.7391696
40
2.6236622
50
248.6808229
51
250.6309727
0
ARC
8
DEFAULT_255_2_778
10
15.5064455
20
6.3125023
40
1.067642
50
329.2359931
51
342.1138608
0
ARC
8
DEFAULT_255_2_778
10
15.8607569
20
6.09635
40
0.6526416
50
302.515793
51
329.6314296
0
ARC
8
DEFAULT_255_2_778
10
15.8415262
20
6.1640886
40
0.720382
50
273.9243473
51
300.9093232
0
ARC
8
DEFAULT_255_2_778
10
15.7871515
20
6.5928586
40
1.1521373
50
269.8916362
51
275.1628465
0
ARC
8
DEFAULT_255_2_778
10
15.7873455
20
6.9266204
40
1.4858989
50
265.7169571
51
269.9084983
0
ARC
8
DEFAULT_255_2_778
10
15.8113207
20
7.2721359
40
1.8322409
50
263.6316015
51
265.7762499
0
ARC
8
DEFAULT_255_2_778
10
15.1641383
20
1.9986548
40
3.4809722
50
82.6727797
51
87.6108976
0
ARC
8
DEFAULT_255_2_778
10
15.0102197
20
-1.5254038
40
7.0083872
50
87.5546326
51
90.1734818
0
ARC
8
DEFAULT_255_2_778
10
15.0495876
20
-18.5194577
40
24.0024855
50
90.1446287
51
90.9430924
0
ARC
8
DEFAULT_255_2_778
10
14.2531658
20
30.1862641
40
24.7097476
50
270.1511749
51
270.9306887
0
ARC
8
DEFAULT_255_2_778
10
14.3143308
20
14.506176
40
9.0295745
50
269.9914735
51
270.025582
0
ARC
8
DEFAULT_255_2_778
10
5.0841554
20
14.0389942
40
5.5103771
50
241.7665411
51
251.8362778
0
ARC
8
DEFAULT_255_2_778
10
4.2402367
20
11.4354829
40
2.7735393
50
251.6351625
51
271.1610083
0
ARC
8
DEFAULT_255_2_778
10
4.359021
20
15.0243946
40
6.3621893
50
269.4363555
51
270.0071877
0
ARC
8
DEFAULT_255_2_778
10
4.3521875
20
17.4802386
40
8.8180366
50
270.0495869
51
271.1190746
0
ARC
8
DEFAULT_255_2_778
10
4.0367225
20
32.8719726
40
24.2130004
50
271.1540955
51
271.6656826
0
ARC
8
DEFAULT_255_2_778
10
5.1839438
20
-5.071105
40
13.747461
50
90.271974
51
91.8483303
0
ARC
8
DEFAULT_255_2_778
10
6.140028
20
6.3779462
40
2.2837647
50
51.5433787
51
84.3974139
0
ARC
8
DEFAULT_255_2_778
10
5.2403143
20
5.1046306
40
3.8414167
50
46.4503031
51
52.8464252
0
ARC
8
DEFAULT_255_2_778
10
8.2140617
20
6.5806614
40
1.3484093
50
104.0378808
51
104.3133056
0
ARC
8
DEFAULT_255_2_778
10
8.216013
20
6.5728172
40
1.3564926
50
104.3112556
51
104.5714662
0
ARC
8
DEFAULT_255_2_778
10
8.2333764
20
6.5060793
40
1.4254523
50
104.5720465
51
104.8075821
0
ARC
8
DEFAULT_255_2_778
10
8.2431199
20
6.4695586
40
1.4632503
50
104.8109575
51
105.0293796
0
ARC
8
DEFAULT_255_2_778
10
8.2585625
20
6.4123134
40
1.5225419
50
105.0320078
51
105.2319848
0
ARC
8
DEFAULT_255_2_778
10
8.2757114
20
6.3495598
40
1.5875965
50
105.2341284
51
105.416964
0
ARC
8
DEFAULT_255_2_778
10
8.2886753
20
6.3026784
40
1.6362373
50
105.4181671
51
105.587411
0
ARC
8
DEFAULT_255_2_778
10
8.2975675
20
6.2705189
40
1.6696034
50
105.5847899
51
105.7431336
0
ARC
8
DEFAULT_255_2_778
10
7.2855018
20
9.6745898
40
1.8820493
50
283.6279305
51
287.2804273
0
ARC
8
DEFAULT_255_2_778
10
7.6580173
20
8.1759646
40
0.3379634
50
270.0626716
51
282.1141875
0
ARC
8
DEFAULT_255_2_778
10
7.8445857
20
-88.808382
40
96.6465627
50
90.1103858
51
90.7587006
0
ARC
8
DEFAULT_255_2_778
10
4.9471695
20
138.6568789
40
130.8371724
50
270.3525834
51
270.7084258
0
ARC
8
DEFAULT_255_2_778
10
5.458882
20
63.6654164
40
55.8440034
50
270.0073841
51
270.30105
0
ARC
8
DEFAULT_255_2_778
10
5.3461143
20
35.2753519
40
27.4542004
50
266.8209176
51
270.2503622
0
ARC
8
DEFAULT_255_2_778
10
4.0147253
20
11.5948314
40
3.7363224
50
247.6519663
51
267.0676508
0
ARC
8
DEFAULT_255_2_778
10
4.083507
20
11.7154096
40
3.8740378
50
228.2329308
51
247.3891832
0
ARC
8
DEFAULT_255_2_778
10
4.3572654
20
12.0503137
40
4.3062219
50
225.9440158
51
228.4843469
0
ARC
8
DEFAULT_255_2_778
10
1.6307511
20
9.1844909
40
0.3523374
50
179.9959808
51
220.513853
0
ARC
8
DEFAULT_255_2_778
10
1.6305374
20
9.1845158
40
0.3521238
50
175.4514816
51
180.000039
0
ARC
8
DEFAULT_255_2_778
10
1.6308025
20
9.1844831
40
0.3523905
50
167.5587926
51
175.4495942
0
ARC
8
DEFAULT_255_2_778
10
5.8368781
20
6.610623
40
5.265507
50
146.3246374
51
149.7858578
0
ARC
8
DEFAULT_255_2_778
10
-11.6176084
20
18.2110876
40
15.6923096
50
326.4139397
51
327.6712104
0
ARC
8
DEFAULT_255_2_778
10
9.6935097
20
3.9920729
40
1.2324672
50
86.6240244
51
89.9912586
0
ARC
8
DEFAULT_255_2_778
10
9.7253768
20
3.8791433
40
1.3457698
50
91.3488499
51
132.736964
0
ARC
8
DEFAULT_255_2_778
10
10.3153519
20
3.103033
40
2.3180633
50
130.4284697
51
135.0820869
0
ARC
8
DEFAULT_255_2_778
10
33.0545096
20
-19.5482371
40
34.4140025
50
135.1089958
51
135.9591075
0
ARC
8
DEFAULT_255_2_778
10
-695.9214857
20
687.7073858
40
981.2712895
50
315.8529155
51
315.8631773
0
ARC
8
DEFAULT_255_2_778
10
-2.1028953
20
13.9709339
40
14.1609627
50
311.211037
51
316.6454629
0
LINE
8
DEFAULT_255_2_778
10
7.226834
20
3.3178113
11
7.226587
21
3.3176013
0
ARC
8
DEFAULT_255_2_778
10
5.5850864
20
5.3385232
40
2.603584
50
270.4068859
51
309.0853454
0
ARC
8
DEFAULT_255_2_778
10
5.4999441
20
6.0827439
40
3.3493426
50
269.995603
51
271.773064
0
ARC
8
DEFAULT_255_2_778
10
4.4065049
20
0.7040798
40
2.0294684
50
90.6893811
51
114.9550261
0
ARC
8
DEFAULT_255_2_778
10
4.0735672
20
1.5411811
40
1.1312156
50
117.5554785
51
139.4763845
0
ARC
8
DEFAULT_255_2_778
10
3.03971
20
2.4573328
40
0.2511506
50
305.9334164
51
313.845798
0
ARC
8
DEFAULT_255_2_778
10
2.9604309
20
2.55991
40
0.3807528
50
302.8471358
51
306.5346554
0
ARC
8
DEFAULT_255_2_778
10
3.073314
20
2.3750241
40
0.1642889
50
288.7719579
51
304.7469662
0
ARC
8
DEFAULT_255_2_778
10
3.1188827
20
2.2455208
40
0.0270501
50
271.3931426
51
285.6561306
0
ARC
8
DEFAULT_255_2_778
10
3.1184392
20
2.2247668
40
0.0063838
50
174.2956886
51
279.9336566
0
ARC
8
DEFAULT_255_2_778
10
4.4725103
20
3.5818696
40
1.9211346
50
211.397859
51
224.9165942
0
ARC
8
DEFAULT_255_2_778
10
2.8826725
20
2.6040772
40
0.055055
50
178.2987301
51
204.7805276
0
ARC
8
DEFAULT_255_2_778
10
2.998541
20
2.5974901
40
0.1710969
50
156.6719762
51
177.2457218
0
ARC
8
DEFAULT_255_2_778
10
3.186577
20
2.5284967
40
0.3712485
50
153.3007572
51
158.3865395
0
ARC
8
DEFAULT_255_2_778
10
3.3216946
20
2.459493
40
0.5229642
50
143.4137475
51
153.198097
0
ARC
8
DEFAULT_255_2_778
10
3.1989106
20
2.5530917
40
0.3685909
50
136.5317923
51
143.7204184
0
ARC
8
DEFAULT_255_2_778
10
3.0964484
20
2.6475044
40
0.2292852
50
135.0113872
51
136.0398821
0
ARC
8
DEFAULT_255_2_778
10
4.1302359
20
1.5490876
40
1.7375812
50
118.2116962
51
133.4944035
0
ARC
8
DEFAULT_255_2_778
10
4.2171224
20
1.2829708
40
2.0137612
50
88.3040884
51
116.8106734
0
ARC
8
DEFAULT_255_2_778
10
4.2743608
20
-0.1360502
40
3.431901
50
87.3574684
51
89.9606217
0
ARC
8
DEFAULT_255_2_778
10
4.5278355
20
35.7044669
40
32.4124056
50
269.831628
51
270.8194533
0
ARC
8
DEFAULT_255_2_778
10
4.8237294
20
14.5467931
40
11.2526659
50
270.8537024
51
273.7015158
0
ARC
8
DEFAULT_255_2_778
10
5.4579408
20
5.7506079
40
2.4347548
50
272.1713006
51
286.3131622
0
ARC
8
DEFAULT_255_2_778
10
5.5138436
20
5.5053805
40
2.1837507
50
286.7127339
51
313.7228106
0
ARC
8
DEFAULT_255_2_778
10
-18.3908747
20
30.5132534
40
36.7789709
50
313.7088733
51
315.2618109
0
LINE
8
DEFAULT_255_2_778
10
7.7343495
20
4.6257013
11
7.7385361
21
4.6298885
0
ARC
8
DEFAULT_255_2_778
10
34.0049164
20
-21.400176
40
36.9795484
50
133.7238143
51
135.258905
0
ARC
8
DEFAULT_255_2_778
10
9.6497876
20
4.1309262
40
1.695502
50
116.7295377
51
135.2682355
0
ARC
8
DEFAULT_255_2_778
10
9.618103
20
4.1692815
40
1.6470315
50
89.6220114
51
116.3452287
0
ARC
8
DEFAULT_255_2_778
10
9.6278527
20
3.9320862
40
1.8841914
50
84.2511982
51
89.9660665
0
ARC
8
DEFAULT_255_2_778
10
9.8044635
20
5.5918842
40
0.2152588
50
58.6640171
51
86.7713538
0
ARC
8
DEFAULT_255_2_778
10
9.6107905
20
5.2286277
40
0.6266892
50
53.7126736
51
60.8122294
0
ARC
8
DEFAULT_255_2_778
10
8.9874606
20
4.3757306
40
1.6830847
50
50.648447
51
53.7921111
0
ARC
8
DEFAULT_255_2_778
10
12.1790067
20
8.2413884
40
3.3298406
50
230.3593287
51
232.3884101
0
ARC
8
DEFAULT_255_2_778
10
5.2213669
20
0.6246355
40
7.0035608
50
43.5277242
51
45.3097523
0
ARC
8
DEFAULT_255_2_778
10
8.2104532
20
3.4706316
40
2.876301
50
38.8119758
51
43.4308284
0
ARC
8
DEFAULT_255_2_778
10
10.385834
20
5.2778711
40
0.0660046
50
330.7686747
51
356.1169436
0
ARC
8
DEFAULT_255_2_778
10
10.3596277
20
5.2901137
40
0.0948757
50
314.6357091
51
332.0454043
0
ARC
8
DEFAULT_255_2_778
10
5.75966
20
14.3556702
40
8.6415132
50
292.034435
51
294.0886258
0
ARC
8
DEFAULT_255_2_778
10
10.4905977
20
2.4531318
40
4.1672913
50
110.9342055
51
119.3114475
0
ARC
8
DEFAULT_255_2_778
10
9.5060092
20
4.3229861
40
2.0556065
50
120.8966886
51
120.9612009
0
ARC
8
DEFAULT_255_2_778
10
10.7934481
20
2.6494047
40
4.1601654
50
124.3099953
51
135.7505232
0
ARC
8
DEFAULT_255_2_778
10
5.5856995
20
5.3799741
40
1.4186866
50
289.692507
51
312.4636801
0
ARC
8
DEFAULT_255_2_778
10
5.1127856
20
6.8524458
40
2.9648365
50
275.5686235
51
288.7082968
0
ARC
8
DEFAULT_255_2_778
10
3.9848307
20
1.9653363
40
1.9108762
50
90.1962057
51
129.6990562
0
ARC
8
DEFAULT_255_2_778
10
4.3141424
20
1.4885982
40
2.4885584
50
128.5214695
51
130.9485903
0
ARC
8
DEFAULT_255_2_778
10
2.4564131
20
3.60437
40
0.3274172
50
300.7705893
51
313.8374203
0
ARC
8
DEFAULT_255_2_778
10
2.2134646
20
3.9799509
40
0.7745956
50
301.6271173
51
301.998484
0
ARC
8
DEFAULT_255_2_778
10
2.1561322
20
4.0731563
40
0.8840224
50
301.3044832
51
301.6233256
0
ARC
8
DEFAULT_255_2_778
10
4.4325435
20
0.1750746
40
3.6302509
50
120.035732
51
121.9541596
0
ARC
8
DEFAULT_255_2_778
10
3.0453266
20
2.4272551
40
0.9852808
50
122.8224539
51
126.8387287
0
ARC
8
DEFAULT_255_2_778
10
1.8742092
20
2.958104
40
0.6350168
50
23.9420122
51
36.6403536
0
ARC
8
DEFAULT_255_2_778
10
2.2907508
20
3.2554247
40
0.1237528
50
41.2838579
51
44.9149892
0
ARC
8
DEFAULT_255_2_778
10
4.9806366
20
4.7402381
40
2.953732
50
205.9295328
51
208.23629
0
ARC
8
DEFAULT_255_2_778
10
3.4398096
20
3.9940539
40
1.2417384
50
201.2919024
51
206.0533148
0
ARC
8
DEFAULT_255_2_778
10
2.7808231
20
3.7402561
40
0.5355809
50
191.6173182
51
201.5932217
0
ARC
8
DEFAULT_255_2_778
10
2.534298
20
3.687929
40
0.2835733
50
180.3951407
51
191.2917401
0
ARC
8
DEFAULT_255_2_778
10
2.4539975
20
3.6861427
40
0.2032661
50
136.0160814
51
180.0477279
0
ARC
8
DEFAULT_255_2_778
10
2.5754372
20
3.5887691
40
0.3585521
50
134.1861237
51
138.297144
0
ARC
8
DEFAULT_255_2_778
10
2.7217955
20
3.4321114
40
0.5729144
50
125.8261433
51
133.7622358
0
ARC
8
DEFAULT_255_2_778
10
3.0960447
20
2.9200575
40
1.2071503
50
121.811314
51
126.0027406
0
ARC
8
DEFAULT_255_2_778
10
3.8582433
20
1.6998666
40
2.6458313
50
119.8066208
51
121.9091154
0
ARC
8
DEFAULT_255_2_778
10
4.7157067
20
0.2236525
40
4.3529892
50
119.7423388
51
119.9414019
0
ARC
8
DEFAULT_255_2_778
10
4.1230221
20
1.5470773
40
2.9133344
50
90.0013906
51
122.5350237
0
ARC
8
DEFAULT_255_2_778
10
4.1230236
20
1.617676
40
2.8427358
50
89.8435263
51
90.0014545
0
ARC
8
DEFAULT_255_2_778
10
5.4640943
20
5.5901373
40
1.0879287
50
277.3719736
51
285.9596052
0
ARC
8
DEFAULT_255_2_778
10
5.4253088
20
5.7392599
40
1.2419736
50
285.7883549
51
288.4408125
0
ARC
8
DEFAULT_255_2_778
10
5.5055221
20
5.5557162
40
1.0426372
50
287.4496913
51
312.213832
0
ARC
8
DEFAULT_255_2_778
10
5.7508059
20
5.2531008
40
0.6540601
50
314.1115571
51
314.9988614
0
ARC
8
DEFAULT_255_2_778
10
9.4730255
20
4.3447084
40
2.6023037
50
107.8098613
51
135.7090989
0
ARC
8
DEFAULT_255_2_778
10
8.9336611
20
6.2563839
40
0.6213636
50
107.4193769
51
114.3884629
0
ARC
8
DEFAULT_255_2_778
10
8.838011
20
6.5682281
40
0.295194
50
92.2763195
51
107.8252714
0
ARC
8
DEFAULT_255_2_778
10
8.8318902
20
6.6426885
40
0.2205719
50
90.0025292
51
91.4558378
0
ARC
8
DEFAULT_255_2_778
10
8.8322894
20
6.6592229
40
0.2040379
50
69.8311906
51
90.1148372
0
ARC
8
DEFAULT_255_2_778
10
8.7832817
20
6.5472162
40
0.3261572
50
48.7863753
51
68.5339157
0
ARC
8
DEFAULT_255_2_778
10
8.4150594
20
6.1062004
40
0.9006272
50
42.3284438
51
49.6498974
0
ARC
8
DEFAULT_255_2_778
10
7.2299653
20
5.0098436
40
2.5150592
50
39.6078671
51
42.61355
0
ARC
8
DEFAULT_255_2_778
10
3.3155915
20
1.7479179
40
7.6103884
50
38.7056152
51
39.739931
0
ARC
8
DEFAULT_255_2_778
10
-6.927872
20
-6.5015448
40
20.7626429
50
38.6524793
51
38.7944517
0
LINE
8
DEFAULT_255_2_778
10
8.724987
20
14.6701013
11
12.255287
21
14.6701013
0
LINE
8
DEFAULT_255_2_778
10
13.449087
20
13.9589013
11
14.185687
21
12.6360013
0
LINE
8
DEFAULT_255_2_778
10
14.185687
20
12.6360013
11
15.508587
21
10.3248013
0
LINE
8
DEFAULT_255_2_778
10
15.508587
20
10.3248013
11
16.626187
21
8.4455013
0
LINE
8
DEFAULT_255_2_778
10
16.778587
20
7.1501013
11
12.841587
21
7.1501013
0
LINE
8
DEFAULT_255_2_778
10
10.225987
20
9.1054013
11
9.311587
21
9.9944013
0
LINE
8
DEFAULT_255_2_778
10
8.727387
20
14.6680013
11
8.724987
21
14.6701013
0
LINE
8
DEFAULT_255_2_778
10
9.738087
20
4.6638013
11
15.505987
21
4.6638013
0
LINE
8
DEFAULT_255_2_778
10
15.658387
20
4.4098013
11
14.743987
21
2.8099013
0
LINE
8
DEFAULT_255_2_778
10
12.635787
20
-0.1102987
11
8.704587
21
-0.1353987
0
LINE
8
DEFAULT_255_2_778
10
8.704587
20
-0.1353987
11
8.699587
21
-0.1364987
0
LINE
8
DEFAULT_255_2_778
10
7.150687
20
6.5175013
11
5.979387
21
5.3494013
0
LINE
8
DEFAULT_255_2_778
10
7.630387
20
6.9747013
11
7.633287
21
6.9747013
0
LINE
8
DEFAULT_255_2_778
10
14.312687
20
5.4764013
11
12.354787
21
5.4764013
0
LINE
8
DEFAULT_255_2_778
10
10.653487
20
6.2638013
11
8.215387
21
8.6768013
0
LINE
8
DEFAULT_255_2_778
10
6.539287
20
9.4388013
11
4.761287
21
9.4896013
0
LINE
8
DEFAULT_255_2_778
10
4.230987
20
10.3532013
11
5.653187
21
10.3532013
0
LINE
8
DEFAULT_255_2_778
10
8.982387
20
9.1086013
11
11.369687
21
6.7466013
0
LINE
8
DEFAULT_255_2_778
10
12.487287
20
6.3402013
11
16.319287
21
6.3402013
0
LINE
8
DEFAULT_255_2_778
10
16.598687
20
6.2640013
11
16.522487
21
5.9846013
0
LINE
8
DEFAULT_255_2_778
10
14.312987
20
5.4766013
11
14.312687
21
5.4764013
0
LINE
8
DEFAULT_255_2_778
10
1.639187
20
9.8192013
11
2.477387
21
9.1842013
0
LINE
8
DEFAULT_255_2_778
10
5.118687
20
8.6762013
11
6.362987
21
8.6508013
0
LINE
8
DEFAULT_255_2_778
10
1.642287
20
9.8192013
11
1.639187
21
9.8192013
0
LINE
8
DEFAULT_255_2_778
10
10.426487
20
5.2224013
11
9.766087
21
5.2224013
0
LINE
8
DEFAULT_255_2_778
10
5.499687
20
2.7334013
11
4.382087
21
2.7334013
0
LINE
8
DEFAULT_255_2_778
10
10.426287
20
5.2226013
11
10.426487
21
5.2224013
0
LINE
8
DEFAULT_255_2_778
10
7.813487
20
5.5523013
11
6.543487
21
4.3334013
0
LINE
8
DEFAULT_255_2_778
10
5.400487
20
3.9016013
11
3.978287
21
3.8762013
0
LINE
8
DEFAULT_255_2_778
10
4.130787
20
4.4604013
11
5.603687
21
4.5112013
0
LINE
8
DEFAULT_255_2_778
10
6.213287
20
4.7906013
11
7.610287
21
6.1619013
0
LINE
8
DEFAULT_255_2_778
10
9.286687
20
6.4667013
11
9.286687
21
6.4667013
0
ENDSEC
0
EOF