0
SECTION
2
HEADER
9
$MEASUREMENT
70
1
0
ENDSEC
0
SECTION
2
TABLES
0
TABLE
2
LTYPE
0
LTYPE
72
65
70
64
2
CONTINUOUS
3
______
73
0
40
0
0
ENDTAB
0
TABLE
2
LAYER
0
LAYER
2
DEFAULT_255_2_778
70
0
62
255
6
CONTINUOUS
0
ENDTAB
0
ENDSEC
0
SECTION
2
ENTITIES
0
ARC
8
DEFAULT_255_2_778
10
4.571308
20
-10.1488273
40
24.4045364
50
89.5159542
51
90.1071738
0
ARC
8
DEFAULT_255_2_778
10
4.756707
20
9.1432503
40
5.1116303
50
85.6217988
51
89.7671592
0
ARC
8
DEFAULT_255_2_778
10
4.8841514
20
11.0197092
40
3.2309585
50
80.7993794
51
85.3349472
0
ARC
8
DEFAULT_255_2_778
10
4.8711909
20
10.9411893
40
3.3105406
50
80.1335662
51
80.7952418
0
ARC
8
DEFAULT_255_2_778
10
5.2194963
20
3.9138868
40
10.2912093
50
85.5871951
51
88.7808475
0
ARC
8
DEFAULT_255_2_778
10
5.4439054
20
6.7923968
40
7.4039663
50
81.5626001
51
85.6047295
0
ARC
8
DEFAULT_255_2_778
10
5.7585265
20
8.8898364
40
5.283065
50
76.1585298
51
81.6001384
0
ARC
8
DEFAULT_255_2_778
10
6.1400053
20
10.4194636
40
3.706595
50
68.4372521
51
76.2274529
0
ARC
8
DEFAULT_255_2_778
10
6.5523891
20
11.4514472
40
2.5952783
50
56.913515
51
68.531053
0
ARC
8
DEFAULT_255_2_778
10
6.9332497
20
12.0218432
40
1.9094757
50
18.9874031
51
57.1452069
0
ARC
8
DEFAULT_255_2_778
10
6.2885552
20
11.7837231
40
2.5966129
50
8.3965082
51
19.3273486
0
ARC
8
DEFAULT_255_2_778
10
5.2922434
20
11.6313242
40
3.604503
50
1.0087507
51
8.480456
0
ARC
8
DEFAULT_255_2_778
10
4.4985594
20
11.6023717
40
4.3985991
50
359.993419
51
1.2038158
0
ARC
8
DEFAULT_255_2_778
10
4.8432773
20
11.3631119
40
4.0539184
50
351.5552394
51
0.2452803
0
ARC
8
DEFAULT_255_2_778
10
6.0145946
20
11.1839923
40
2.8690004
50
338.6712602
51
351.6583429
0
ARC
8
DEFAULT_255_2_778
10
6.6743154
20
10.920056
40
2.1584743
50
304.627142
51
338.8280413
0
ARC
8
DEFAULT_255_2_778
10
6.4118353
20
11.2980962
40
2.6187013
50
293.3238511
51
304.6527656
0
ARC
8
DEFAULT_255_2_778
10
6.1074624
20
11.9965838
40
3.3806207
50
285.1751764
51
293.3738384
0
ARC
8
DEFAULT_255_2_778
10
5.830558
20
13.0073109
40
4.4285901
50
278.8300112
51
285.2097157
0
ARC
8
DEFAULT_255_2_778
10
5.6168621
20
14.3655177
40
5.8035032
50
273.7457087
51
278.8564088
0
ARC
8
DEFAULT_255_2_778
10
5.5034886
20
16.0289689
40
7.4708088
50
269.9253774
51
273.7799193
0
ARC
8
DEFAULT_255_2_778
10
5.5020103
20
11.0447495
40
2.4865968
50
266.7248879
51
269.8098634
0
ARC
8
DEFAULT_255_2_778
10
5.5639683
20
12.281227
40
3.7246048
50
266.0186394
51
266.8600056
0
ARC
8
DEFAULT_255_2_778
10
5.6643007
20
13.6505858
40
5.0976277
50
264.1607551
51
265.9622948
0
ARC
8
DEFAULT_255_2_778
10
5.7865891
20
14.9000682
40
6.3530705
50
263.7617562
51
264.2100473
0
ARC
8
DEFAULT_255_2_778
10
5.8432049
20
15.4156277
40
6.8717292
50
263.0543039
51
263.7596019
0
ARC
8
DEFAULT_255_2_778
10
5.8312168
20
15.3244631
40
6.7797841
50
262.433608
51
263.0617048
0
ARC
8
DEFAULT_255_2_778
10
5.6400379
20
13.8892222
40
5.3318665
50
262.0145241
51
262.439293
0
ARC
8
DEFAULT_255_2_778
10
5.2498288
20
11.1131656
40
2.5285197
50
261.7103412
51
262.0319668
0
LINE
8
DEFAULT_255_2_778
10
5.4937585
20
6.2869664
11
5.4956332
21
6.2869663
0
ARC
8
DEFAULT_255_2_778
10
5.5120398
20
18.4270018
40
12.1400466
50
269.922568
51
274.3795758
0
ARC
8
DEFAULT_255_2_778
10
5.6911623
20
16.0972728
40
9.8034419
50
274.3755261
51
279.3391495
0
ARC
8
DEFAULT_255_2_778
10
6.0084388
20
14.1886339
40
7.8686158
50
279.3148237
51
285.4963913
0
ARC
8
DEFAULT_255_2_778
10
6.4501696
20
12.6124048
40
6.2316679
50
285.4546543
51
293.648427
0
ARC
8
DEFAULT_255_2_778
10
6.9841038
20
11.4074468
40
4.9137274
50
293.5812672
51
305.4489211
0
ARC
8
DEFAULT_255_2_778
10
7.4877354
20
10.7088019
40
4.0524968
50
305.3771407
51
332.2364626
0
ARC
8
DEFAULT_255_2_778
10
7.1276785
20
10.8929474
40
4.4568851
50
332.2978712
51
342.0796214
0
ARC
8
DEFAULT_255_2_778
10
6.3967396
20
11.1298143
40
5.2252454
50
342.074478
51
349.9121675
0
ARC
8
DEFAULT_255_2_778
10
5.3550805
20
11.3171048
40
6.2836066
50
349.894473
51
356.1970925
0
ARC
8
DEFAULT_255_2_778
10
4.2178919
20
11.3996481
40
7.423769
50
356.1435458
51
0.0456769
0
ARC
8
DEFAULT_255_2_778
10
4.6342448
20
11.6381891
40
7.0074226
50
359.9090562
51
5.4952419
0
ARC
8
DEFAULT_255_2_778
10
5.8477903
20
11.7560739
40
5.7881652
50
5.4840547
51
12.1487268
0
ARC
8
DEFAULT_255_2_778
10
6.7595318
20
11.9537499
40
4.8552419
50
12.1325246
51
20.5285564
0
ARC
8
DEFAULT_255_2_778
10
7.3745601
20
12.1855908
40
4.1979692
50
20.5088508
51
32.5949184
0
ARC
8
DEFAULT_255_2_778
10
7.3840252
20
12.1543164
40
4.2069597
50
33.0232146
51
59.5647351
0
ARC
8
DEFAULT_255_2_778
10
6.6410579
20
10.9764626
40
5.5990407
50
59.1151988
51
68.3768972
0
ARC
8
DEFAULT_255_2_778
10
6.0642961
20
9.5381471
40
7.1486782
50
68.3275619
51
75.0751673
0
ARC
8
DEFAULT_255_2_778
10
5.5559765
20
7.644242
40
9.1096107
50
75.053827
51
80.5053179
0
ARC
8
DEFAULT_255_2_778
10
5.1444011
20
5.2014101
40
11.5868701
50
80.490596
51
85.0326697
0
ARC
8
DEFAULT_255_2_778
10
4.8756123
20
2.145031
40
14.6550443
50
85.0204152
51
88.8434651
0
ARC
8
DEFAULT_255_2_778
10
4.8071812
20
-0.3108529
40
17.1118195
50
88.780357
51
90.008112
0
LINE
8
DEFAULT_255_2_778
10
4.8047585
20
16.8009664
11
0.2645585
21
16.8009664
0
LINE
8
DEFAULT_255_2_778
10
0.2645585
20
16.8009664
11
0.2645585
21
-0.1323336
0
LINE
8
DEFAULT_255_2_778
10
0.2645585
20
-0.1323336
11
3.0868585
21
-0.1323336
0
LINE
8
DEFAULT_255_2_778
10
3.0868585
20
-0.1323336
11
3.0868585
21
14.2556664
0
LINE
8
DEFAULT_255_2_778
10
3.0868585
20
14.2556664
11
4.5256585
21
14.2556664
0
LINE
8
DEFAULT_255_2_778
10
8.8971585
20
11.6018664
11
8.8971585
21
11.3804664
0
LINE
8
DEFAULT_255_2_778
10
4.8852585
20
8.6110664
11
4.8852585
21
6.2869664
0
LINE
8
DEFAULT_255_2_778
10
4.8852585
20
6.2869664
11
5.4937585
21
6.2869664
0
LINE
8
DEFAULT_255_2_778
10
11.6416585
20
11.4055664
11
11.6416585
21
11.6270664
0
LINE
8
DEFAULT_255_2_778
10
4.8047585
20
16.8009664
11
4.8047585
21
16.8009664
0
ENDSEC
0
EOF