0
SECTION
2
HEADER
9
$MEASUREMENT
70
1
0
ENDSEC
0
SECTION
2
TABLES
0
TABLE
2
LTYPE
0
LTYPE
72
65
70
64
2
CONTINUOUS
3
______
73
0
40
0
0
ENDTAB
0
TABLE
2
LAYER
0
LAYER
2
DEFAULT_255_2_778
70
0
62
255
6
CONTINUOUS
0
LAYER
2
DEFAULT_255_1_234
70
0
62
255
6
CONTINUOUS
0
ENDTAB
0
ENDSEC
0
SECTION
2
ENTITIES
0
ARC
8
DEFAULT_255_2_778
10
3.5700693
20
83.7426529
40
0.7914215
50
129.1312896
51
180.1450914
0
ARC
8
DEFAULT_255_2_778
10
3.5703345
20
83.74314
40
0.7912112
50
89.854026
51
129.1684493
0
ARC
8
DEFAULT_255_2_778
10
25.7993937
20
83.7428266
40
0.7915249
50
39.4792447
51
90.147911
0
ARC
8
DEFAULT_255_2_778
10
25.7999935
20
83.7426732
40
0.7911595
50
359.8533901
51
39.5154338
0
ARC
8
DEFAULT_255_2_778
10
25.7996693
20
-1.9863993
40
0.7914836
50
309.4761667
51
0.1482649
0
ARC
8
DEFAULT_255_2_778
10
25.799398
20
-1.9868304
40
0.7913235
50
269.8517415
51
309.511178
0
ARC
8
DEFAULT_255_2_778
10
3.570342
20
-1.9867723
40
0.7913815
50
219.1282118
51
270.1454017
0
ARC
8
DEFAULT_255_2_778
10
3.5700247
20
-1.9863898
40
0.7913769
50
179.8524075
51
219.1641908
0
LINE
8
DEFAULT_255_2_778
10
3.5723503
20
84.5343488
11
25.7973503
21
84.5343488
0
LINE
8
DEFAULT_255_2_778
10
26.5911503
20
83.7406488
11
26.5911503
21
-1.9843512
0
LINE
8
DEFAULT_255_2_778
10
25.7973503
20
-2.7781512
11
3.5723503
21
-2.7781512
0
LINE
8
DEFAULT_255_2_778
10
2.7786503
20
-1.9843512
11
2.7786503
21
83.7406488
0
LINE
8
DEFAULT_255_1_234
10
10.5154344
20
-0.1934909
11
10.2399458
21
-0.1934909
0
LINE
8
DEFAULT_255_1_234
10
10.2399458
20
-0.1934909
11
10.2399458
21
-0.6513
0
LINE
8
DEFAULT_255_1_234
10
10.2399458
20
-0.6513
11
10.0857364
21
-0.6513
0
LINE
8
DEFAULT_255_1_234
10
10.0857364
20
-0.6513
11
10.0857364
21
0.5181211
0
LINE
8
DEFAULT_255_1_234
10
10.0857364
20
0.5181211
11
10.5170407
21
0.5181211
0
LINE
8
DEFAULT_255_1_234
10
10.2399458
20
0.3912196
11
10.2399458
21
-0.0673926
0
LINE
8
DEFAULT_255_1_234
10
10.2399458
20
-0.0673926
11
10.5170407
21
-0.0673926
0
LINE
8
DEFAULT_255_1_234
10
10.5258756
20
0.3912196
11
10.2399458
21
0.3912196
0
ARC
8
DEFAULT_255_1_234
10
10.5212534
20
-0.0877805
40
0.6059162
50
78.8378113
51
90.3983573
0
ARC
8
DEFAULT_255_1_234
10
10.5628548
20
0.1142879
40
0.3996205
50
58.9632738
51
79.0810598
0
ARC
8
DEFAULT_255_1_234
10
10.593009
20
0.1702721
40
0.3361177
50
48.0197965
51
58.447194
0
ARC
8
DEFAULT_255_1_234
10
10.6018951
20
0.1788225
40
0.3238191
50
3.3375044
51
48.1766626
0
ARC
8
DEFAULT_255_1_234
10
10.478879
20
0.1611171
40
0.4477806
50
359.9477528
51
4.6829065
0
ARC
8
DEFAULT_255_1_234
10
10.4912107
20
0.1568628
40
0.4354656
50
346.1877825
51
0.5060252
0
ARC
8
DEFAULT_255_1_234
10
10.6270975
20
0.1215731
40
0.295089
50
310.8831995
51
346.5426355
0
ARC
8
DEFAULT_255_1_234
10
10.5962395
20
0.1632695
40
0.3468331
50
286.6925341
51
310.2288297
0
ARC
8
DEFAULT_255_1_234
10
10.5393226
20
0.3422882
40
0.5346654
50
274.6850312
51
287.0245141
0
ARC
8
DEFAULT_255_1_234
10
10.5167949
20
0.5631932
40
0.7566852
50
269.8969846
51
275.018904
0
ARC
8
DEFAULT_255_1_234
10
10.519554
20
0.3552707
40
0.4226708
50
269.6593078
51
279.4153575
0
ARC
8
DEFAULT_255_1_234
10
10.5452815
20
0.2062133
40
0.2714146
50
279.2049762
51
294.9900808
0
ARC
8
DEFAULT_255_1_234
10
10.5743141
20
0.1414508
40
0.2004525
50
295.2888114
51
311.2911209
0
ARC
8
DEFAULT_255_1_234
10
10.5814035
20
0.130922
40
0.1878703
50
311.7854996
51
347.2861051
0
ARC
8
DEFAULT_255_1_234
10
10.4830194
20
0.1562092
40
0.2894234
50
346.6893224
51
0.1059443
0
ARC
8
DEFAULT_255_1_234
10
10.4075089
20
0.1590685
40
0.3649409
50
359.6350983
51
0.0053152
0
ARC
8
DEFAULT_255_1_234
10
10.5045417
20
0.1615937
40
0.2679199
50
359.4672059
51
15.5933957
0
ARC
8
DEFAULT_255_1_234
10
10.5670306
20
0.1784779
40
0.2031932
50
15.7442113
51
46.6203375
0
ARC
8
DEFAULT_255_1_234
10
10.5522527
20
0.1614484
40
0.2257226
50
46.8628658
51
75.6676503
0
ARC
8
DEFAULT_255_1_234
10
10.5228347
20
0.0555718
40
0.3355939
50
75.276167
51
88.2915297
0
ARC
8
DEFAULT_255_1_234
10
10.5170054
20
-0.0322476
40
0.4235602
50
87.8575022
51
88.8000139
0
LINE
8
DEFAULT_255_1_234
10
11.5732143
20
0.5237433
11
11.5732143
21
-0.6513
0
LINE
8
DEFAULT_255_1_234
10
11.5732143
20
-0.6513
11
11.423824
21
-0.6513
0
LINE
8
DEFAULT_255_1_234
10
11.423824
20
-0.6513
11
11.423824
21
0.3390133
0
LINE
8
DEFAULT_255_1_234
10
11.423824
20
0.3390133
11
11.1242401
21
0.2289785
0
LINE
8
DEFAULT_255_1_234
10
11.1242401
20
0.2289785
11
11.1242401
21
0.3639117
0
LINE
8
DEFAULT_255_1_234
10
11.1242401
20
0.3639117
11
11.5499223
21
0.5237433
0
LINE
8
DEFAULT_255_1_234
10
11.5499223
20
0.5237433
11
11.5732143
21
0.5237433
0
LINE
8
DEFAULT_255_1_234
10
12.3330167
20
-0.0938974
11
12.3330167
21
-0.2151766
0
LINE
8
DEFAULT_255_1_234
10
12.3330167
20
-0.2151766
11
11.9410679
21
-0.2151766
0
LINE
8
DEFAULT_255_1_234
10
11.9410679
20
-0.2151766
11
11.9410679
21
-0.0938974
0
LINE
8
DEFAULT_255_1_234
10
11.9410679
20
-0.0938974
11
12.3330167
21
-0.0938974
0
LINE
8
DEFAULT_255_1_234
10
12.9506574
20
0.5237433
11
12.9506574
21
-0.6513
0
LINE
8
DEFAULT_255_1_234
10
12.9506574
20
-0.6513
11
12.8012671
21
-0.6513
0
LINE
8
DEFAULT_255_1_234
10
12.8012671
20
-0.6513
11
12.8012671
21
0.3390133
0
LINE
8
DEFAULT_255_1_234
10
12.8012671
20
0.3390133
11
12.5016833
21
0.2289785
0
LINE
8
DEFAULT_255_1_234
10
12.5016833
20
0.2289785
11
12.5016833
21
0.3639117
0
LINE
8
DEFAULT_255_1_234
10
12.5016833
20
0.3639117
11
12.9273654
21
0.5237433
0
LINE
8
DEFAULT_255_1_234
10
12.9273654
20
0.5237433
11
12.9506574
21
0.5237433
0
LINE
8
DEFAULT_255_1_234
10
13.5731171
20
-0.0955037
11
13.4542474
21
-0.0649831
0
LINE
8
DEFAULT_255_1_234
10
13.4542474
20
-0.0649831
11
13.5136823
21
0.5181211
0
LINE
8
DEFAULT_255_1_234
10
13.5136823
20
0.5181211
11
14.11285
21
0.5181211
0
LINE
8
DEFAULT_255_1_234
10
14.11285
20
0.5181211
11
14.11285
21
0.3807784
0
LINE
8
DEFAULT_255_1_234
10
14.11285
20
0.3807784
11
13.6397806
21
0.3807784
0
LINE
8
DEFAULT_255_1_234
10
13.6397806
20
0.3807784
11
13.6044409
21
0.0619184
0
LINE
8
DEFAULT_255_1_234
10
13.4124824
20
-0.3436844
11
13.5530378
21
-0.3436844
0
LINE
8
DEFAULT_255_1_234
10
13.6124727
20
-0.0633768
11
13.5731171
21
-0.0955037
0
ARC
8
DEFAULT_255_1_234
10
13.7899193
20
-0.256077
40
0.3681349
50
93.7182161
51
120.2538958
0
ARC
8
DEFAULT_255_1_234
10
13.7993456
20
-0.3368606
40
0.449379
50
89.9660152
51
94.2496022
0
ARC
8
DEFAULT_255_1_234
10
13.803419
20
-0.2779451
40
0.390482
50
73.8043271
51
90.5585896
0
ARC
8
DEFAULT_255_1_234
10
13.8269087
20
-0.1921398
40
0.3015334
50
41.3071453
51
73.5430202
0
ARC
8
DEFAULT_255_1_234
10
13.7852914
20
-0.2279676
40
0.3564457
50
13.5075983
51
41.2174222
0
ARC
8
DEFAULT_255_1_234
10
13.6211118
20
-0.2709514
40
0.5261351
50
1.1331335
51
13.8829381
0
ARC
8
DEFAULT_255_1_234
10
13.4799487
20
-0.2785335
40
0.6674378
50
359.9919444
51
1.544251
0
ARC
8
DEFAULT_255_1_234
10
13.6076313
20
-0.282672
40
0.5397702
50
347.8572367
51
0.4293338
0
ARC
8
DEFAULT_255_1_234
10
13.7826631
20
-0.3223264
40
0.3603188
50
323.673004
51
348.1672506
0
ARC
8
DEFAULT_255_1_234
10
13.8121139
20
-0.3402832
40
0.3259678
50
316.8171152
51
323.1492751
0
ARC
8
DEFAULT_255_1_234
10
13.8182328
20
-0.343954
40
0.3189975
50
281.8396411
51
316.5457803
0
ARC
8
DEFAULT_255_1_234
10
13.7806592
20
-0.1884238
40
0.4789527
50
269.5770101
51
282.4214771
0
ARC
8
DEFAULT_255_1_234
10
13.7735403
20
-0.2097875
40
0.45759
50
256.2427136
51
270.4486331
0
ARC
8
DEFAULT_255_1_234
10
13.7436306
20
-0.3297771
40
0.3339303
50
228.9023911
51
256.3314342
0
ARC
8
DEFAULT_255_1_234
10
13.7362538
20
-0.3414254
40
0.32031
50
193.753695
51
228.5271154
0
ARC
8
DEFAULT_255_1_234
10
13.8600492
20
-0.30512
40
0.4492253
50
184.924711
51
194.497588
0
ARC
8
DEFAULT_255_1_234
10
13.8793059
20
-0.3015409
40
0.3289787
50
187.3600538
51
198.6732863
0
ARC
8
DEFAULT_255_1_234
10
13.7743353
20
-0.3379326
40
0.217884
50
198.4451669
51
217.794479
0
ARC
8
DEFAULT_255_1_234
10
13.7447528
20
-0.3588915
40
0.1816698
50
218.2887171
51
228.5612368
0
ARC
8
DEFAULT_255_1_234
10
13.7545315
20
-0.3457037
40
0.1980329
50
228.9654866
51
258.1234728
0
ARC
8
DEFAULT_255_1_234
10
13.7751025
20
-0.2576167
40
0.2884748
50
257.7258293
51
270.401361
0
ARC
8
DEFAULT_255_1_234
10
13.7795911
20
-0.3021179
40
0.2439788
50
269.4204404
51
286.4209037
0
ARC
8
DEFAULT_255_1_234
10
13.7944399
20
-0.3560343
40
0.1880666
50
286.7251356
51
320.600362
0
ARC
8
DEFAULT_255_1_234
10
13.7561224
20
-0.3249405
40
0.2374121
50
320.6712579
51
344.5441685
0
ARC
8
DEFAULT_255_1_234
10
13.640455
20
-0.2909955
40
0.3579479
50
344.2412205
51
356.7357071
0
ARC
8
DEFAULT_255_1_234
10
13.5155699
20
-0.2806556
40
0.4832297
50
356.3548756
51
0.0500261
0
ARC
8
DEFAULT_255_1_234
10
13.6492208
20
-0.277535
40
0.3495889
50
359.5576869
51
12.953486
0
ARC
8
DEFAULT_255_1_234
10
13.7547105
20
-0.2519566
40
0.2410532
50
12.6490276
51
41.6081334
0
ARC
8
DEFAULT_255_1_234
10
13.7777476
20
-0.2323679
40
0.2108218
50
41.7850273
51
85.9892764
0
ARC
8
DEFAULT_255_1_234
10
13.7654213
20
-0.3136538
40
0.2928454
50
84.6957577
51
90.0676183
0
ARC
8
DEFAULT_255_1_234
10
13.7630697
20
-0.3805284
40
0.3597255
50
89.6804936
51
99.1614436
0
ARC
8
DEFAULT_255_1_234
10
13.7425328
20
-0.2577869
40
0.235281
50
98.9830931
51
113.8908934
0
ARC
8
DEFAULT_255_1_234
10
13.7195738
20
-0.2036413
40
0.176479
50
114.1950727
51
127.3641004
0
LINE
8
DEFAULT_255_1_234
10
15.0533665
20
-0.2802337
11
15.2083791
21
-0.2802337
0
LINE
8
DEFAULT_255_1_234
10
14.3080212
20
-0.1212053
11
14.3080212
21
-0.0087609
0
LINE
8
DEFAULT_255_1_234
10
15.2083791
20
0.1422357
11
15.0533665
21
0.1422357
0
LINE
8
DEFAULT_255_1_234
10
14.4630337
20
-0.0127768
11
14.4630337
21
-0.1260243
0
ARC
8
DEFAULT_255_1_234
10
14.6603177
20
-0.2205154
40
0.5513052
50
340.1774281
51
353.7814284
0
ARC
8
DEFAULT_255_1_234
10
14.817453
20
-0.2790418
40
0.3836379
50
311.4558989
51
340.4421614
0
ARC
8
DEFAULT_255_1_234
10
14.8141198
20
-0.2679472
40
0.3941894
50
282.4333181
51
310.7513653
0
ARC
8
DEFAULT_255_1_234
10
14.7701937
20
-0.0864321
40
0.5809175
50
269.9358511
51
282.809604
0
ARC
8
DEFAULT_255_1_234
10
14.7650003
20
0.0593212
40
0.7266847
50
270.0021091
51
270.3581957
0
ARC
8
DEFAULT_255_1_234
10
14.759742
20
-0.2007415
40
0.4666519
50
250.7884749
51
270.6489167
0
ARC
8
DEFAULT_255_1_234
10
14.7429255
20
-0.2644681
40
0.4009729
50
219.3627325
51
250.0611886
0
ARC
8
DEFAULT_255_1_234
10
14.8258466
20
-0.1939958
40
0.5097822
50
193.5479632
51
219.5756669
0
ARC
8
DEFAULT_255_1_234
10
15.0630087
20
-0.1324081
40
0.7547848
50
181.1218675
51
193.87563
0
ARC
8
DEFAULT_255_1_234
10
15.2700268
20
-0.121342
40
0.9620055
50
179.9918545
51
181.5394234
0
ARC
8
DEFAULT_255_1_234
10
15.084937
20
-0.0050212
40
0.7769248
50
169.5837241
51
180.2757934
0
ARC
8
DEFAULT_255_1_234
10
14.9012308
20
0.0289229
40
0.590109
50
155.0365899
51
169.6003176
0
ARC
8
DEFAULT_255_1_234
10
14.7876772
20
0.0836677
40
0.4640625
50
136.783148
51
155.2472683
0
ARC
8
DEFAULT_255_1_234
10
14.7487249
20
0.1167562
40
0.4130255
50
121.7633186
51
136.428115
0
ARC
8
DEFAULT_255_1_234
10
14.7622211
20
0.0918227
40
0.4413323
50
95.6459699
51
121.5490577
0
ARC
8
DEFAULT_255_1_234
10
14.7779493
20
-0.0190051
40
0.55319
50
89.924208
51
96.1377933
0
ARC
8
DEFAULT_255_1_234
10
14.7829926
20
-0.0071458
40
0.5413475
50
76.6779277
51
90.4563316
0
ARC
8
DEFAULT_255_1_234
10
14.8223549
20
0.1519114
40
0.3775041
50
47.485847
51
76.9287264
0
ARC
8
DEFAULT_255_1_234
10
14.8076522
20
0.1419159
40
0.3948286
50
16.5424086
51
46.8933463
0
ARC
8
DEFAULT_255_1_234
10
14.6468679
20
0.0890861
40
0.564021
50
5.4072051
51
17.0365086
0
ARC
8
DEFAULT_255_1_234
10
14.5029696
20
0.0659679
40
0.5556559
50
7.8891745
51
15.9239216
0
ARC
8
DEFAULT_255_1_234
10
14.701671
20
0.1236631
40
0.3487515
50
15.7653144
51
27.9410532
0
ARC
8
DEFAULT_255_1_234
10
14.8120927
20
0.182779
40
0.2235026
50
27.8166557
51
46.4008329
0
ARC
8
DEFAULT_255_1_234
10
14.817057
20
0.1822082
40
0.2205286
50
47.4371857
51
75.0698205
0
ARC
8
DEFAULT_255_1_234
10
14.7861965
20
0.0747765
40
0.3322915
50
74.7008593
51
87.8124495
0
ARC
8
DEFAULT_255_1_234
10
14.7788652
20
-0.0308156
40
0.4380987
50
87.3814673
51
90.0240855
0
ARC
8
DEFAULT_255_1_234
10
14.7750196
20
0.0869291
40
0.3203749
50
89.3451631
51
108.5745436
0
ARC
8
DEFAULT_255_1_234
10
14.7613301
20
0.1382908
40
0.2673494
50
109.2998449
51
143.3037509
0
ARC
8
DEFAULT_255_1_234
10
14.8375373
20
0.0796881
40
0.3634757
50
143.0753173
51
163.1916937
0
ARC
8
DEFAULT_255_1_234
10
15.0327101
20
0.0180967
40
0.5681262
50
162.9373603
51
174.6208611
0
ARC
8
DEFAULT_255_1_234
10
15.2953143
20
-0.010699
40
0.8322832
50
174.3419979
51
180.1430411
0
ARC
8
DEFAULT_255_1_234
10
15.2022299
20
-0.1301302
40
0.7392076
50
179.6817502
51
189.150529
0
ARC
8
DEFAULT_255_1_234
10
14.9521548
20
-0.171781
40
0.4856932
50
188.9910863
51
203.5773039
0
ARC
8
DEFAULT_255_1_234
10
14.844188
20
-0.2165789
40
0.3688271
50
203.9077269
51
215.1312379
0
ARC
8
DEFAULT_255_1_234
10
14.7518974
20
-0.2881059
40
0.2522457
50
213.9071664
51
263.8849284
0
ARC
8
DEFAULT_255_1_234
10
14.7644303
20
-0.2096482
40
0.3316174
50
263.1758525
51
270.1031083
0
ARC
8
DEFAULT_255_1_234
10
14.7676395
20
-0.0849635
40
0.4563091
50
269.6719807
51
279.0609165
0
ARC
8
DEFAULT_255_1_234
10
14.7943163
20
-0.2462093
40
0.2928759
50
278.8750225
51
293.6346586
0
ARC
8
DEFAULT_255_1_234
10
14.8263371
20
-0.32141
40
0.2111472
50
293.8553404
51
310.0518804
0
ARC
8
DEFAULT_255_1_234
10
14.8268225
20
-0.3276484
40
0.2060917
50
311.0646779
51
332.0108348
0
ARC
8
DEFAULT_255_1_234
10
14.7075952
20
-0.2619022
40
0.3422352
50
331.6588543
51
343.2878891
0
ARC
8
DEFAULT_255_1_234
10
14.5013467
20
-0.1985202
40
0.5580003
50
343.1446044
51
351.010618
0
ARC
8
DEFAULT_255_1_234
10
14.3472113
20
-0.1704129
40
0.7146438
50
350.7157277
51
351.1602153
0
LINE
8
DEFAULT_255_1_234
10
15.7424896
20
-0.6513
11
15.4188106
21
-0.6513
0
LINE
8
DEFAULT_255_1_234
10
15.4188106
20
-0.6513
11
15.4188106
21
0.5181211
0
LINE
8
DEFAULT_255_1_234
10
15.4188106
20
0.5181211
11
15.748915
21
0.5181211
0
LINE
8
DEFAULT_255_1_234
10
16.2645526
20
-0.0272339
11
16.2645526
21
-0.1019291
0
LINE
8
DEFAULT_255_1_234
10
15.7529309
20
0.3912196
11
15.57302
21
0.3912196
0
LINE
8
DEFAULT_255_1_234
10
15.57302
20
0.3912196
11
15.57302
21
-0.5252017
0
LINE
8
DEFAULT_255_1_234
10
15.57302
20
-0.5252017
11
15.7352611
21
-0.5252017
0
LINE
8
DEFAULT_255_1_234
10
16.1119496
20
-0.0987164
11
16.1119496
21
-0.0304466
0
ARC
8
DEFAULT_255_1_234
10
15.7528093
20
-0.0684106
40
0.5865446
50
75.4101064
51
90.3804066
0
ARC
8
DEFAULT_255_1_234
10
15.7757607
20
0.0272492
40
0.4881916
50
60.145586
51
75.1888407
0
ARC
8
DEFAULT_255_1_234
10
15.7916382
20
0.0549199
40
0.4562893
50
26.5253612
51
60.1450928
0
ARC
8
DEFAULT_255_1_234
10
15.6796131
20
-0.0044842
40
0.5830602
50
7.4030428
51
26.8320788
0
ARC
8
DEFAULT_255_1_234
10
15.5201888
20
-0.0293196
40
0.7443669
50
0.1605367
51
7.7176192
0
ARC
8
DEFAULT_255_1_234
10
15.5365792
20
-0.1057566
40
0.7279835
50
348.7289388
51
0.3012466
0
ARC
8
DEFAULT_255_1_234
10
15.7022223
20
-0.1386614
40
0.559104
50
333.0706509
51
348.7181832
0
ARC
8
DEFAULT_255_1_234
10
15.798898
20
-0.1911681
40
0.4491417
50
299.2531685
51
333.4571258
0
ARC
8
DEFAULT_255_1_234
10
15.762812
20
-0.1226172
40
0.5265881
50
278.107187
51
299.0339503
0
ARC
8
DEFAULT_255_1_234
10
15.7372199
20
0.0281216
40
0.679442
50
270.4443897
51
278.4511052
0
ARC
8
DEFAULT_255_1_234
10
15.7393029
20
-0.0647787
40
0.4604407
50
269.4970433
51
284.0205042
0
ARC
8
DEFAULT_255_1_234
10
15.774833
20
-0.2013022
40
0.3193797
50
283.7700273
51
318.1555492
0
ARC
8
DEFAULT_255_1_234
10
15.7411088
20
-0.1760633
40
0.3613588
50
318.7415601
51
343.6873628
0
ARC
8
DEFAULT_255_1_234
10
15.5607112
20
-0.1197168
40
0.5503313
50
343.3325091
51
355.8548958
0
ARC
8
DEFAULT_255_1_234
10
15.3508796
20
-0.0997681
40
0.7610708
50
355.4988528
51
0.0791727
0
ARC
8
DEFAULT_255_1_234
10
15.4291419
20
-0.026222
40
0.6828208
50
359.6455037
51
9.8607896
0
ARC
8
DEFAULT_255_1_234
10
15.6652116
20
0.0164099
40
0.4429406
50
9.6571907
51
26.1932807
0
ARC
8
DEFAULT_255_1_234
10
15.7580105
20
0.0595118
40
0.3406537
50
26.5777228
51
40.1532208
0
ARC
8
DEFAULT_255_1_234
10
15.7835831
20
0.0794619
40
0.308246
50
40.3840491
51
80.1431104
0
ARC
8
DEFAULT_255_1_234
10
15.7508949
20
-0.0654667
40
0.4566909
50
79.2152159
51
89.7445637
0
LINE
8
DEFAULT_255_1_234
10
16.8211521
20
-0.6513
11
16.497473
21
-0.6513
0
LINE
8
DEFAULT_255_1_234
10
16.497473
20
-0.6513
11
16.497473
21
0.5181211
0
LINE
8
DEFAULT_255_1_234
10
16.497473
20
0.5181211
11
16.8275775
21
0.5181211
0
LINE
8
DEFAULT_255_1_234
10
17.3432151
20
-0.0272339
11
17.3432151
21
-0.1019291
0
LINE
8
DEFAULT_255_1_234
10
16.8315934
20
0.3912196
11
16.6516824
21
0.3912196
0
LINE
8
DEFAULT_255_1_234
10
16.6516824
20
0.3912196
11
16.6516824
21
-0.5252017
0
LINE
8
DEFAULT_255_1_234
10
16.6516824
20
-0.5252017
11
16.8139235
21
-0.5252017
0
LINE
8
DEFAULT_255_1_234
10
17.1906121
20
-0.0987164
11
17.1906121
21
-0.0304466
0
ARC
8
DEFAULT_255_1_234
10
16.8314717
20
-0.0684106
40
0.5865446
50
75.4101064
51
90.3804066
0
ARC
8
DEFAULT_255_1_234
10
16.8544231
20
0.0272492
40
0.4881916
50
60.145586
51
75.1888407
0
ARC
8
DEFAULT_255_1_234
10
16.8703006
20
0.0549199
40
0.4562893
50
26.5253612
51
60.1450928
0
ARC
8
DEFAULT_255_1_234
10
16.7582756
20
-0.0044842
40
0.5830602
50
7.4030428
51
26.8320788
0
ARC
8
DEFAULT_255_1_234
10
16.5988512
20
-0.0293196
40
0.7443669
50
0.1605367
51
7.7176192
0
ARC
8
DEFAULT_255_1_234
10
16.6152417
20
-0.1057566
40
0.7279835
50
348.7289388
51
0.3012466
0
ARC
8
DEFAULT_255_1_234
10
16.7808847
20
-0.1386614
40
0.559104
50
333.0706509
51
348.7181832
0
ARC
8
DEFAULT_255_1_234
10
16.8775605
20
-0.1911681
40
0.4491417
50
299.2531685
51
333.4571258
0
ARC
8
DEFAULT_255_1_234
10
16.8414745
20
-0.1226172
40
0.5265881
50
278.107187
51
299.0339503
0
ARC
8
DEFAULT_255_1_234
10
16.8158824
20
0.0281216
40
0.679442
50
270.4443897
51
278.4511052
0
ARC
8
DEFAULT_255_1_234
10
16.8179653
20
-0.0647787
40
0.4604407
50
269.4970433
51
284.0205042
0
ARC
8
DEFAULT_255_1_234
10
16.8534954
20
-0.2013022
40
0.3193797
50
283.7700273
51
318.1555492
0
ARC
8
DEFAULT_255_1_234
10
16.8197713
20
-0.1760633
40
0.3613588
50
318.7415601
51
343.6873628
0
ARC
8
DEFAULT_255_1_234
10
16.6393736
20
-0.1197168
40
0.5503313
50
343.3325091
51
355.8548958
0
ARC
8
DEFAULT_255_1_234
10
16.429542
20
-0.0997681
40
0.7610708
50
355.4988528
51
0.0791727
0
ARC
8
DEFAULT_255_1_234
10
16.5078043
20
-0.026222
40
0.6828208
50
359.6455037
51
9.8607896
0
ARC
8
DEFAULT_255_1_234
10
16.7438741
20
0.0164099
40
0.4429406
50
9.6571907
51
26.1932807
0
ARC
8
DEFAULT_255_1_234
10
16.8366729
20
0.0595118
40
0.3406537
50
26.5777228
51
40.1532208
0
ARC
8
DEFAULT_255_1_234
10
16.8622456
20
0.0794619
40
0.308246
50
40.3840491
51
80.1431104
0
ARC
8
DEFAULT_255_1_234
10
16.8295573
20
-0.0654667
40
0.4566909
50
79.2152159
51
89.7445637
0
LINE
8
DEFAULT_255_1_234
10
18.303811
20
-0.5300208
11
18.303811
21
-0.6513
0
LINE
8
DEFAULT_255_1_234
10
18.303811
20
-0.6513
11
17.5375832
21
-0.6513
0
LINE
8
DEFAULT_255_1_234
10
17.5375832
20
-0.6513
11
17.5375832
21
-0.5444779
0
LINE
8
DEFAULT_255_1_234
10
17.5375832
20
-0.5444779
11
17.9423828
21
-0.0947005
0
LINE
8
DEFAULT_255_1_234
10
17.6636814
20
0.1735595
11
17.5150943
21
0.1735595
0
LINE
8
DEFAULT_255_1_234
10
18.0299287
20
-0.1902782
11
17.7166909
21
-0.5300208
0
LINE
8
DEFAULT_255_1_234
10
17.7166909
20
-0.5300208
11
18.303811
21
-0.5300208
0
ARC
8
DEFAULT_255_1_234
10
16.5933661
20
1.0982527
40
1.8008286
50
318.5132453
51
320.7828378
0
ARC
8
DEFAULT_255_1_234
10
17.1220635
20
0.6679426
40
1.1191493
50
320.7372736
51
323.9737074
0
ARC
8
DEFAULT_255_1_234
10
17.5140492
20
0.3839361
40
0.6350923
50
323.8961724
51
328.6421089
0
ARC
8
DEFAULT_255_1_234
10
17.7187087
20
0.2577031
40
0.3946393
50
328.8299013
51
331.789948
0
ARC
8
DEFAULT_255_1_234
10
17.8184266
20
0.2062509
40
0.2824501
50
331.4255242
51
352.9364833
0
ARC
8
DEFAULT_255_1_234
10
17.8320766
20
0.2031976
40
0.2685315
50
353.2248685
51
0.0169286
0
ARC
8
DEFAULT_255_1_234
10
17.8530643
20
0.205495
40
0.2475536
50
359.4866256
51
15.9339782
0
ARC
8
DEFAULT_255_1_234
10
17.9037629
20
0.2191286
40
0.1950618
50
16.1714718
51
43.5284424
0
ARC
8
DEFAULT_255_1_234
10
17.9114937
20
0.2268573
40
0.184134
50
43.4415429
51
83.1661404
0
ARC
8
DEFAULT_255_1_234
10
17.8980855
20
0.1531771
40
0.258926
50
82.160215
51
90.1505798
0
ARC
8
DEFAULT_255_1_234
10
17.8949283
20
0.0994865
40
0.3126255
50
89.5460705
51
102.5418777
0
ARC
8
DEFAULT_255_1_234
10
17.8706369
20
0.2025665
40
0.2067346
50
102.1739365
51
129.2061916
0
ARC
8
DEFAULT_255_1_234
10
17.862744
20
0.2150094
40
0.1921118
50
129.7279328
51
135.7542026
0
ARC
8
DEFAULT_255_1_234
10
17.8748968
20
0.2053045
40
0.2075944
50
136.175737
51
166.3674722
0
ARC
8
DEFAULT_255_1_234
10
17.9755887
20
0.1783182
40
0.3118201
50
165.9092917
51
178.8683903
0
ARC
8
DEFAULT_255_1_234
10
18.0620749
20
0.1736179
40
0.3983935
50
178.438168
51
180.0083905
0
ARC
8
DEFAULT_255_1_234
10
17.9219351
20
0.1775231
40
0.4068601
50
163.2878735
51
180.5581814
0
ARC
8
DEFAULT_255_1_234
10
17.8417612
20
0.199584
40
0.3237344
50
133.454115
51
162.9470031
0
ARC
8
DEFAULT_255_1_234
10
17.8596154
20
0.1806
40
0.349795
50
100.7869394
51
133.4384016
0
ARC
8
DEFAULT_255_1_234
10
17.8943925
20
0.0257319
40
0.5084616
50
89.6605301
51
101.3704185
0
ARC
8
DEFAULT_255_1_234
10
17.9010264
20
0.0318496
40
0.502348
50
78.2171172
51
90.4130393
0
ARC
8
DEFAULT_255_1_234
10
17.9365342
20
0.1942637
40
0.3361092
50
55.9268222
51
78.4888551
0
ARC
8
DEFAULT_255_1_234
10
17.9561782
20
0.2281324
40
0.2970617
50
47.9292255
51
55.4054003
0
ARC
8
DEFAULT_255_1_234
10
17.9663343
20
0.2384502
40
0.2825983
50
4.3347696
51
48.0560701
0
ARC
8
DEFAULT_255_1_234
10
17.8567737
20
0.2214601
40
0.393225
50
359.925209
51
5.5967654
0
ARC
8
DEFAULT_255_1_234
10
17.8996628
20
0.2270816
40
0.3503892
50
337.8914096
51
358.9967724
0
ARC
8
DEFAULT_255_1_234
10
17.628304
20
0.3317706
40
0.6412172
50
326.9135351
51
338.3505194
0
ARC
8
DEFAULT_255_1_234
10
17.2297344
20
0.5872284
40
1.1146189
50
319.6472867
51
327.095818
0
ARC
8
DEFAULT_255_1_234
10
16.8464347
20
0.9034
40
1.6114559
50
317.2586784
51
319.9046139
0
LINE
8
DEFAULT_255_1_234
10
8.5461344
20
78.5200091
11
8.2706458
21
78.5200091
0
LINE
8
DEFAULT_255_1_234
10
8.2706458
20
78.5200091
11
8.2706458
21
78.0622
0
LINE
8
DEFAULT_255_1_234
10
8.2706458
20
78.0622
11
8.1164364
21
78.0622
0
LINE
8
DEFAULT_255_1_234
10
8.1164364
20
78.0622
11
8.1164364
21
79.2316211
0
LINE
8
DEFAULT_255_1_234
10
8.1164364
20
79.2316211
11
8.5477407
21
79.2316211
0
LINE
8
DEFAULT_255_1_234
10
8.2706458
20
79.1047196
11
8.2706458
21
78.6461074
0
LINE
8
DEFAULT_255_1_234
10
8.2706458
20
78.6461074
11
8.5477407
21
78.6461074
0
LINE
8
DEFAULT_255_1_234
10
8.5565756
20
79.1047196
11
8.2706458
21
79.1047196
0
ARC
8
DEFAULT_255_1_234
10
8.5519534
20
78.6257195
40
0.6059162
50
78.8378113
51
90.3983573
0
ARC
8
DEFAULT_255_1_234
10
8.5935548
20
78.8277879
40
0.3996205
50
58.9632738
51
79.0810598
0
ARC
8
DEFAULT_255_1_234
10
8.623709
20
78.8837721
40
0.3361177
50
48.0197965
51
58.447194
0
ARC
8
DEFAULT_255_1_234
10
8.6325951
20
78.8923225
40
0.3238191
50
3.3375044
51
48.1766626
0
ARC
8
DEFAULT_255_1_234
10
8.509579
20
78.8746171
40
0.4477806
50
359.9477528
51
4.6829065
0
ARC
8
DEFAULT_255_1_234
10
8.5219107
20
78.8703628
40
0.4354656
50
346.1877825
51
0.5060252
0
ARC
8
DEFAULT_255_1_234
10
8.6577975
20
78.8350731
40
0.295089
50
310.8831995
51
346.5426355
0
ARC
8
DEFAULT_255_1_234
10
8.6269395
20
78.8767695
40
0.3468331
50
286.6925341
51
310.2288297
0
ARC
8
DEFAULT_255_1_234
10
8.5700226
20
79.0557882
40
0.5346654
50
274.6850312
51
287.0245141
0
ARC
8
DEFAULT_255_1_234
10
8.5474949
20
79.2766932
40
0.7566852
50
269.8969846
51
275.018904
0
ARC
8
DEFAULT_255_1_234
10
8.550254
20
79.0687707
40
0.4226708
50
269.6593078
51
279.4153575
0
ARC
8
DEFAULT_255_1_234
10
8.5759815
20
78.9197133
40
0.2714146
50
279.2049762
51
294.9900808
0
ARC
8
DEFAULT_255_1_234
10
8.6050141
20
78.8549508
40
0.2004525
50
295.2888114
51
311.2911209
0
ARC
8
DEFAULT_255_1_234
10
8.6121035
20
78.844422
40
0.1878703
50
311.7854996
51
347.2861051
0
ARC
8
DEFAULT_255_1_234
10
8.5137194
20
78.8697092
40
0.2894234
50
346.6893224
51
0.1059443
0
ARC
8
DEFAULT_255_1_234
10
8.4382089
20
78.8725685
40
0.3649409
50
359.6350983
51
0.0053152
0
ARC
8
DEFAULT_255_1_234
10
8.5352417
20
78.8750937
40
0.2679199
50
359.4672059
51
15.5933957
0
ARC
8
DEFAULT_255_1_234
10
8.5977306
20
78.8919779
40
0.2031932
50
15.7442113
51
46.6203375
0
ARC
8
DEFAULT_255_1_234
10
8.5829527
20
78.8749484
40
0.2257226
50
46.8628658
51
75.6676503
0
ARC
8
DEFAULT_255_1_234
10
8.5535347
20
78.7690718
40
0.3355939
50
75.276167
51
88.2915297
0
ARC
8
DEFAULT_255_1_234
10
8.5477054
20
78.6812524
40
0.4235602
50
87.8575022
51
88.8000139
0
LINE
8
DEFAULT_255_1_234
10
9.5509048
20
78.9360531
11
9.5509048
21
78.7979072
0
LINE
8
DEFAULT_255_1_234
10
9.2794321
20
78.6790375
11
9.2794321
21
78.0622
0
LINE
8
DEFAULT_255_1_234
10
9.2794321
20
78.0622
11
9.1308449
21
78.0622
0
LINE
8
DEFAULT_255_1_234
10
9.1308449
20
78.0622
11
9.1308449
21
78.9312341
0
LINE
8
DEFAULT_255_1_234
10
9.1308449
20
78.9312341
11
9.2754162
21
78.9312341
0
LINE
8
DEFAULT_255_1_234
10
9.2754162
20
78.9312341
11
9.2778257
21
78.8308374
0
ARC
8
DEFAULT_255_1_234
10
9.4842454
20
78.3919342
40
0.4114092
50
80.6754243
51
86.8932892
0
ARC
8
DEFAULT_255_1_234
10
9.4781988
20
78.29517
40
0.5083596
50
86.8038578
51
90.0431435
0
ARC
8
DEFAULT_255_1_234
10
9.4744969
20
78.5408866
40
0.2626638
50
89.2759698
51
106.6213787
0
ARC
8
DEFAULT_255_1_234
10
9.4540533
20
78.615183
40
0.1856317
50
107.1346045
51
157.6458115
0
ARC
8
DEFAULT_255_1_234
10
9.5232134
20
78.5768311
40
0.2643398
50
155.6586782
51
157.2539184
0
ARC
8
DEFAULT_255_1_234
10
9.5027337
20
78.6937157
40
0.2634121
50
127.8165941
51
148.6302098
0
ARC
8
DEFAULT_255_1_234
10
9.4773806
20
78.7197218
40
0.2273596
50
91.3329982
51
126.7875809
0
ARC
8
DEFAULT_255_1_234
10
9.4849746
20
78.6482195
40
0.299078
50
89.986594
51
92.4688449
0
ARC
8
DEFAULT_255_1_234
10
9.4858141
20
78.6757078
40
0.2715908
50
85.3589899
51
90.1623399
0
ARC
8
DEFAULT_255_1_234
10
9.4942657
20
78.7761164
40
0.1708278
50
78.401942
51
85.4594656
0
ARC
8
DEFAULT_255_1_234
10
9.5087541
20
78.8452236
40
0.1002194
50
67.7858312
51
78.5728455
0
ARC
8
DEFAULT_255_1_234
10
9.5195393
20
78.8731887
40
0.0702548
50
63.4835954
51
67.3062642
0
LINE
8
DEFAULT_255_1_234
10
9.6320254
20
78.4943075
11
9.6320254
21
78.5047488
0
LINE
8
DEFAULT_255_1_234
10
10.4231516
20
78.4975202
11
10.4231516
21
78.487079
0
ARC
8
DEFAULT_255_1_234
10
10.1906433
20
78.5079837
40
0.5586273
50
166.3003825
51
180.3317926
0
ARC
8
DEFAULT_255_1_234
10
10.1043593
20
78.5272964
40
0.4702272
50
153.8608245
51
166.0967125
0
ARC
8
DEFAULT_255_1_234
10
10.0377995
20
78.562975
40
0.3947658
50
135.1316692
51
154.253643
0
ARC
8
DEFAULT_255_1_234
10
10.0099555
20
78.5875666
40
0.3576898
50
121.7044358
51
134.776924
0
ARC
8
DEFAULT_255_1_234
10
10.0166548
20
78.5746867
40
0.3721701
50
93.4002104
51
121.5398234
0
ARC
8
DEFAULT_255_1_234
10
10.0261504
20
78.4921228
40
0.4551749
50
89.9706281
51
93.9769836
0
ARC
8
DEFAULT_255_1_234
10
10.0308596
20
78.5311362
40
0.4161854
50
71.3323442
51
90.6161982
0
ARC
8
DEFAULT_255_1_234
10
10.0471293
20
78.5913578
40
0.3539455
50
41.1815071
51
70.707185
0
ARC
8
DEFAULT_255_1_234
10
9.9993693
20
78.5479919
40
0.4184468
50
12.1971897
51
41.3445735
0
ARC
8
DEFAULT_255_1_234
10
9.80677
20
78.5021425
40
0.616399
50
359.5703439
51
12.5804035
0
ARC
8
DEFAULT_255_1_234
10
9.8540775
20
78.4839116
40
0.5690829
50
347.0197749
51
0.3188898
0
ARC
8
DEFAULT_255_1_234
10
9.9499277
20
78.4632808
40
0.4710501
50
334.3504053
51
346.846361
0
ARC
8
DEFAULT_255_1_234
10
10.0344701
20
78.4193805
40
0.3758475
50
310.422922
51
334.8045033
0
ARC
8
DEFAULT_255_1_234
10
10.0426526
20
78.4129782
40
0.3656736
50
301.8486886
51
310.097356
0
ARC
8
DEFAULT_255_1_234
10
10.0394252
20
78.4205638
40
0.3738224
50
274.307774
51
301.655379
0
ARC
8
DEFAULT_255_1_234
10
10.028356
20
78.5083361
40
0.4621997
50
269.9546461
51
274.8588071
0
ARC
8
DEFAULT_255_1_234
10
10.0234493
20
78.4582249
40
0.4121134
50
250.888809
51
270.631312
0
ARC
8
DEFAULT_255_1_234
10
10.0084413
20
78.4023277
40
0.3544073
50
221.1701932
51
250.2227191
0
ARC
8
DEFAULT_255_1_234
10
10.0568568
20
78.4464439
40
0.4198961
50
191.6263638
51
221.3526367
0
ARC
8
DEFAULT_255_1_234
10
10.2456563
20
78.4901329
40
0.6136451
50
179.610213
51
192.0693181
0
ARC
8
DEFAULT_255_1_234
10
10.2879791
20
78.4838633
40
0.5065736
50
179.636298
51
190.6162791
0
ARC
8
DEFAULT_255_1_234
10
10.1237459
20
78.451859
40
0.3392576
50
190.4136628
51
208.7170242
0
ARC
8
DEFAULT_255_1_234
10
10.0727084
20
78.4265366
40
0.2823401
50
209.1867941
51
217.4225593
0
ARC
8
DEFAULT_255_1_234
10
10.0197918
20
78.3799558
40
0.2120636
50
216.1156896
51
265.2575835
0
ARC
8
DEFAULT_255_1_234
10
10.0277066
20
78.4373109
40
0.2698952
50
264.5897417
51
270.0601757
0
ARC
8
DEFAULT_255_1_234
10
10.0310127
20
78.3993185
40
0.2319225
50
269.2532621
51
291.8792492
0
ARC
8
DEFAULT_255_1_234
10
10.0339348
20
78.3815238
40
0.2143562
50
292.9269754
51
323.1776747
0
ARC
8
DEFAULT_255_1_234
10
9.994617
20
78.4163452
40
0.2667346
50
322.2518483
51
323.0930371
0
ARC
8
DEFAULT_255_1_234
10
9.9651829
20
78.434499
40
0.3011886
50
323.6941278
51
343.8493282
0
ARC
8
DEFAULT_255_1_234
10
9.8073372
20
78.482535
40
0.4661719
50
343.5748474
51
355.0079071
0
ARC
8
DEFAULT_255_1_234
10
9.6065618
20
78.5033424
40
0.6680042
50
354.7285225
51
0.1206288
0
ARC
8
DEFAULT_255_1_234
10
9.7834084
20
78.5079751
40
0.4911667
50
359.623636
51
11.2015604
0
ARC
8
DEFAULT_255_1_234
10
9.9368311
20
78.539564
40
0.3345323
50
10.9989411
51
30.8319188
0
ARC
8
DEFAULT_255_1_234
10
9.9764184
20
78.5604297
40
0.2898553
50
31.3008956
51
37.3959224
0
ARC
8
DEFAULT_255_1_234
10
10.0260762
20
78.6023653
40
0.2249582
50
36.5915954
51
62.2442953
0
ARC
8
DEFAULT_255_1_234
10
10.0307216
20
78.6020602
40
0.2231053
50
63.3365542
51
89.7195421
0
ARC
8
DEFAULT_255_1_234
10
10.0264069
20
78.5451884
40
0.2800267
50
88.8936788
51
90.0047485
0
ARC
8
DEFAULT_255_1_234
10
10.0232429
20
78.6024787
40
0.2227586
50
89.1921125
51
114.7099455
0
ARC
8
DEFAULT_255_1_234
10
10.0261193
20
78.6062628
40
0.2205633
50
115.7997161
51
142.2900762
0
ARC
8
DEFAULT_255_1_234
10
10.0699925
20
78.5672658
40
0.2791541
50
141.4658779
51
142.3795754
0
ARC
8
DEFAULT_255_1_234
10
10.080883
20
78.5629557
40
0.2904292
50
143.0175714
51
163.234115
0
ARC
8
DEFAULT_255_1_234
10
10.2387002
20
78.5130054
40
0.4559523
50
162.9447461
51
174.3732162
0
ARC
8
DEFAULT_255_1_234
10
10.4532816
20
78.4889143
40
0.6718682
50
174.1228657
51
180.1565175
0
LINE
8
DEFAULT_255_1_234
10
10.5733451
20
78.4927012
11
10.5733451
21
78.5039456
0
LINE
8
DEFAULT_255_1_234
10
11.1580557
20
78.842885
11
11.1580557
21
79.295875
0
LINE
8
DEFAULT_255_1_234
10
11.1580557
20
79.295875
11
11.3066428
21
79.295875
0
LINE
8
DEFAULT_255_1_234
10
11.3066428
20
79.295875
11
11.3066428
21
78.0622
0
LINE
8
DEFAULT_255_1_234
10
11.3066428
20
78.0622
11
11.1701033
21
78.0622
0
LINE
8
DEFAULT_255_1_234
10
11.1701033
20
78.0622
11
11.1628747
21
78.1553682
0
LINE
8
DEFAULT_255_1_234
10
11.1580557
20
78.2991363
11
11.1580557
21
78.6983137
0
ARC
8
DEFAULT_255_1_234
10
11.2608605
20
78.5083457
40
0.6875294
50
169.1661407
51
180.3666851
0
ARC
8
DEFAULT_255_1_234
10
11.041225
20
78.5521387
40
0.4635805
50
150.2838427
51
169.3798909
0
ARC
8
DEFAULT_255_1_234
10
10.9778867
20
78.5845238
40
0.392532
50
142.1062393
51
149.806405
0
ARC
8
DEFAULT_255_1_234
10
10.9206599
20
78.6343749
40
0.3167807
50
118.4283255
51
142.8643566
0
ARC
8
DEFAULT_255_1_234
10
10.9107944
20
78.6406137
40
0.3066506
50
89.9199246
51
117.3621547
0
ARC
8
DEFAULT_255_1_234
10
10.9162923
20
78.5648731
40
0.3824245
50
89.9987914
51
90.7595231
0
ARC
8
DEFAULT_255_1_234
10
10.9200314
20
78.5883667
40
0.3589502
50
72.8978905
51
90.5955712
0
ARC
8
DEFAULT_255_1_234
10
10.9398262
20
78.6598123
40
0.2848505
50
39.9932841
51
72.477307
0
ARC
8
DEFAULT_255_1_234
10
10.936901
20
78.3385579
40
0.2908996
50
275.084999
51
320.969419
0
ARC
8
DEFAULT_255_1_234
10
10.915473
20
78.4652893
40
0.4191533
50
269.8935077
51
276.4672393
0
ARC
8
DEFAULT_255_1_234
10
10.9086745
20
78.3385703
40
0.2924958
50
222.0839186
51
271.1792213
0
ARC
8
DEFAULT_255_1_234
10
10.9697255
20
78.4010816
40
0.3797413
50
217.5160585
51
222.9101888
0
ARC
8
DEFAULT_255_1_234
10
11.0191094
20
78.4350781
40
0.4396261
50
193.0962774
51
217.1109254
0
ARC
8
DEFAULT_255_1_234
10
11.2148193
20
78.4839128
40
0.6413192
50
181.1070734
51
193.3838631
0
ARC
8
DEFAULT_255_1_234
10
11.3814252
20
78.4925869
40
0.8080801
50
179.9919009
51
181.4937549
0
ARC
8
DEFAULT_255_1_234
10
11.2997854
20
78.483972
40
0.5778615
50
179.6919417
51
188.6549204
0
ARC
8
DEFAULT_255_1_234
10
11.097827
20
78.4521672
40
0.3734182
50
188.4936033
51
202.2187731
0
ARC
8
DEFAULT_255_1_234
10
11.0010978
20
78.4138391
40
0.2693801
50
202.4517848
51
215.9307642
0
ARC
8
DEFAULT_255_1_234
10
10.9418424
20
78.3666191
40
0.1937215
50
214.9062306
51
264.2077075
0
ARC
8
DEFAULT_255_1_234
10
10.9512252
20
78.426415
40
0.2541804
50
263.4637896
51
270.0934907
0
ARC
8
DEFAULT_255_1_234
10
10.9552169
20
78.4172045
40
0.2449958
50
269.1634649
51
291.0931088
0
ARC
8
DEFAULT_255_1_234
10
10.9633874
20
78.3839994
40
0.2111194
50
292.2674853
51
328.1937478
0
ARC
8
DEFAULT_255_1_234
10
10.8942292
20
78.4339026
40
0.2962539
50
327.0410354
51
332.9414029
0
ARC
8
DEFAULT_255_1_234
10
10.935549
20
78.5815886
40
0.2512647
50
27.6811062
51
48.7893196
0
ARC
8
DEFAULT_255_1_234
10
10.9638771
20
78.6076916
40
0.2130039
50
49.8959006
51
87.010286
0
ARC
8
DEFAULT_255_1_234
10
10.9534629
20
78.5289504
40
0.292249
50
85.7764096
51
90.0424572
0
ARC
8
DEFAULT_255_1_234
10
10.9505345
20
78.5949006
40
0.2263149
50
89.313423
51
109.4265906
0
ARC
8
DEFAULT_255_1_234
10
10.9431056
20
78.6253962
40
0.1951098
50
110.3478057
51
145.1577858
0
ARC
8
DEFAULT_255_1_234
10
11.0084849
20
78.577775
40
0.2759807
50
144.7982748
51
162.8715388
0
ARC
8
DEFAULT_255_1_234
10
11.1779499
20
78.5232842
40
0.453983
50
162.5984223
51
173.3418672
0
ARC
8
DEFAULT_255_1_234
10
11.4447277
20
78.4901851
40
0.7228019
50
173.1877442
51
180.2462216
0
LINE
8
DEFAULT_255_1_234
10
12.0768865
20
78.0622
11
12.0736738
21
78.1481396
0
LINE
8
DEFAULT_255_1_234
10
11.533941
20
78.3657997
11
11.533941
21
78.9312341
0
LINE
8
DEFAULT_255_1_234
10
11.533941
20
78.9312341
11
11.6825282
21
78.9312341
0
LINE
8
DEFAULT_255_1_234
10
11.6825282
20
78.9312341
11
11.6825282
21
78.3698156
0
LINE
8
DEFAULT_255_1_234
10
12.069658
20
78.2991363
11
12.069658
21
78.9312341
0
LINE
8
DEFAULT_255_1_234
10
12.069658
20
78.9312341
11
12.2182451
21
78.9312341
0
LINE
8
DEFAULT_255_1_234
10
12.2182451
20
78.9312341
11
12.2182451
21
78.0622
0
LINE
8
DEFAULT_255_1_234
10
12.2182451
20
78.0622
11
12.0768865
21
78.0622
0
ARC
8
DEFAULT_255_1_234
10
11.8621203
20
78.329906
40
0.2789157
50
282.5436552
51
319.3308843
0
ARC
8
DEFAULT_255_1_234
10
11.8234036
20
78.4805137
40
0.4343667
50
269.8917857
51
283.214153
0
ARC
8
DEFAULT_255_1_234
10
11.8190721
20
78.5965183
40
0.5503818
50
269.9995424
51
270.3655186
0
ARC
8
DEFAULT_255_1_234
10
11.8160197
20
78.427453
40
0.3813286
50
257.7355913
51
270.4579866
0
ARC
8
DEFAULT_255_1_234
10
11.7862896
20
78.2975503
40
0.2480795
50
233.3384413
51
258.0721298
0
ARC
8
DEFAULT_255_1_234
10
11.7728503
20
78.2756041
40
0.2224626
50
221.9626381
51
232.7401232
0
ARC
8
DEFAULT_255_1_234
10
11.8008552
20
78.297133
40
0.2576959
50
197.9450831
51
221.3585622
0
ARC
8
DEFAULT_255_1_234
10
11.9403747
20
78.3447997
40
0.4051213
50
185.8088195
51
198.2790125
0
ARC
8
DEFAULT_255_1_234
10
12.129555
20
78.3672963
40
0.5956158
50
180.1439627
51
186.1199408
0
ARC
8
DEFAULT_255_1_234
10
12.0394418
20
78.366256
40
0.3569313
50
179.4285986
51
191.0735588
0
ARC
8
DEFAULT_255_1_234
10
11.8710846
20
78.3315017
40
0.1850421
50
190.5251661
51
212.6990766
0
ARC
8
DEFAULT_255_1_234
10
11.8246639
20
78.305883
40
0.1321852
50
214.2246197
51
264.4398755
0
ARC
8
DEFAULT_255_1_234
10
11.8423975
20
78.3968426
40
0.224609
50
262.1850223
51
270.1952455
0
ARC
8
DEFAULT_255_1_234
10
11.8465865
20
78.5244524
40
0.3522342
50
269.4431043
51
282.9585023
0
ARC
8
DEFAULT_255_1_234
10
11.8802555
20
78.3874561
40
0.2111871
50
282.391263
51
311.9722193
0
ARC
8
DEFAULT_255_1_234
10
11.8810152
20
78.3801809
40
0.2053153
50
313.1724425
51
336.7506893
0
LINE
8
DEFAULT_255_1_234
10
12.9973237
20
78.3360823
11
13.1378792
21
78.3360823
0
LINE
8
DEFAULT_255_1_234
10
12.4053846
20
78.4886853
11
12.4053846
21
78.5135837
0
LINE
8
DEFAULT_255_1_234
10
13.1378792
20
78.6324534
11
12.9973237
21
78.6324534
0
LINE
8
DEFAULT_255_1_234
10
12.5539718
20
78.5079615
11
12.5539718
21
78.4798504
0
ARC
8
DEFAULT_255_1_234
10
12.7961273
20
78.3814121
40
0.2140268
50
269.0327816
51
309.2224514
0
ARC
8
DEFAULT_255_1_234
10
12.8171027
20
78.3599108
40
0.1841255
50
308.396669
51
329.6984113
0
ARC
8
DEFAULT_255_1_234
10
12.8308882
20
78.349482
40
0.166974
50
330.401383
51
355.3970571
0
ARC
8
DEFAULT_255_1_234
10
12.8765748
20
78.3512082
40
0.2617417
50
329.2357853
51
356.6870514
0
ARC
8
DEFAULT_255_1_234
10
12.821577
20
78.3802971
40
0.3238945
50
324.8706984
51
329.7905871
0
ARC
8
DEFAULT_255_1_234
10
12.8137489
20
78.3870106
40
0.3341614
50
298.8769168
51
324.7016144
0
ARC
8
DEFAULT_255_1_234
10
12.780568
20
78.4398917
40
0.3965068
50
296.9023738
51
299.385174
0
ARC
8
DEFAULT_255_1_234
10
12.7935294
20
78.4111422
40
0.365007
50
269.8406811
51
297.1299281
0
ARC
8
DEFAULT_255_1_234
10
12.788195
20
78.4749407
40
0.4288259
50
253.315473
51
270.5771285
0
ARC
8
DEFAULT_255_1_234
10
12.7634985
20
78.3855739
40
0.3361372
50
221.1002312
51
252.9744583
0
ARC
8
DEFAULT_255_1_234
10
12.8094983
20
78.425059
40
0.3967576
50
194.5394537
51
221.0302238
0
ARC
8
DEFAULT_255_1_234
10
12.9943804
20
78.4765952
40
0.5886672
50
182.0499201
51
194.8773585
0
ARC
8
DEFAULT_255_1_234
10
13.1714002
20
78.488406
40
0.7660157
50
179.9791086
51
182.4591564
0
ARC
8
DEFAULT_255_1_234
10
12.9976046
20
78.5165498
40
0.5922274
50
168.614861
51
180.2869651
0
ARC
8
DEFAULT_255_1_234
10
12.8774191
20
78.5401269
40
0.4697532
50
154.9162259
51
168.5402336
0
ARC
8
DEFAULT_255_1_234
10
12.7852699
20
78.585663
40
0.3669966
50
133.5746694
51
155.2558665
0
ARC
8
DEFAULT_255_1_234
10
12.7689857
20
78.5995467
40
0.3457206
50
122.0165146
51
133.2055214
0
ARC
8
DEFAULT_255_1_234
10
12.7725696
20
78.5907361
40
0.355095
50
97.8731644
51
121.7531281
0
ARC
8
DEFAULT_255_1_234
10
12.7904779
20
78.4850159
40
0.4622833
50
89.8471353
51
98.2769494
0
ARC
8
DEFAULT_255_1_234
10
12.7953531
20
78.5460091
40
0.401305
50
73.3760412
51
90.5199766
0
ARC
8
DEFAULT_255_1_234
10
12.8149895
20
78.6182516
40
0.3264695
50
47.7085968
51
73.0509704
0
ARC
8
DEFAULT_255_1_234
10
12.8279765
20
78.6295128
40
0.309407
50
3.7443473
51
48.0843753
0
ARC
8
DEFAULT_255_1_234
10
12.7292714
20
78.6137614
40
0.4090351
50
2.6192045
51
5.0432185
0
ARC
8
DEFAULT_255_1_234
10
12.7749568
20
78.6177592
40
0.2228519
50
3.780656
51
23.9356886
0
ARC
8
DEFAULT_255_1_234
10
12.7978184
20
78.6258155
40
0.198697
50
24.4869552
51
46.9440088
0
ARC
8
DEFAULT_255_1_234
10
12.7979034
20
78.6281484
40
0.1969404
50
46.498716
51
89.3298174
0
ARC
8
DEFAULT_255_1_234
10
12.7917388
20
78.5686723
40
0.2565428
50
88.1083975
51
90.0061569
0
ARC
8
DEFAULT_255_1_234
10
12.7889818
20
78.5740759
40
0.251154
50
89.3773333
51
107.2071161
0
ARC
8
DEFAULT_255_1_234
10
12.7746941
20
78.625819
40
0.1975072
50
107.6883219
51
143.3583002
0
ARC
8
DEFAULT_255_1_234
10
12.8314325
20
78.5831873
40
0.2684762
50
143.2846717
51
162.935323
0
ARC
8
DEFAULT_255_1_234
10
12.9819926
20
78.5348652
40
0.4265927
50
162.6650068
51
174.0805419
0
ARC
8
DEFAULT_255_1_234
10
13.1962766
20
78.5099636
40
0.6423078
50
173.8423985
51
180.1785963
0
ARC
8
DEFAULT_255_1_234
10
13.1414866
20
78.4768039
40
0.5875227
50
179.7028978
51
188.2277152
0
ARC
8
DEFAULT_255_1_234
10
12.9313167
20
78.4453247
40
0.3750127
50
188.0629871
51
201.1160002
0
ARC
8
DEFAULT_255_1_234
10
12.8215366
20
78.4034238
40
0.2575093
50
201.2187293
51
216.9761968
0
ARC
8
DEFAULT_255_1_234
10
12.7763929
20
78.3695993
40
0.2010998
50
217.0135981
51
265.2056839
0
ARC
8
DEFAULT_255_1_234
10
12.7919788
20
78.4617695
40
0.2943543
50
263.681807
51
270.104251
0
LINE
8
DEFAULT_255_1_234
10
13.3579488
20
79.1416656
11
13.5065359
21
79.1416656
0
LINE
8
DEFAULT_255_1_234
10
13.5065359
20
79.1416656
11
13.5065359
21
78.9312341
0
LINE
8
DEFAULT_255_1_234
10
13.5065359
20
78.9312341
11
13.6687771
21
78.9312341
0
LINE
8
DEFAULT_255_1_234
10
13.6687771
20
78.9312341
11
13.6687771
21
78.8163802
0
LINE
8
DEFAULT_255_1_234
10
13.6687771
20
78.8163802
11
13.5065359
21
78.8163802
0
LINE
8
DEFAULT_255_1_234
10
13.5065359
20
78.8163802
11
13.5065359
21
78.2774506
0
LINE
8
DEFAULT_255_1_234
10
13.6727929
20
78.1826761
11
13.6727929
21
78.0622
0
LINE
8
DEFAULT_255_1_234
10
13.3579488
20
78.2774506
11
13.3579488
21
78.8163802
0
LINE
8
DEFAULT_255_1_234
10
13.3579488
20
78.8163802
11
13.1997235
21
78.8163802
0
LINE
8
DEFAULT_255_1_234
10
13.1997235
20
78.8163802
11
13.1997235
21
78.9312341
0
LINE
8
DEFAULT_255_1_234
10
13.1997235
20
78.9312341
11
13.3579488
21
78.9312341
0
LINE
8
DEFAULT_255_1_234
10
13.3579488
20
78.9312341
11
13.3579488
21
79.1416656
0
ARC
8
DEFAULT_255_1_234
10
13.7072862
20
78.2764084
40
0.200753
50
179.7025659
51
187.917967
0
ARC
8
DEFAULT_255_1_234
10
13.6326888
20
78.2656724
40
0.1253883
50
187.7545981
51
200.2447476
0
ARC
8
DEFAULT_255_1_234
10
13.5906209
20
78.2499859
40
0.0804913
50
200.130383
51
219.174133
0
ARC
8
DEFAULT_255_1_234
10
13.5770386
20
78.2407515
40
0.0641445
50
220.4434483
51
249.6172
0
ARC
8
DEFAULT_255_1_234
10
13.5925236
20
78.2796968
40
0.1060489
50
249.1032952
51
262.775154
0
ARC
8
DEFAULT_255_1_234
10
13.6013408
20
78.3425715
40
0.1695354
50
262.4913187
51
270.2611758
0
ARC
8
DEFAULT_255_1_234
10
13.6010825
20
78.3641103
40
0.191075
50
270.3091804
51
275.6625139
0
ARC
8
DEFAULT_255_1_234
10
13.586805
20
78.5142435
40
0.3418851
50
275.5610264
51
279.0879356
0
ARC
8
DEFAULT_255_1_234
10
13.5537927
20
78.7237699
40
0.5539959
50
279.0365489
51
281.5011378
0
ARC
8
DEFAULT_255_1_234
10
13.5181004
20
78.9041423
40
0.7378639
50
281.4243939
51
282.1017894
0
ARC
8
DEFAULT_255_1_234
10
13.5524251
20
78.4959858
40
0.4501761
50
275.2597045
51
285.5083879
0
ARC
8
DEFAULT_255_1_234
10
13.5585576
20
78.4403606
40
0.3942242
50
270.0268409
51
275.1132796
0
ARC
8
DEFAULT_255_1_234
10
13.5565541
20
78.3076614
40
0.261534
50
257.3573315
51
270.479383
0
ARC
8
DEFAULT_255_1_234
10
13.5352431
20
78.2178406
40
0.1692304
50
230.8037497
51
257.741658
0
ARC
8
DEFAULT_255_1_234
10
13.5284335
20
78.2068777
40
0.1564393
50
219.974146
51
230.1990686
0
ARC
8
DEFAULT_255_1_234
10
13.5616281
20
78.2322579
40
0.1981916
50
196.5084186
51
219.4318458
0
ARC
8
DEFAULT_255_1_234
10
13.6631727
20
78.2641194
40
0.3046086
50
184.6404872
51
196.8269686
0
ARC
8
DEFAULT_255_1_234
10
13.7876791
20
78.2766908
40
0.4297309
50
179.8986958
51
184.9681077
0
LINE
8
DEFAULT_255_1_234
10
14.0037005
20
78.9312341
11
14.0037005
21
78.0622
0
LINE
8
DEFAULT_255_1_234
10
14.0037005
20
78.0622
11
13.8551134
21
78.0622
0
LINE
8
DEFAULT_255_1_234
10
13.8551134
20
78.0622
11
13.8551134
21
78.9312341
0
LINE
8
DEFAULT_255_1_234
10
13.8551134
20
78.9312341
11
14.0037005
21
78.9312341
0
ARC
8
DEFAULT_255_1_234
10
13.9409282
20
79.1626889
40
0.097867
50
161.415052
51
180.5526306
0
ARC
8
DEFAULT_255_1_234
10
13.9285061
20
79.1661077
40
0.0850062
50
138.1827368
51
160.9307106
0
ARC
8
DEFAULT_255_1_234
10
13.9175006
20
79.1756588
40
0.0704362
50
104.6368899
51
138.0039868
0
ARC
8
DEFAULT_255_1_234
10
13.9282161
20
79.1389963
40
0.1086221
50
92.0600725
51
105.2189128
0
ARC
8
DEFAULT_255_1_234
10
13.9305509
20
79.1047117
40
0.1429728
50
89.9756393
51
92.5012496
0
ARC
8
DEFAULT_255_1_234
10
13.9315529
20
79.1272731
40
0.1204151
50
78.0235316
51
90.4478182
0
ARC
8
DEFAULT_255_1_234
10
13.9407621
20
79.1686295
40
0.0780493
50
55.051506
51
78.3369085
0
ARC
8
DEFAULT_255_1_234
10
13.9457895
20
79.1770711
40
0.0682538
50
42.0501187
51
54.4513741
0
ARC
8
DEFAULT_255_1_234
10
13.9322762
20
79.1646798
40
0.0865878
50
1.7497075
51
42.1496013
0
ARC
8
DEFAULT_255_1_234
10
13.9068095
20
79.1617738
40
0.1121515
50
359.9852656
51
2.8364544
0
ARC
8
DEFAULT_255_1_234
10
13.9234087
20
79.1608229
40
0.0955566
50
342.1070653
51
0.552888
0
ARC
8
DEFAULT_255_1_234
10
13.9376784
20
79.1568904
40
0.0807713
50
316.7107116
51
341.6516965
0
ARC
8
DEFAULT_255_1_234
10
13.9443822
20
79.1508823
40
0.0717724
50
285.4397031
51
316.5324284
0
ARC
8
DEFAULT_255_1_234
10
13.9333739
20
79.1874554
40
0.1099597
50
272.3547054
51
285.8953117
0
ARC
8
DEFAULT_255_1_234
10
13.9306897
20
79.2240048
40
0.1465932
50
269.9695369
51
272.8160237
0
ARC
8
DEFAULT_255_1_234
10
13.9297078
20
79.2020863
40
0.1246779
50
258.8431134
51
270.4153935
0
ARC
8
DEFAULT_255_1_234
10
13.920712
20
79.1585414
40
0.0802162
50
238.5431189
51
259.1288175
0
ARC
8
DEFAULT_255_1_234
10
13.9139005
20
79.1461856
40
0.0661247
50
222.5062634
51
237.9906969
0
ARC
8
DEFAULT_255_1_234
10
13.9266593
20
79.1577889
40
0.0833707
50
184.1069131
51
222.460413
0
ARC
8
DEFAULT_255_1_234
10
13.9535833
20
79.1616349
40
0.1105176
50
179.9429482
51
185.0960898
0
LINE
8
DEFAULT_255_1_234
10
14.3073002
20
78.9312341
11
14.528173
21
78.2637966
0
LINE
8
DEFAULT_255_1_234
10
14.528173
20
78.2637966
11
14.7434236
21
78.9312341
0
LINE
8
DEFAULT_255_1_234
10
14.7434236
20
78.9312341
11
14.8952235
21
78.9312341
0
LINE
8
DEFAULT_255_1_234
10
14.8952235
20
78.9312341
11
14.583592
21
78.0622
0
LINE
8
DEFAULT_255_1_234
10
14.583592
20
78.0622
11
14.4703445
21
78.0622
0
LINE
8
DEFAULT_255_1_234
10
14.4703445
20
78.0622
11
14.1555004
21
78.9312341
0
LINE
8
DEFAULT_255_1_234
10
14.1555004
20
78.9312341
11
14.3073002
21
78.9312341
0
LINE
8
DEFAULT_255_1_234
10
15.1996264
20
78.9312341
11
15.1996264
21
78.0622
0
LINE
8
DEFAULT_255_1_234
10
15.1996264
20
78.0622
11
15.0510392
21
78.0622
0
LINE
8
DEFAULT_255_1_234
10
15.0510392
20
78.0622
11
15.0510392
21
78.9312341
0
LINE
8
DEFAULT_255_1_234
10
15.0510392
20
78.9312341
11
15.1996264
21
78.9312341
0
ARC
8
DEFAULT_255_1_234
10
15.1368541
20
79.1626889
40
0.097867
50
161.415052
51
180.5526306
0
ARC
8
DEFAULT_255_1_234
10
15.1244319
20
79.1661077
40
0.0850062
50
138.1827368
51
160.9307106
0
ARC
8
DEFAULT_255_1_234
10
15.1134265
20
79.1756588
40
0.0704362
50
104.6368899
51
138.0039868
0
ARC
8
DEFAULT_255_1_234
10
15.1241419
20
79.1389963
40
0.1086221
50
92.0600725
51
105.2189128
0
ARC
8
DEFAULT_255_1_234
10
15.1264768
20
79.1047117
40
0.1429728
50
89.9756393
51
92.5012496
0
ARC
8
DEFAULT_255_1_234
10
15.1274787
20
79.1272731
40
0.1204151
50
78.0235316
51
90.4478182
0
ARC
8
DEFAULT_255_1_234
10
15.1366879
20
79.1686295
40
0.0780493
50
55.051506
51
78.3369085
0
ARC
8
DEFAULT_255_1_234
10
15.1417153
20
79.1770711
40
0.0682538
50
42.0501187
51
54.4513741
0
ARC
8
DEFAULT_255_1_234
10
15.128202
20
79.1646798
40
0.0865878
50
1.7497075
51
42.1496013
0
ARC
8
DEFAULT_255_1_234
10
15.1027353
20
79.1617738
40
0.1121515
50
359.9852656
51
2.8364544
0
ARC
8
DEFAULT_255_1_234
10
15.1193345
20
79.1608229
40
0.0955566
50
342.1070653
51
0.552888
0
ARC
8
DEFAULT_255_1_234
10
15.1336043
20
79.1568904
40
0.0807713
50
316.7107116
51
341.6516965
0
ARC
8
DEFAULT_255_1_234
10
15.140308
20
79.1508823
40
0.0717724
50
285.4397031
51
316.5324284
0
ARC
8
DEFAULT_255_1_234
10
15.1292997
20
79.1874554
40
0.1099597
50
272.3547054
51
285.8953117
0
ARC
8
DEFAULT_255_1_234
10
15.1266155
20
79.2240048
40
0.1465932
50
269.9695369
51
272.8160237
0
ARC
8
DEFAULT_255_1_234
10
15.1256336
20
79.2020863
40
0.1246779
50
258.8431134
51
270.4153935
0
ARC
8
DEFAULT_255_1_234
10
15.1166379
20
79.1585414
40
0.0802162
50
238.5431189
51
259.1288175
0
ARC
8
DEFAULT_255_1_234
10
15.1098264
20
79.1461856
40
0.0661247
50
222.5062634
51
237.9906969
0
ARC
8
DEFAULT_255_1_234
10
15.1225851
20
79.1577889
40
0.0833707
50
184.1069131
51
222.460413
0
ARC
8
DEFAULT_255_1_234
10
15.1495092
20
79.1616349
40
0.1105176
50
179.9429482
51
185.0960898
0
LINE
8
DEFAULT_255_1_234
10
15.4903753
20
79.1416656
11
15.6389625
21
79.1416656
0
LINE
8
DEFAULT_255_1_234
10
15.6389625
20
79.1416656
11
15.6389625
21
78.9312341
0
LINE
8
DEFAULT_255_1_234
10
15.6389625
20
78.9312341
11
15.8012036
21
78.9312341
0
LINE
8
DEFAULT_255_1_234
10
15.8012036
20
78.9312341
11
15.8012036
21
78.8163802
0
LINE
8
DEFAULT_255_1_234
10
15.8012036
20
78.8163802
11
15.6389625
21
78.8163802
0
LINE
8
DEFAULT_255_1_234
10
15.6389625
20
78.8163802
11
15.6389625
21
78.2774506
0
LINE
8
DEFAULT_255_1_234
10
15.8052194
20
78.1826761
11
15.8052194
21
78.0622
0
LINE
8
DEFAULT_255_1_234
10
15.4903753
20
78.2774506
11
15.4903753
21
78.8163802
0
LINE
8
DEFAULT_255_1_234
10
15.4903753
20
78.8163802
11
15.33215
21
78.8163802
0
LINE
8
DEFAULT_255_1_234
10
15.33215
20
78.8163802
11
15.33215
21
78.9312341
0
LINE
8
DEFAULT_255_1_234
10
15.33215
20
78.9312341
11
15.4903753
21
78.9312341
0
LINE
8
DEFAULT_255_1_234
10
15.4903753
20
78.9312341
11
15.4903753
21
79.1416656
0
ARC
8
DEFAULT_255_1_234
10
15.8397127
20
78.2764084
40
0.200753
50
179.7025659
51
187.917967
0
ARC
8
DEFAULT_255_1_234
10
15.7651153
20
78.2656724
40
0.1253883
50
187.7545981
51
200.2447476
0
ARC
8
DEFAULT_255_1_234
10
15.7230474
20
78.2499859
40
0.0804913
50
200.130383
51
219.174133
0
ARC
8
DEFAULT_255_1_234
10
15.7094651
20
78.2407515
40
0.0641445
50
220.4434483
51
249.6172
0
ARC
8
DEFAULT_255_1_234
10
15.7249501
20
78.2796968
40
0.1060489
50
249.1032952
51
262.775154
0
ARC
8
DEFAULT_255_1_234
10
15.7337673
20
78.3425715
40
0.1695354
50
262.4913187
51
270.2611758
0
ARC
8
DEFAULT_255_1_234
10
15.7335091
20
78.3641103
40
0.191075
50
270.3091804
51
275.6625139
0
ARC
8
DEFAULT_255_1_234
10
15.7192315
20
78.5142435
40
0.3418851
50
275.5610264
51
279.0879356
0
ARC
8
DEFAULT_255_1_234
10
15.6862192
20
78.7237699
40
0.5539959
50
279.0365489
51
281.5011378
0
ARC
8
DEFAULT_255_1_234
10
15.6505269
20
78.9041423
40
0.7378639
50
281.4243939
51
282.1017894
0
ARC
8
DEFAULT_255_1_234
10
15.6848516
20
78.4959858
40
0.4501761
50
275.2597045
51
285.5083879
0
ARC
8
DEFAULT_255_1_234
10
15.6909841
20
78.4403606
40
0.3942242
50
270.0268409
51
275.1132796
0
ARC
8
DEFAULT_255_1_234
10
15.6889806
20
78.3076614
40
0.261534
50
257.3573315
51
270.479383
0
ARC
8
DEFAULT_255_1_234
10
15.6676697
20
78.2178406
40
0.1692304
50
230.8037497
51
257.741658
0
ARC
8
DEFAULT_255_1_234
10
15.66086
20
78.2068777
40
0.1564393
50
219.974146
51
230.1990686
0
ARC
8
DEFAULT_255_1_234
10
15.6940546
20
78.2322579
40
0.1981916
50
196.5084186
51
219.4318458
0
ARC
8
DEFAULT_255_1_234
10
15.7955992
20
78.2641194
40
0.3046086
50
184.6404872
51
196.8269686
0
ARC
8
DEFAULT_255_1_234
10
15.9201056
20
78.2766908
40
0.4297309
50
179.8986958
51
184.9681077
0
LINE
8
DEFAULT_255_1_234
10
16.0421557
20
78.9312341
11
16.2590126
21
78.2798601
0
LINE
8
DEFAULT_255_1_234
10
16.2590126
20
78.2798601
11
16.4614125
21
78.9312341
0
LINE
8
DEFAULT_255_1_234
10
16.4614125
20
78.9312341
11
16.6204409
21
78.9312341
0
LINE
8
DEFAULT_255_1_234
10
16.6204409
20
78.9312341
11
16.2710603
21
77.92807
0
LINE
8
DEFAULT_255_1_234
10
16.0132415
20
77.711213
11
15.9851304
21
77.7136226
0
LINE
8
DEFAULT_255_1_234
10
15.9851304
20
77.7136226
11
15.9297114
21
77.7240638
0
LINE
8
DEFAULT_255_1_234
10
15.9297114
20
77.7240638
11
15.9297114
21
77.8445399
0
LINE
8
DEFAULT_255_1_234
10
15.9297114
20
77.8445399
11
15.9698701
21
77.8413272
0
LINE
8
DEFAULT_255_1_234
10
16.1570096
20
77.983489
11
16.1899397
21
78.0718381
0
LINE
8
DEFAULT_255_1_234
10
16.1899397
20
78.0718381
11
15.8799146
21
78.9312341
0
LINE
8
DEFAULT_255_1_234
10
15.8799146
20
78.9312341
11
16.0421557
21
78.9312341
0
ARC
8
DEFAULT_255_1_234
10
15.8075945
20
78.0965403
40
0.4931356
50
327.7224013
51
340.0237316
0
ARC
8
DEFAULT_255_1_234
10
15.9828161
20
77.983372
40
0.2845645
50
305.2163759
51
328.1469174
0
ARC
8
DEFAULT_255_1_234
10
16.0173212
20
77.9424893
40
0.2313123
50
268.9893887
51
304.0733175
0
ARC
8
DEFAULT_255_1_234
10
15.9713414
20
78.1448864
40
0.3035628
50
269.7222887
51
278.0404605
0
ARC
8
DEFAULT_255_1_234
10
15.9869237
20
78.0388823
40
0.1964222
50
277.8648378
51
290.8634365
0
ARC
8
DEFAULT_255_1_234
10
16.0077226
20
77.9833422
40
0.1371168
50
291.0076295
51
305.5967213
0
ARC
8
DEFAULT_255_1_234
10
16.0058417
20
77.9817702
40
0.1369553
50
306.6194038
51
324.1023288
0
ARC
8
DEFAULT_255_1_234
10
15.9311231
20
78.03722
40
0.2299972
50
323.8264381
51
334.2987676
0
ARC
8
DEFAULT_255_1_234
10
15.806734
20
78.0983087
40
0.3685747
50
334.1277399
51
340.8153554
0
ARC
8
DEFAULT_255_1_234
10
15.7091275
20
78.1342465
40
0.4725741
50
340.5889714
51
341.3967148
0
LINE
8
DEFAULT_255_1_234
10
17.2260339
20
79.2372433
11
17.2260339
21
78.0622
0
LINE
8
DEFAULT_255_1_234
10
17.2260339
20
78.0622
11
17.0766436
21
78.0622
0
LINE
8
DEFAULT_255_1_234
10
17.0766436
20
78.0622
11
17.0766436
21
79.0525133
0
LINE
8
DEFAULT_255_1_234
10
17.0766436
20
79.0525133
11
16.7770598
21
78.9424785
0
LINE
8
DEFAULT_255_1_234
10
16.7770598
20
78.9424785
11
16.7770598
21
79.0774117
0
LINE
8
DEFAULT_255_1_234
10
16.7770598
20
79.0774117
11
17.2027419
21
79.2372433
0
LINE
8
DEFAULT_255_1_234
10
17.2027419
20
79.2372433
11
17.2260339
21
79.2372433
0
LINE
8
DEFAULT_255_1_234
10
18.3946519
20
78.7537327
11
18.3946519
21
78.5609709
0
LINE
8
DEFAULT_255_1_234
10
17.6565351
20
78.5408916
11
17.6565351
21
78.7392755
0
LINE
8
DEFAULT_255_1_234
10
18.2460647
20
78.5208123
11
18.2460647
21
78.7641739
0
LINE
8
DEFAULT_255_1_234
10
17.8051223
20
78.7754184
11
17.8051223
21
78.5376789
0
ARC
8
DEFAULT_255_1_234
10
17.1699408
20
78.5560805
40
1.2247208
50
353.8441951
51
0.2287902
0
ARC
8
DEFAULT_255_1_234
10
17.6338912
20
78.5042806
40
0.7578929
50
344.4934747
51
353.9765454
0
ARC
8
DEFAULT_255_1_234
10
17.9331502
20
78.4191981
40
0.4467846
50
329.2803592
51
344.7472793
0
ARC
8
DEFAULT_255_1_234
10
18.0324327
20
78.3647018
40
0.3336173
50
324.9352394
51
328.6160465
0
ARC
8
DEFAULT_255_1_234
10
18.0701436
20
78.3383427
40
0.2876076
50
280.580143
51
324.9173126
0
ARC
8
DEFAULT_255_1_234
10
18.0300228
20
78.5054099
40
0.4592847
50
269.5977311
51
281.6734359
0
ARC
8
DEFAULT_255_1_234
10
18.0228134
20
78.4934173
40
0.4472986
50
256.6228859
51
270.51044
0
ARC
8
DEFAULT_255_1_234
10
17.9826112
20
78.3385877
40
0.2873874
50
215.8618325
51
257.2788573
0
ARC
8
DEFAULT_255_1_234
10
18.0847143
20
78.4070977
40
0.4102928
50
197.9693508
51
215.2623606
0
ARC
8
DEFAULT_255_1_234
10
18.3332259
20
78.4909709
40
0.6725652
50
187.8816417
51
198.2346507
0
ARC
8
DEFAULT_255_1_234
10
18.7290467
20
78.5481079
40
1.0724845
50
180.8976217
51
188.0055519
0
ARC
8
DEFAULT_255_1_234
10
19.0090655
20
78.5584777
40
1.3526448
50
180.7449369
51
181.1510016
0
ARC
8
DEFAULT_255_1_234
10
18.8513384
20
78.7441042
40
1.1948131
50
173.7675579
51
180.231553
0
ARC
8
DEFAULT_255_1_234
10
18.3995531
20
78.7951666
40
0.7401564
50
164.3058563
51
173.9002247
0
ARC
8
DEFAULT_255_1_234
10
18.10836
20
78.8790656
40
0.4371288
50
148.7922025
51
164.568378
0
ARC
8
DEFAULT_255_1_234
10
18.0132052
20
78.9321929
40
0.3282386
50
144.5883898
51
148.1176286
0
ARC
8
DEFAULT_255_1_234
10
17.978895
20
78.9561315
40
0.2864044
50
101.6440918
51
144.514236
0
ARC
8
DEFAULT_255_1_234
10
18.0214017
20
78.7872069
40
0.4604934
50
89.5284041
51
102.5819763
0
ARC
8
DEFAULT_255_1_234
10
18.0293104
20
78.7833018
40
0.464401
50
77.0437873
51
90.5081339
0
ARC
8
DEFAULT_255_1_234
10
18.0695106
20
78.9475615
40
0.2953195
50
48.2778575
51
77.4994676
0
ARC
8
DEFAULT_255_1_234
10
18.0767737
20
78.9604746
40
0.2808655
50
36.3142134
51
47.6305865
0
ARC
8
DEFAULT_255_1_234
10
17.9899044
20
78.9019515
40
0.3855453
50
18.2931786
51
35.6769206
0
ARC
8
DEFAULT_255_1_234
10
17.7355803
20
78.8146593
40
0.654423
50
8.024666
51
18.5605216
0
ARC
8
DEFAULT_255_1_234
10
17.3192723
20
78.7531792
40
1.0752407
50
1.1274072
51
8.1718305
0
ARC
8
DEFAULT_255_1_234
10
16.9956914
20
78.7404885
40
1.3990231
50
0.5424119
51
1.3863029
0
ARC
8
DEFAULT_255_1_234
10
17.1778292
20
78.7677342
40
1.0682415
50
359.8090433
51
4.9407866
0
ARC
8
DEFAULT_255_1_234
10
17.5988306
20
78.8053113
40
0.6455691
50
4.8362157
51
12.2904523
0
ARC
8
DEFAULT_255_1_234
10
17.874342
20
78.8666965
40
0.3633074
50
12.0805627
51
23.8173984
0
ARC
8
DEFAULT_255_1_234
10
17.9917126
20
78.9163919
40
0.2358723
50
24.2871213
51
31.3935614
0
ARC
8
DEFAULT_255_1_234
10
18.0441823
20
78.9507233
40
0.1732111
50
30.7407893
51
82.4657128
0
ARC
8
DEFAULT_255_1_234
10
18.0261957
20
78.8623691
40
0.263235
50
81.1060089
51
90.2184952
0
ARC
8
DEFAULT_255_1_234
10
18.0226256
20
78.8881924
40
0.2374236
50
89.3806855
51
105.6762551
0
ARC
8
DEFAULT_255_1_234
10
18.0042887
20
78.9548567
40
0.1682847
50
105.7981136
51
149.7388061
0
ARC
8
DEFAULT_255_1_234
10
18.1106965
20
78.890895
40
0.2924306
50
149.4208916
51
163.6286378
0
ARC
8
DEFAULT_255_1_234
10
18.3197853
20
78.827125
40
0.5110213
50
163.3763315
51
172.1410975
0
ARC
8
DEFAULT_255_1_234
10
18.6498572
20
78.7798518
40
0.8444586
50
172.0259487
51
178.0703232
0
ARC
8
DEFAULT_255_1_234
10
18.9528662
20
78.7654906
40
1.1477868
50
177.8631668
51
179.5044149
0
ARC
8
DEFAULT_255_1_234
10
18.8456066
20
78.5340389
40
1.0404907
50
179.7995573
51
185.2460446
0
ARC
8
DEFAULT_255_1_234
10
18.4413105
20
78.4957513
40
0.6343885
50
185.1411642
51
193.0079639
0
ARC
8
DEFAULT_255_1_234
10
18.1769578
20
78.4332641
40
0.3627568
50
192.7897626
51
205.2507664
0
ARC
8
DEFAULT_255_1_234
10
18.0723125
20
78.3865415
40
0.2481908
50
205.8005384
51
211.2537509
0
ARC
8
DEFAULT_255_1_234
10
18.0199565
20
78.351458
40
0.1852521
50
210.3789793
51
238.4008143
0
ARC
8
DEFAULT_255_1_234
10
18.0180087
20
78.3561376
40
0.1882621
50
239.6520629
51
265.9793761
0
ARC
8
DEFAULT_255_1_234
10
18.0265288
20
78.4233427
40
0.2559272
50
265.1315437
51
270.060332
0
ARC
8
DEFAULT_255_1_234
10
18.0294066
20
78.3909534
40
0.2235528
50
269.3314664
51
287.2178029
0
ARC
8
DEFAULT_255_1_234
10
18.0431918
20
78.3406279
40
0.1714108
50
287.7958004
51
329.080874
0
ARC
8
DEFAULT_255_1_234
10
17.9474375
20
78.400393
40
0.2842745
50
328.6634704
51
343.3325132
0
ARC
8
DEFAULT_255_1_234
10
17.7301395
20
78.4680863
40
0.5118644
50
343.0499468
51
351.9393422
0
ARC
8
DEFAULT_255_1_234
10
17.3834695
20
78.5191949
40
0.8622784
50
351.8069023
51
357.7959224
0
ARC
8
DEFAULT_255_1_234
10
17.0599251
20
78.5359721
40
1.1862365
50
357.5871873
51
359.2677531
0
LINE
8
DEFAULT_255_1_234
10
19.3183018
20
78.7537327
11
19.3183018
21
78.5609709
0
LINE
8
DEFAULT_255_1_234
10
18.580185
20
78.5408916
11
18.580185
21
78.7392755
0
LINE
8
DEFAULT_255_1_234
10
19.1697146
20
78.5208123
11
19.1697146
21
78.7641739
0
LINE
8
DEFAULT_255_1_234
10
18.7287722
20
78.7754184
11
18.7287722
21
78.5376789
0
ARC
8
DEFAULT_255_1_234
10
18.0935907
20
78.5560805
40
1.2247208
50
353.8441951
51
0.2287902
0
ARC
8
DEFAULT_255_1_234
10
18.5575411
20
78.5042806
40
0.7578929
50
344.4934747
51
353.9765454
0
ARC
8
DEFAULT_255_1_234
10
18.8568001
20
78.4191981
40
0.4467846
50
329.2803592
51
344.7472793
0
ARC
8
DEFAULT_255_1_234
10
18.9560826
20
78.3647018
40
0.3336173
50
324.9352394
51
328.6160465
0
ARC
8
DEFAULT_255_1_234
10
18.9937935
20
78.3383427
40
0.2876076
50
280.580143
51
324.9173126
0
ARC
8
DEFAULT_255_1_234
10
18.9536727
20
78.5054099
40
0.4592847
50
269.5977311
51
281.6734359
0
ARC
8
DEFAULT_255_1_234
10
18.9464633
20
78.4934173
40
0.4472986
50
256.6228859
51
270.51044
0
ARC
8
DEFAULT_255_1_234
10
18.9062611
20
78.3385877
40
0.2873874
50
215.8618325
51
257.2788573
0
ARC
8
DEFAULT_255_1_234
10
19.0083642
20
78.4070977
40
0.4102928
50
197.9693508
51
215.2623606
0
ARC
8
DEFAULT_255_1_234
10
19.2568758
20
78.4909709
40
0.6725652
50
187.8816417
51
198.2346507
0
ARC
8
DEFAULT_255_1_234
10
19.6526966
20
78.5481079
40
1.0724845
50
180.8976217
51
188.0055519
0
ARC
8
DEFAULT_255_1_234
10
19.9327154
20
78.5584777
40
1.3526448
50
180.7449369
51
181.1510016
0
ARC
8
DEFAULT_255_1_234
10
19.7749883
20
78.7441042
40
1.1948131
50
173.7675579
51
180.231553
0
ARC
8
DEFAULT_255_1_234
10
19.323203
20
78.7951666
40
0.7401564
50
164.3058563
51
173.9002247
0
ARC
8
DEFAULT_255_1_234
10
19.0320099
20
78.8790656
40
0.4371288
50
148.7922025
51
164.568378
0
ARC
8
DEFAULT_255_1_234
10
18.9368551
20
78.9321929
40
0.3282386
50
144.5883898
51
148.1176286
0
ARC
8
DEFAULT_255_1_234
10
18.9025449
20
78.9561315
40
0.2864044
50
101.6440918
51
144.514236
0
ARC
8
DEFAULT_255_1_234
10
18.9450516
20
78.7872069
40
0.4604934
50
89.5284041
51
102.5819763
0
ARC
8
DEFAULT_255_1_234
10
18.9529603
20
78.7833018
40
0.464401
50
77.0437873
51
90.5081339
0
ARC
8
DEFAULT_255_1_234
10
18.9931605
20
78.9475615
40
0.2953195
50
48.2778575
51
77.4994676
0
ARC
8
DEFAULT_255_1_234
10
19.0004236
20
78.9604746
40
0.2808655
50
36.3142134
51
47.6305865
0
ARC
8
DEFAULT_255_1_234
10
18.9135543
20
78.9019515
40
0.3855453
50
18.2931786
51
35.6769206
0
ARC
8
DEFAULT_255_1_234
10
18.6592302
20
78.8146593
40
0.654423
50
8.024666
51
18.5605216
0
ARC
8
DEFAULT_255_1_234
10
18.2429222
20
78.7531792
40
1.0752407
50
1.1274072
51
8.1718305
0
ARC
8
DEFAULT_255_1_234
10
17.9193413
20
78.7404885
40
1.3990231
50
0.5424119
51
1.3863029
0
ARC
8
DEFAULT_255_1_234
10
18.1014791
20
78.7677342
40
1.0682415
50
359.8090433
51
4.9407866
0
ARC
8
DEFAULT_255_1_234
10
18.5224805
20
78.8053113
40
0.6455691
50
4.8362157
51
12.2904523
0
ARC
8
DEFAULT_255_1_234
10
18.797992
20
78.8666965
40
0.3633074
50
12.0805627
51
23.8173984
0
ARC
8
DEFAULT_255_1_234
10
18.9153625
20
78.9163919
40
0.2358723
50
24.2871213
51
31.3935614
0
ARC
8
DEFAULT_255_1_234
10
18.9678322
20
78.9507233
40
0.1732111
50
30.7407893
51
82.4657128
0
ARC
8
DEFAULT_255_1_234
10
18.9498456
20
78.8623691
40
0.263235
50
81.1060089
51
90.2184952
0
ARC
8
DEFAULT_255_1_234
10
18.9462755
20
78.8881924
40
0.2374236
50
89.3806855
51
105.6762551
0
ARC
8
DEFAULT_255_1_234
10
18.9279386
20
78.9548567
40
0.1682847
50
105.7981136
51
149.7388061
0
ARC
8
DEFAULT_255_1_234
10
19.0343464
20
78.890895
40
0.2924306
50
149.4208916
51
163.6286378
0
ARC
8
DEFAULT_255_1_234
10
19.2434352
20
78.827125
40
0.5110213
50
163.3763315
51
172.1410975
0
ARC
8
DEFAULT_255_1_234
10
19.5735071
20
78.7798518
40
0.8444586
50
172.0259487
51
178.0703232
0
ARC
8
DEFAULT_255_1_234
10
19.8765161
20
78.7654906
40
1.1477868
50
177.8631668
51
179.5044149
0
ARC
8
DEFAULT_255_1_234
10
19.7692565
20
78.5340389
40
1.0404907
50
179.7995573
51
185.2460446
0
ARC
8
DEFAULT_255_1_234
10
19.3649604
20
78.4957513
40
0.6343885
50
185.1411642
51
193.0079639
0
ARC
8
DEFAULT_255_1_234
10
19.1006077
20
78.4332641
40
0.3627568
50
192.7897626
51
205.2507664
0
ARC
8
DEFAULT_255_1_234
10
18.9959624
20
78.3865415
40
0.2481908
50
205.8005384
51
211.2537509
0
ARC
8
DEFAULT_255_1_234
10
18.9436064
20
78.351458
40
0.1852521
50
210.3789793
51
238.4008143
0
ARC
8
DEFAULT_255_1_234
10
18.9416586
20
78.3561376
40
0.1882621
50
239.6520629
51
265.9793761
0
ARC
8
DEFAULT_255_1_234
10
18.9501787
20
78.4233427
40
0.2559272
50
265.1315437
51
270.060332
0
ARC
8
DEFAULT_255_1_234
10
18.9530565
20
78.3909534
40
0.2235528
50
269.3314664
51
287.2178029
0
ARC
8
DEFAULT_255_1_234
10
18.9668417
20
78.3406279
40
0.1714108
50
287.7958004
51
329.080874
0
ARC
8
DEFAULT_255_1_234
10
18.8710874
20
78.400393
40
0.2842745
50
328.6634704
51
343.3325132
0
ARC
8
DEFAULT_255_1_234
10
18.6537894
20
78.4680863
40
0.5118644
50
343.0499468
51
351.9393422
0
ARC
8
DEFAULT_255_1_234
10
18.3071194
20
78.5191949
40
0.8622784
50
351.8069023
51
357.7959224
0
ARC
8
DEFAULT_255_1_234
10
17.983575
20
78.5359721
40
1.1862365
50
357.5871873
51
359.2677531
0
LINE
8
DEFAULT_255_1_234
10
20.2419517
20
78.7537327
11
20.2419517
21
78.5609709
0
LINE
8
DEFAULT_255_1_234
10
19.5038349
20
78.5408916
11
19.5038349
21
78.7392755
0
LINE
8
DEFAULT_255_1_234
10
20.0933645
20
78.5208123
11
20.0933645
21
78.7641739
0
LINE
8
DEFAULT_255_1_234
10
19.6524221
20
78.7754184
11
19.6524221
21
78.5376789
0
ARC
8
DEFAULT_255_1_234
10
19.0172406
20
78.5560805
40
1.2247208
50
353.8441951
51
0.2287902
0
ARC
8
DEFAULT_255_1_234
10
19.481191
20
78.5042806
40
0.7578929
50
344.4934747
51
353.9765454
0
ARC
8
DEFAULT_255_1_234
10
19.78045
20
78.4191981
40
0.4467846
50
329.2803592
51
344.7472793
0
ARC
8
DEFAULT_255_1_234
10
19.8797325
20
78.3647018
40
0.3336173
50
324.9352394
51
328.6160465
0
ARC
8
DEFAULT_255_1_234
10
19.9174434
20
78.3383427
40
0.2876076
50
280.580143
51
324.9173126
0
ARC
8
DEFAULT_255_1_234
10
19.8773226
20
78.5054099
40
0.4592847
50
269.5977311
51
281.6734359
0
ARC
8
DEFAULT_255_1_234
10
19.8701132
20
78.4934173
40
0.4472986
50
256.6228859
51
270.51044
0
ARC
8
DEFAULT_255_1_234
10
19.829911
20
78.3385877
40
0.2873874
50
215.8618325
51
257.2788573
0
ARC
8
DEFAULT_255_1_234
10
19.9320141
20
78.4070977
40
0.4102928
50
197.9693508
51
215.2623606
0
ARC
8
DEFAULT_255_1_234
10
20.1805257
20
78.4909709
40
0.6725652
50
187.8816417
51
198.2346507
0
ARC
8
DEFAULT_255_1_234
10
20.5763465
20
78.5481079
40
1.0724845
50
180.8976217
51
188.0055519
0
ARC
8
DEFAULT_255_1_234
10
20.8563653
20
78.5584777
40
1.3526448
50
180.7449369
51
181.1510016
0
ARC
8
DEFAULT_255_1_234
10
20.6986382
20
78.7441042
40
1.1948131
50
173.7675579
51
180.231553
0
ARC
8
DEFAULT_255_1_234
10
20.2468529
20
78.7951666
40
0.7401564
50
164.3058563
51
173.9002247
0
ARC
8
DEFAULT_255_1_234
10
19.9556598
20
78.8790656
40
0.4371288
50
148.7922025
51
164.568378
0
ARC
8
DEFAULT_255_1_234
10
19.860505
20
78.9321929
40
0.3282386
50
144.5883898
51
148.1176286
0
ARC
8
DEFAULT_255_1_234
10
19.8261948
20
78.9561315
40
0.2864044
50
101.6440918
51
144.514236
0
ARC
8
DEFAULT_255_1_234
10
19.8687015
20
78.7872069
40
0.4604934
50
89.5284041
51
102.5819763
0
ARC
8
DEFAULT_255_1_234
10
19.8766102
20
78.7833018
40
0.464401
50
77.0437873
51
90.5081339
0
ARC
8
DEFAULT_255_1_234
10
19.9168104
20
78.9475615
40
0.2953195
50
48.2778575
51
77.4994676
0
ARC
8
DEFAULT_255_1_234
10
19.9240735
20
78.9604746
40
0.2808655
50
36.3142134
51
47.6305865
0
ARC
8
DEFAULT_255_1_234
10
19.8372042
20
78.9019515
40
0.3855453
50
18.2931786
51
35.6769206
0
ARC
8
DEFAULT_255_1_234
10
19.5828801
20
78.8146593
40
0.654423
50
8.024666
51
18.5605216
0
ARC
8
DEFAULT_255_1_234
10
19.1665721
20
78.7531792
40
1.0752407
50
1.1274072
51
8.1718305
0
ARC
8
DEFAULT_255_1_234
10
18.8429912
20
78.7404885
40
1.3990231
50
0.5424119
51
1.3863029
0
ARC
8
DEFAULT_255_1_234
10
19.025129
20
78.7677342
40
1.0682415
50
359.8090433
51
4.9407866
0
ARC
8
DEFAULT_255_1_234
10
19.4461304
20
78.8053113
40
0.6455691
50
4.8362157
51
12.2904523
0
ARC
8
DEFAULT_255_1_234
10
19.7216419
20
78.8666965
40
0.3633074
50
12.0805627
51
23.8173984
0
ARC
8
DEFAULT_255_1_234
10
19.8390124
20
78.9163919
40
0.2358723
50
24.2871213
51
31.3935614
0
ARC
8
DEFAULT_255_1_234
10
19.8914821
20
78.9507233
40
0.1732111
50
30.7407893
51
82.4657128
0
ARC
8
DEFAULT_255_1_234
10
19.8734955
20
78.8623691
40
0.263235
50
81.1060089
51
90.2184952
0
ARC
8
DEFAULT_255_1_234
10
19.8699254
20
78.8881924
40
0.2374236
50
89.3806855
51
105.6762551
0
ARC
8
DEFAULT_255_1_234
10
19.8515885
20
78.9548567
40
0.1682847
50
105.7981136
51
149.7388061
0
ARC
8
DEFAULT_255_1_234
10
19.9579963
20
78.890895
40
0.2924306
50
149.4208916
51
163.6286378
0
ARC
8
DEFAULT_255_1_234
10
20.1670851
20
78.827125
40
0.5110213
50
163.3763315
51
172.1410975
0
ARC
8
DEFAULT_255_1_234
10
20.497157
20
78.7798518
40
0.8444586
50
172.0259487
51
178.0703232
0
ARC
8
DEFAULT_255_1_234
10
20.800166
20
78.7654906
40
1.1477868
50
177.8631668
51
179.5044149
0
ARC
8
DEFAULT_255_1_234
10
20.6929064
20
78.5340389
40
1.0404907
50
179.7995573
51
185.2460446
0
ARC
8
DEFAULT_255_1_234
10
20.2886104
20
78.4957513
40
0.6343885
50
185.1411642
51
193.0079639
0
ARC
8
DEFAULT_255_1_234
10
20.0242576
20
78.4332641
40
0.3627568
50
192.7897626
51
205.2507664
0
ARC
8
DEFAULT_255_1_234
10
19.9196123
20
78.3865415
40
0.2481908
50
205.8005384
51
211.2537509
0
ARC
8
DEFAULT_255_1_234
10
19.8672564
20
78.351458
40
0.1852521
50
210.3789793
51
238.4008143
0
ARC
8
DEFAULT_255_1_234
10
19.8653085
20
78.3561376
40
0.1882621
50
239.6520629
51
265.9793761
0
ARC
8
DEFAULT_255_1_234
10
19.8738286
20
78.4233427
40
0.2559272
50
265.1315437
51
270.060332
0
ARC
8
DEFAULT_255_1_234
10
19.8767064
20
78.3909534
40
0.2235528
50
269.3314664
51
287.2178029
0
ARC
8
DEFAULT_255_1_234
10
19.8904916
20
78.3406279
40
0.1714108
50
287.7958004
51
329.080874
0
ARC
8
DEFAULT_255_1_234
10
19.7947373
20
78.400393
40
0.2842745
50
328.6634704
51
343.3325132
0
ARC
8
DEFAULT_255_1_234
10
19.5774393
20
78.4680863
40
0.5118644
50
343.0499468
51
351.9393422
0
ARC
8
DEFAULT_255_1_234
10
19.2307693
20
78.5191949
40
0.8622784
50
351.8069023
51
357.7959224
0
ARC
8
DEFAULT_255_1_234
10
18.9072249
20
78.5359721
40
1.1862365
50
357.5871873
51
359.2677531
0
ARC
8
DEFAULT_255_2_778
10
8.509117
20
82.0683756
40
0.4373747
50
56.3665942
51
72.7074496
0
ARC
8
DEFAULT_255_2_778
10
8.5463845
20
82.1819358
40
0.3178747
50
73.036784
51
89.7973226
0
ARC
8
DEFAULT_255_2_778
10
8.5537306
20
82.159549
40
0.3403165
50
91.0475309
51
125.5485458
0
ARC
8
DEFAULT_255_2_778
10
8.7194697
20
81.9106905
40
0.6392287
50
124.6669492
51
139.114563
0
ARC
8
DEFAULT_255_2_778
10
8.9609112
20
81.6872799
40
0.9680575
50
138.4713305
51
142.1157612
0
ARC
8
DEFAULT_255_2_778
10
8.583458
20
81.7180121
40
0.5212765
50
117.7453356
51
135.8758074
0
ARC
8
DEFAULT_255_2_778
10
8.486317
20
81.9003596
40
0.3146729
50
90.4656379
51
117.5483702
0
ARC
8
DEFAULT_255_2_778
10
8.4802065
20
81.8850957
40
0.3299454
50
64.3679478
51
89.3829577
0
ARC
8
DEFAULT_255_2_778
10
8.4478855
20
81.8035224
40
0.4175182
50
64.8738747
51
65.2115951
0
LINE
8
DEFAULT_255_2_778
10
8.1968689
20
82.2817331
11
8.1968689
21
82.4577331
0
LINE
8
DEFAULT_255_2_778
10
8.1968689
20
82.4577331
11
7.8565689
21
82.4577331
0
LINE
8
DEFAULT_255_2_778
10
7.8565689
20
82.4577331
11
7.8565689
21
81.2390331
0
LINE
8
DEFAULT_255_2_778
10
7.8565689
20
81.2390331
11
8.2219689
21
81.2390331
0
LINE
8
DEFAULT_255_2_778
10
8.2219689
20
81.2390331
11
8.2092689
21
82.0809331
0
LINE
8
DEFAULT_255_2_778
10
8.6251689
20
82.1815331
11
8.7513689
21
82.4325331
0
LINE
8
DEFAULT_255_2_778
10
15.2045689
20
81.2387331
11
15.2045689
21
82.4701331
0
LINE
8
DEFAULT_255_2_778
10
15.2045689
20
82.4701331
11
15.5702689
21
82.4701331
0
LINE
8
DEFAULT_255_2_778
10
15.5702689
20
82.4701331
11
15.5702689
21
81.2387331
0
LINE
8
DEFAULT_255_2_778
10
15.5702689
20
81.2387331
11
15.2045689
21
81.2387331
0
ARC
8
DEFAULT_255_2_778
10
15.3896435
20
82.862866
40
0.1978332
50
90.7257917
51
180.9507563
0
ARC
8
DEFAULT_255_2_778
10
15.3846161
20
82.8629493
40
0.1977501
50
359.0247012
51
89.2694187
0
ARC
8
DEFAULT_255_2_778
10
15.3846161
20
82.8562174
40
0.1977501
50
270.7305813
51
0.9752988
0
ARC
8
DEFAULT_255_2_778
10
15.3896435
20
82.8563007
40
0.1978332
50
179.0492437
51
269.2742083
0
LINE
8
DEFAULT_255_2_778
10
15.1918375
20
82.8595833
11
15.1918375
21
82.8595833
0
LINE
8
DEFAULT_255_2_778
10
16.8978729
20
81.2354854
11
16.8978729
21
82.4668854
0
LINE
8
DEFAULT_255_2_778
10
16.8978729
20
82.4668854
11
17.2635729
21
82.4668854
0
LINE
8
DEFAULT_255_2_778
10
17.2635729
20
82.4668854
11
17.2635729
21
81.2354854
0
LINE
8
DEFAULT_255_2_778
10
17.2635729
20
81.2354854
11
16.8978729
21
81.2354854
0
ARC
8
DEFAULT_255_2_778
10
17.0829435
20
82.859666
40
0.1978332
50
90.7257917
51
180.9507563
0
ARC
8
DEFAULT_255_2_778
10
17.0779161
20
82.8597493
40
0.1977501
50
359.0247012
51
89.2694187
0
ARC
8
DEFAULT_255_2_778
10
17.0779161
20
82.8530174
40
0.1977501
50
270.7305813
51
0.9752988
0
ARC
8
DEFAULT_255_2_778
10
17.0829435
20
82.8531007
40
0.1978332
50
179.0492437
51
269.2742083
0
LINE
8
DEFAULT_255_2_778
10
16.8851375
20
82.8563833
11
16.8851375
21
82.8563833
0
ARC
8
DEFAULT_255_2_778
10
22.0788624
20
81.1179788
40
0.399929
50
186.2090497
51
214.6438559
0
ARC
8
DEFAULT_255_2_778
10
21.9921847
20
81.078124
40
0.3064065
50
217.727985
51
266.8306819
0
ARC
8
DEFAULT_255_2_778
10
22.0316252
20
81.2884571
40
0.5193404
50
263.7675625
51
266.8049274
0
ARC
8
DEFAULT_255_2_778
10
22.0082454
20
81.0946919
40
0.2399325
50
195.4006145
51
268.6707088
0
ARC
8
DEFAULT_255_2_778
10
22.2805996
20
81.220676
40
0.5382116
50
193.3258898
51
200.6383232
0
ARC
8
DEFAULT_255_2_778
10
22.0638429
20
81.06769
40
0.3083241
50
141.9083968
51
174.6152863
0
ARC
8
DEFAULT_255_2_778
10
22.0026746
20
81.0936305
40
0.2447935
50
89.9988769
51
137.8510912
0
ARC
8
DEFAULT_255_2_778
10
21.9982309
20
81.1113687
40
0.3117869
50
89.1824841
51
162.3459304
0
ARC
8
DEFAULT_255_2_778
10
22.258036
20
80.9794629
40
0.6011919
50
157.8713755
51
162.5920001
0
ARC
8
DEFAULT_255_2_778
10
13.7766756
20
81.6484305
40
0.434232
50
284.0737984
51
307.1283935
0
ARC
8
DEFAULT_255_2_778
10
13.6851625
20
81.985007
40
0.7829896
50
272.5675489
51
284.5802087
0
ARC
8
DEFAULT_255_2_778
10
13.6592437
20
82.3439017
40
1.1427274
50
269.9523961
51
273.0596894
0
ARC
8
DEFAULT_255_2_778
10
13.6631315
20
82.7255793
40
1.5244123
50
264.3721605
51
269.8181894
0
ARC
8
DEFAULT_255_2_778
10
13.7276162
20
83.3973534
40
2.1992727
50
260.3040359
51
264.4165702
0
ARC
8
DEFAULT_255_2_778
10
13.8169183
20
83.9497771
40
2.75885
50
259.2299789
51
260.4081406
0
ARC
8
DEFAULT_255_2_778
10
13.5378686
20
81.7993398
40
0.6077178
50
188.8927198
51
247.0988028
0
ARC
8
DEFAULT_255_2_778
10
13.8804177
20
81.8904831
40
0.9609548
50
185.1081288
51
191.1050073
0
ARC
8
DEFAULT_255_2_778
10
13.7482073
20
81.8179785
40
0.8250312
50
161.5072483
51
180.9066349
0
ARC
8
DEFAULT_255_2_778
10
13.4992734
20
81.8967242
40
0.5639907
50
120.4701872
51
161.0725957
0
ARC
8
DEFAULT_255_2_778
10
13.5849214
20
81.8299885
40
0.6661417
50
90.0499347
51
123.9108507
0
ARC
8
DEFAULT_255_2_778
10
13.5978311
20
81.6734595
40
0.8227812
50
89.9974966
51
90.9394619
0
ARC
8
DEFAULT_255_2_778
10
13.5918811
20
81.5124209
40
0.9838382
50
77.8335832
51
89.6513936
0
ARC
8
DEFAULT_255_2_778
10
13.5043967
20
81.0945168
40
1.4107957
50
69.8093959
51
77.9373312
0
ARC
8
DEFAULT_255_2_778
10
13.4008346
20
80.7927522
40
1.7297745
50
69.0266426
51
70.0397415
0
ARC
8
DEFAULT_255_2_778
10
13.559202
20
80.8146779
40
1.4359408
50
73.9178594
51
79.2452957
0
ARC
8
DEFAULT_255_2_778
10
13.6567017
20
81.3349721
40
0.9065925
50
79.1629935
51
86.6049203
0
ARC
8
DEFAULT_255_2_778
10
13.6747301
20
81.5862944
40
0.654651
50
86.8774046
51
89.9568351
0
ARC
8
DEFAULT_255_2_778
10
13.6672581
20
81.823564
40
0.4174572
50
88.9067133
51
108.0688095
0
ARC
8
DEFAULT_255_2_778
10
13.6100304
20
81.9973074
40
0.2345328
50
107.942404
51
152.2459688
0
ARC
8
DEFAULT_255_2_778
10
14.3241597
20
81.6670486
40
1.0210941
50
154.5072776
51
162.5682748
0
ARC
8
DEFAULT_255_2_778
10
13.952215
20
81.7817929
40
0.6318603
50
162.3915767
51
174.8213024
0
ARC
8
DEFAULT_255_2_778
10
13.787072
20
81.8006035
40
0.4657093
50
175.2922289
51
179.9490984
0
ARC
8
DEFAULT_255_2_778
10
13.6599161
20
81.7932143
40
0.338643
50
178.6796766
51
234.9381893
0
ARC
8
DEFAULT_255_2_778
10
13.6575594
20
81.8048791
40
0.3469445
50
236.3635337
51
264.9414885
0
ARC
8
DEFAULT_255_2_778
10
13.6836236
20
81.9803656
40
0.5241505
50
263.7947872
51
270.1188666
0
ARC
8
DEFAULT_255_2_778
10
13.6783507
20
82.2177527
40
0.7615633
50
270.4785196
51
281.0719661
0
ARC
8
DEFAULT_255_2_778
10
13.5940398
20
82.6716133
40
1.2231753
50
280.8649891
51
287.2606546
0
ARC
8
DEFAULT_255_2_778
10
14.6487772
20
83.5045389
40
2.2970478
50
276.5245429
51
279.5045514
0
ARC
8
DEFAULT_255_2_778
10
14.7141671
20
82.9269037
40
1.7157236
50
272.7759418
51
276.5469051
0
ARC
8
DEFAULT_255_2_778
10
14.7339562
20
82.5466464
40
1.3349546
50
270.0439674
51
272.7180028
0
ARC
8
DEFAULT_255_2_778
10
14.7253399
20
82.0784869
40
0.8668484
50
258.6359382
51
270.6372354
0
ARC
8
DEFAULT_255_2_778
10
14.6326818
20
81.6425616
40
0.4212409
50
235.5405817
51
259.3086539
0
ARC
8
DEFAULT_255_2_778
10
14.5715943
20
81.5352304
40
0.2983588
50
181.5929591
51
233.550276
0
ARC
8
DEFAULT_255_2_778
10
14.7698134
20
81.5651912
40
0.4979343
50
179.9387066
51
184.4062155
0
ARC
8
DEFAULT_255_2_778
10
14.863071
20
81.6611312
40
0.2330741
50
194.3604277
51
259.8152315
0
ARC
8
DEFAULT_255_2_778
10
14.9677954
20
82.026728
40
0.6126343
50
256.2189254
51
270.9017933
0
ARC
8
DEFAULT_255_2_778
10
14.9769331
20
82.3940407
40
0.9798713
50
270.0294871
51
272.2486365
0
LINE
8
DEFAULT_255_2_778
10
15.6204794
20
82.4637239
11
15.9670794
21
82.4637239
0
LINE
8
DEFAULT_255_2_778
10
15.9670794
20
82.4637239
11
16.2379794
21
81.7224239
0
LINE
8
DEFAULT_255_2_778
10
16.2379794
20
81.7224239
11
16.5088794
21
82.4698239
0
LINE
8
DEFAULT_255_2_778
10
16.5088794
20
82.4698239
11
16.8176794
21
82.4698239
0
LINE
8
DEFAULT_255_2_778
10
16.8176794
20
82.4698239
11
16.3133794
21
81.2196239
0
LINE
8
DEFAULT_255_2_778
10
16.3133794
20
81.2196239
11
16.0926794
21
81.2196239
0
LINE
8
DEFAULT_255_2_778
10
16.0926794
20
81.2196239
11
15.6204794
21
82.4637239
0
LINE
8
DEFAULT_255_2_778
10
19.3386794
20
81.8229239
11
19.3605794
21
81.7411239
0
LINE
8
DEFAULT_255_2_778
10
19.3605794
20
81.7411239
11
19.4960794
21
81.8134239
0
LINE
8
DEFAULT_255_2_778
10
19.4960794
20
81.8134239
11
19.4960794
21
81.1569239
0
LINE
8
DEFAULT_255_2_778
10
19.4960794
20
81.1569239
11
19.5968794
21
81.1569239
0
LINE
8
DEFAULT_255_2_778
10
19.5968794
20
81.1569239
11
19.5904794
21
81.9044239
0
LINE
8
DEFAULT_255_2_778
10
19.5904794
20
81.9044239
11
19.5023794
21
81.9044239
0
LINE
8
DEFAULT_255_2_778
10
19.5023794
20
81.9044239
11
19.3386794
21
81.8229239
0
LINE
8
DEFAULT_255_2_778
10
6.2430794
20
83.0921239
11
6.3250794
21
83.0921239
0
LINE
8
DEFAULT_255_2_778
10
6.3250794
20
83.0921239
11
6.3250794
21
81.1352239
0
LINE
8
DEFAULT_255_2_778
10
6.3250794
20
81.1352239
11
18.5318794
21
81.1321239
0
LINE
8
DEFAULT_255_2_778
10
18.5318794
20
81.1321239
11
18.5350794
21
81.0503239
0
LINE
8
DEFAULT_255_2_778
10
18.5350794
20
81.0503239
11
6.2430794
21
81.0503239
0
LINE
8
DEFAULT_255_2_778
10
6.2430794
20
81.0503239
11
6.2430794
21
83.0858239
0
LINE
8
DEFAULT_255_2_778
10
19.0753794
20
81.1625239
11
19.0753794
21
81.0747239
0
LINE
8
DEFAULT_255_2_778
10
19.0753794
20
81.0747239
11
21.6812794
21
81.0747239
0
LINE
8
DEFAULT_255_2_778
10
22.0026794
20
80.7699239
11
22.0026794
21
80.8548239
0
LINE
8
DEFAULT_255_2_778
10
22.0026794
20
81.3384239
11
22.0026794
21
81.4231239
0
LINE
8
DEFAULT_255_2_778
10
21.6843794
20
81.1593239
11
19.0816794
21
81.1593239
0
LINE
8
DEFAULT_255_2_778
10
13.9630794
20
81.5033239
11
14.0387794
21
81.3022239
0
LINE
8
DEFAULT_255_2_778
10
14.0199794
20
82.4079239
11
13.9569794
21
82.1944239
0
LINE
8
DEFAULT_255_2_778
10
14.2718794
20
81.5657239
11
14.2718794
21
82.2565239
0
LINE
8
DEFAULT_255_2_778
10
14.2718794
20
82.2565239
11
14.0826794
21
82.2565239
0
LINE
8
DEFAULT_255_2_778
10
14.0826794
20
82.2565239
11
14.0826794
21
82.4701239
0
LINE
8
DEFAULT_255_2_778
10
14.0826794
20
82.4701239
11
14.2718794
21
82.4701239
0
LINE
8
DEFAULT_255_2_778
10
14.2718794
20
82.4701239
11
14.4104794
21
82.9725239
0
LINE
8
DEFAULT_255_2_778
10
14.4104794
20
82.9725239
11
14.6247794
21
82.9725239
0
LINE
8
DEFAULT_255_2_778
10
14.6247794
20
82.9725239
11
14.6374794
21
82.4701239
0
LINE
8
DEFAULT_255_2_778
10
14.6374794
20
82.4701239
11
14.9777794
21
82.4701239
0
LINE
8
DEFAULT_255_2_778
10
14.9777794
20
82.4701239
11
14.9777794
21
82.2565239
0
LINE
8
DEFAULT_255_2_778
10
14.9777794
20
82.2565239
11
14.6372794
21
82.2565239
0
LINE
8
DEFAULT_255_2_778
10
14.6372794
20
82.2565239
11
14.6372794
21
81.6033239
0
LINE
8
DEFAULT_255_2_778
10
15.0153794
20
81.4149239
11
15.0280794
21
81.2390239
0
ARC
8
DEFAULT_255_2_778
10
18.3024027
20
81.0982006
40
0.5885618
50
314.1425413
51
331.9270918
0
ARC
8
DEFAULT_255_2_778
10
18.4398834
20
80.9580729
40
0.3922584
50
269.0322425
51
313.9868193
0
ARC
8
DEFAULT_255_2_778
10
18.4381885
20
81.1503771
40
0.5845273
50
255.6360648
51
269.5167247
0
ARC
8
DEFAULT_255_2_778
10
18.5134055
20
81.4538721
40
0.8971981
50
246.6811795
51
255.790956
0
ARC
8
DEFAULT_255_2_778
10
18.6382092
20
81.7569441
40
1.224929
50
243.4462224
51
246.9319367
0
ARC
8
DEFAULT_255_2_778
10
18.3621687
20
81.1864307
40
0.3648127
50
238.6960142
51
269.7522384
0
ARC
8
DEFAULT_255_2_778
10
18.3585706
20
81.2204979
40
0.3988816
50
270.2902271
51
286.0302682
0
ARC
8
DEFAULT_255_2_778
10
18.3439528
20
81.0421393
40
0.2399938
50
301.3239159
51
328.5484084
0
ARC
8
DEFAULT_255_2_778
10
17.8593662
20
81.3683932
40
0.8240117
50
326.7768178
51
337.3925755
0
ARC
8
DEFAULT_255_2_778
10
16.8007869
20
81.8270542
40
1.9776351
50
336.9149998
51
342.1307954
0
ARC
8
DEFAULT_255_2_778
10
18.1252835
20
81.6316636
40
0.1954042
50
190.120766
51
263.958695
0
ARC
8
DEFAULT_255_2_778
10
18.2014334
20
81.9342827
40
0.5062622
50
258.9866291
51
270.5697296
0
ARC
8
DEFAULT_255_2_778
10
18.204321
20
82.2517145
40
0.8236717
50
270.1493118
51
275.0745303
0
ARC
8
DEFAULT_255_2_778
10
18.1872931
20
82.4688127
40
1.0414275
50
274.9512067
51
276.4741818
0
ARC
8
DEFAULT_255_2_778
10
17.9114118
20
83.7250729
40
2.5197089
50
276.512457
51
279.4178429
0
ARC
8
DEFAULT_255_2_778
10
17.9872799
20
83.0547245
40
1.8450814
50
272.9002784
51
276.532699
0
ARC
8
DEFAULT_255_2_778
10
18.0109581
20
82.6124216
40
1.4021477
50
270.0528156
51
272.8484525
0
ARC
8
DEFAULT_255_2_778
10
18.0029255
20
82.1036315
40
0.8934054
50
259.5071449
51
270.5980454
0
ARC
8
DEFAULT_255_2_778
10
17.912813
20
81.6426743
40
0.4237716
50
238.7101736
51
260.1371304
0
ARC
8
DEFAULT_255_2_778
10
17.8289731
20
81.4962213
40
0.2551147
50
181.256628
51
237.7180126
0
LINE
8
DEFAULT_255_2_778
10
18.0906198
20
80.6612265
11
18.1726198
21
80.8747265
0
LINE
8
DEFAULT_255_2_778
10
18.6830198
20
81.2202265
11
18.2544198
21
82.2505265
0
LINE
8
DEFAULT_255_2_778
10
18.2544198
20
82.2505265
11
17.9329198
21
82.2505265
0
LINE
8
DEFAULT_255_2_778
10
17.9329198
20
82.2505265
11
17.9329198
21
81.5973265
0
LINE
8
DEFAULT_255_2_778
10
18.3047198
20
81.4340265
11
18.3237198
21
81.2393265
0
LINE
8
DEFAULT_255_2_778
10
17.5739198
20
81.4906265
11
17.5612198
21
82.2571265
0
LINE
8
DEFAULT_255_2_778
10
17.5612198
20
82.2571265
11
17.3720198
21
82.2571265
0
LINE
8
DEFAULT_255_2_778
10
17.3720198
20
82.2571265
11
17.3720198
21
82.4707265
0
LINE
8
DEFAULT_255_2_778
10
17.3720198
20
82.4707265
11
17.5736198
21
82.4707265
0
LINE
8
DEFAULT_255_2_778
10
17.5736198
20
82.4707265
11
17.6996198
21
82.9731265
0
LINE
8
DEFAULT_255_2_778
10
17.6996198
20
82.9731265
11
17.9139198
21
82.9731265
0
LINE
8
DEFAULT_255_2_778
10
17.9139198
20
82.9731265
11
17.9266198
21
82.4707265
0
LINE
8
DEFAULT_255_2_778
10
17.9266198
20
82.4707265
11
18.5568198
21
82.4707265
0
LINE
8
DEFAULT_255_2_778
10
18.5568198
20
82.4707265
11
18.8592198
21
81.6415265
0
LINE
8
DEFAULT_255_2_778
10
18.8592198
20
81.6415265
11
19.1616198
21
82.4707265
0
LINE
8
DEFAULT_255_2_778
10
19.1616198
20
82.4707265
11
19.4768198
21
82.4707265
0
LINE
8
DEFAULT_255_2_778
10
19.4768198
20
82.4707265
11
18.8214198
21
80.8247265
0
ARC
8
DEFAULT_255_2_778
10
20.4886862
20
81.5354313
40
0.5325132
50
158.8117849
51
180.8166314
0
ARC
8
DEFAULT_255_2_778
10
20.1842351
20
81.6615458
40
0.2032019
50
123.934274
51
160.9412119
0
ARC
8
DEFAULT_255_2_778
10
20.1146708
20
81.7545343
40
0.0874105
50
90.4874929
51
120.1257683
0
ARC
8
DEFAULT_255_2_778
10
20.1002562
20
81.7161743
40
0.1265082
50
24.4554496
51
83.7963195
0
ARC
8
DEFAULT_255_2_778
10
19.838393
20
81.5599289
40
0.4308905
50
5.6598625
51
28.957143
0
ARC
8
DEFAULT_255_2_778
10
19.6526819
20
81.5283841
40
0.6189454
50
359.9497817
51
6.8703696
0
ARC
8
DEFAULT_255_2_778
10
19.739561
20
81.5203406
40
0.532119
50
338.804197
51
0.8077062
0
ARC
8
DEFAULT_255_2_778
10
20.0434041
20
81.3943836
40
0.2034314
50
303.9637337
51
340.9394474
0
ARC
8
DEFAULT_255_2_778
10
20.1131773
20
81.3011817
40
0.0873432
50
270.4918639
51
300.1560267
0
ARC
8
DEFAULT_255_2_778
10
20.1275984
20
81.3396157
40
0.1265149
50
204.4617097
51
263.7964427
0
ARC
8
DEFAULT_255_2_778
10
20.3893028
20
81.4958099
40
0.4307345
50
185.6642403
51
208.9631817
0
ARC
8
DEFAULT_255_2_778
10
20.5745796
20
81.5273017
40
0.6183526
50
179.9499665
51
186.873664
0
ARC
8
DEFAULT_255_2_778
10
20.3794104
20
81.5319257
40
0.5240325
50
152.511927
51
180.7855003
0
ARC
8
DEFAULT_255_2_778
10
20.153316
20
81.6598056
40
0.264594
50
107.9689651
51
154.4798484
0
ARC
8
DEFAULT_255_2_778
10
20.1171586
20
81.7376433
40
0.1796984
50
90.01006
51
104.6572928
0
ARC
8
DEFAULT_255_2_778
10
20.1028885
20
81.686523
40
0.2312574
50
28.2083535
51
86.4700607
0
ARC
8
DEFAULT_255_2_778
10
19.8816202
20
81.5393591
40
0.4964429
50
2.8146136
51
31.1060953
0
ARC
8
DEFAULT_255_2_778
10
19.7786343
20
81.5248264
40
0.6000928
50
359.9919055
51
3.7176902
0
ARC
8
DEFAULT_255_2_778
10
19.8537274
20
81.5175993
40
0.5250483
50
332.6664514
51
0.7794307
0
ARC
8
DEFAULT_255_2_778
10
20.0799829
20
81.3904762
40
0.2658372
50
288.4439106
51
334.6152105
0
ARC
8
DEFAULT_255_2_778
10
20.1170892
20
81.3118069
40
0.1797652
50
270.012078
51
285.1556488
0
ARC
8
DEFAULT_255_2_778
10
20.1313807
20
81.3629594
40
0.2313572
50
208.2191033
51
266.4678588
0
ARC
8
DEFAULT_255_2_778
10
20.3525546
20
81.5101219
40
0.4964632
50
182.8162116
51
211.116011
0
ARC
8
DEFAULT_255_2_778
10
20.4554662
20
81.5246534
40
0.6000391
50
179.9915681
51
183.7193211
0
LINE
8
DEFAULT_255_2_778
10
19.9562271
20
81.5278417
11
19.9562271
21
81.5278417
0
LINE
8
DEFAULT_255_2_778
10
19.8554271
20
81.5247417
11
19.8554271
21
81.5247417
0
ARC
8
DEFAULT_255_2_778
10
21.0810862
20
81.5354313
40
0.5325132
50
158.8117849
51
180.8166314
0
ARC
8
DEFAULT_255_2_778
10
20.7766351
20
81.6615458
40
0.2032019
50
123.934274
51
160.9412119
0
ARC
8
DEFAULT_255_2_778
10
20.7070708
20
81.7545343
40
0.0874105
50
90.4874929
51
120.1257683
0
ARC
8
DEFAULT_255_2_778
10
20.6926562
20
81.7161743
40
0.1265082
50
24.4554496
51
83.7963195
0
ARC
8
DEFAULT_255_2_778
10
20.430793
20
81.5599289
40
0.4308905
50
5.6598625
51
28.957143
0
ARC
8
DEFAULT_255_2_778
10
20.2450819
20
81.5283841
40
0.6189454
50
359.9497817
51
6.8703696
0
ARC
8
DEFAULT_255_2_778
10
20.331961
20
81.5203406
40
0.532119
50
338.804197
51
0.8077062
0
ARC
8
DEFAULT_255_2_778
10
20.6358041
20
81.3943836
40
0.2034314
50
303.9637337
51
340.9394474
0
ARC
8
DEFAULT_255_2_778
10
20.7055773
20
81.3011817
40
0.0873432
50
270.4918639
51
300.1560267
0
ARC
8
DEFAULT_255_2_778
10
20.7199984
20
81.3396157
40
0.1265149
50
204.4617097
51
263.7964427
0
ARC
8
DEFAULT_255_2_778
10
20.9817028
20
81.4958099
40
0.4307345
50
185.6642403
51
208.9631817
0
ARC
8
DEFAULT_255_2_778
10
21.1669796
20
81.5273017
40
0.6183526
50
179.9499665
51
186.873664
0
ARC
8
DEFAULT_255_2_778
10
20.9718104
20
81.5319257
40
0.5240325
50
152.511927
51
180.7855003
0
ARC
8
DEFAULT_255_2_778
10
20.745716
20
81.6598056
40
0.264594
50
107.9689651
51
154.4798484
0
ARC
8
DEFAULT_255_2_778
10
20.7095586
20
81.7376433
40
0.1796984
50
90.01006
51
104.6572928
0
ARC
8
DEFAULT_255_2_778
10
20.6952885
20
81.686523
40
0.2312574
50
28.2083535
51
86.4700607
0
ARC
8
DEFAULT_255_2_778
10
20.4740202
20
81.5393591
40
0.4964429
50
2.8146136
51
31.1060953
0
ARC
8
DEFAULT_255_2_778
10
20.3710343
20
81.5248264
40
0.6000928
50
359.9919055
51
3.7176902
0
ARC
8
DEFAULT_255_2_778
10
20.4461274
20
81.5175993
40
0.5250483
50
332.6664514
51
0.7794307
0
ARC
8
DEFAULT_255_2_778
10
20.6723829
20
81.3904762
40
0.2658372
50
288.4439106
51
334.6152105
0
ARC
8
DEFAULT_255_2_778
10
20.7094892
20
81.3118069
40
0.1797652
50
270.012078
51
285.1556488
0
ARC
8
DEFAULT_255_2_778
10
20.7237807
20
81.3629594
40
0.2313572
50
208.2191033
51
266.4678588
0
ARC
8
DEFAULT_255_2_778
10
20.9449546
20
81.5101219
40
0.4964632
50
182.8162116
51
211.116011
0
ARC
8
DEFAULT_255_2_778
10
21.0478662
20
81.5246534
40
0.6000391
50
179.9915681
51
183.7193211
0
LINE
8
DEFAULT_255_2_778
10
20.5486271
20
81.5278417
11
20.5486271
21
81.5278417
0
LINE
8
DEFAULT_255_2_778
10
20.4478271
20
81.5247417
11
20.4478271
21
81.5247417
0
ARC
8
DEFAULT_255_2_778
10
21.6734862
20
81.5354313
40
0.5325132
50
158.8117849
51
180.8166314
0
ARC
8
DEFAULT_255_2_778
10
21.3690351
20
81.6615458
40
0.2032019
50
123.934274
51
160.9412119
0
ARC
8
DEFAULT_255_2_778
10
21.2994708
20
81.7545343
40
0.0874105
50
90.4874929
51
120.1257683
0
ARC
8
DEFAULT_255_2_778
10
21.2850562
20
81.7161743
40
0.1265082
50
24.4554496
51
83.7963195
0
ARC
8
DEFAULT_255_2_778
10
21.023193
20
81.5599289
40
0.4308905
50
5.6598625
51
28.957143
0
ARC
8
DEFAULT_255_2_778
10
20.8374819
20
81.5283841
40
0.6189454
50
359.9497817
51
6.8703696
0
ARC
8
DEFAULT_255_2_778
10
20.924361
20
81.5203406
40
0.532119
50
338.804197
51
0.8077062
0
ARC
8
DEFAULT_255_2_778
10
21.2282041
20
81.3943836
40
0.2034314
50
303.9637337
51
340.9394474
0
ARC
8
DEFAULT_255_2_778
10
21.2979773
20
81.3011817
40
0.0873432
50
270.4918639
51
300.1560267
0
ARC
8
DEFAULT_255_2_778
10
21.3123984
20
81.3396157
40
0.1265149
50
204.4617097
51
263.7964427
0
ARC
8
DEFAULT_255_2_778
10
21.5741028
20
81.4958099
40
0.4307345
50
185.6642403
51
208.9631817
0
ARC
8
DEFAULT_255_2_778
10
21.7593796
20
81.5273017
40
0.6183526
50
179.9499665
51
186.873664
0
ARC
8
DEFAULT_255_2_778
10
21.5642104
20
81.5319257
40
0.5240325
50
152.511927
51
180.7855003
0
ARC
8
DEFAULT_255_2_778
10
21.338116
20
81.6598056
40
0.264594
50
107.9689651
51
154.4798484
0
ARC
8
DEFAULT_255_2_778
10
21.3019586
20
81.7376433
40
0.1796984
50
90.01006
51
104.6572928
0
ARC
8
DEFAULT_255_2_778
10
21.2876885
20
81.686523
40
0.2312574
50
28.2083535
51
86.4700607
0
ARC
8
DEFAULT_255_2_778
10
21.0664202
20
81.5393591
40
0.4964429
50
2.8146136
51
31.1060953
0
ARC
8
DEFAULT_255_2_778
10
20.9634343
20
81.5248264
40
0.6000928
50
359.9919055
51
3.7176902
0
ARC
8
DEFAULT_255_2_778
10
21.0385274
20
81.5175993
40
0.5250483
50
332.6664514
51
0.7794307
0
ARC
8
DEFAULT_255_2_778
10
21.2647829
20
81.3904762
40
0.2658372
50
288.4439106
51
334.6152105
0
ARC
8
DEFAULT_255_2_778
10
21.3018892
20
81.3118069
40
0.1797652
50
270.012078
51
285.1556488
0
ARC
8
DEFAULT_255_2_778
10
21.3161807
20
81.3629594
40
0.2313572
50
208.2191033
51
266.4678588
0
ARC
8
DEFAULT_255_2_778
10
21.5373546
20
81.5101219
40
0.4964632
50
182.8162116
51
211.116011
0
ARC
8
DEFAULT_255_2_778
10
21.6402662
20
81.5246534
40
0.6000391
50
179.9915681
51
183.7193211
0
LINE
8
DEFAULT_255_2_778
10
21.1410271
20
81.5278417
11
21.1410271
21
81.5278417
0
LINE
8
DEFAULT_255_2_778
10
21.0402271
20
81.5247417
11
21.0402271
21
81.5247417
0
ARC
8
DEFAULT_255_2_778
10
9.3873819
20
81.8608426
40
0.1950108
50
91.6788031
51
181.813939
0
ARC
8
DEFAULT_255_2_778
10
9.375889
20
81.8607798
40
0.1950756
50
358.2051219
51
88.3021655
0
ARC
8
DEFAULT_255_2_778
10
9.3758891
20
81.8485596
40
0.1950754
50
271.6978133
51
1.7949071
0
ARC
8
DEFAULT_255_2_778
10
9.3873819
20
81.8484969
40
0.1950108
50
178.186061
51
268.3211969
0
ARC
8
DEFAULT_255_2_778
10
9.5333727
20
81.8614309
40
0.4668529
50
145.043768
51
180.8298084
0
ARC
8
DEFAULT_255_2_778
10
9.3902029
20
81.9691132
40
0.287883
50
91.6987406
51
146.2830079
0
ARC
8
DEFAULT_255_2_778
10
9.3664457
20
81.9521621
40
0.3050877
50
23.4934874
51
87.1398977
0
ARC
8
DEFAULT_255_2_778
10
9.2119732
20
81.8582629
40
0.484809
50
359.5753549
51
26.3944218
0
ARC
8
DEFAULT_255_2_778
10
9.2302375
20
81.84792
40
0.4665802
50
325.0256173
51
0.8288991
0
ARC
8
DEFAULT_255_2_778
10
9.3731106
20
81.7403699
40
0.2879274
50
271.7032906
51
326.2656695
0
ARC
8
DEFAULT_255_2_778
10
9.3969078
20
81.7574987
40
0.3053095
50
203.3271307
51
267.1389871
0
ARC
8
DEFAULT_255_2_778
10
9.5516258
20
81.851093
40
0.4850703
50
179.5775117
51
206.2433806
0
ARC
8
DEFAULT_255_2_778
10
9.3711242
20
81.8357025
40
0.6700752
50
95.9615992
51
178.9168048
0
ARC
8
DEFAULT_255_2_778
10
9.3941457
20
81.7676302
40
0.7403396
50
89.982733
51
97.186551
0
ARC
8
DEFAULT_255_2_778
10
9.3986015
20
81.7978279
40
0.7101545
50
48.1622127
51
90.3414937
0
ARC
8
DEFAULT_255_2_778
10
9.4447028
20
81.8468697
40
0.6428678
50
0.1336951
51
48.3079447
0
ARC
8
DEFAULT_255_2_778
10
9.4177539
20
81.8609035
40
0.6699322
50
275.9543621
51
358.9279918
0
ARC
8
DEFAULT_255_2_778
10
9.3945956
20
81.9297114
40
0.7409416
50
269.9824665
51
277.1836307
0
ARC
8
DEFAULT_255_2_778
10
9.3901051
20
81.8992743
40
0.7105173
50
228.7495498
51
270.3438303
0
ARC
8
DEFAULT_255_2_778
10
9.3444767
20
81.8498952
40
0.6433097
50
180.1358579
51
228.9051204
0
LINE
8
DEFAULT_255_2_778
10
11.1149688
20
82.1943698
11
11.1149688
21
81.5660698
0
ARC
8
DEFAULT_255_2_778
10
10.4507178
20
82.7592512
40
1.3656176
50
292.8223416
51
299.1049387
0
ARC
8
DEFAULT_255_2_778
10
10.7172229
20
82.1175623
40
0.6708024
50
282.4794629
51
293.1002978
0
ARC
8
DEFAULT_255_2_778
10
10.7905801
20
81.7920416
40
0.3371233
50
270.5838487
51
282.2615078
0
ARC
8
DEFAULT_255_2_778
10
10.7886817
20
81.625428
40
0.1705756
50
241.3798642
51
271.7918735
0
ARC
8
DEFAULT_255_2_778
10
10.7725697
20
81.588612
40
0.1305871
50
222.8095502
51
239.8477433
0
ARC
8
DEFAULT_255_2_778
10
10.8632448
20
81.7131648
40
0.2833162
50
195.5923976
51
228.8379937
0
ARC
8
DEFAULT_255_2_778
10
11.2482514
20
81.8369125
40
0.6875956
50
182.8988217
51
196.901328
0
ARC
8
DEFAULT_255_2_778
10
11.7546763
20
81.8790595
40
1.1956176
50
179.9089191
51
183.6886871
0
ARC
8
DEFAULT_255_2_778
10
12.1230229
20
81.8794544
40
1.5639636
50
177.2544012
51
179.9448392
0
LINE
8
DEFAULT_255_2_778
10
10.5608547
20
81.9543705
11
10.5608688
21
81.9546698
0
ARC
8
DEFAULT_255_2_778
10
11.0254754
20
81.8897208
40
0.4691244
50
149.0121274
51
172.0420019
0
ARC
8
DEFAULT_255_2_778
10
10.8596413
20
81.9801494
40
0.280511
50
88.5440138
51
147.4067729
0
ARC
8
DEFAULT_255_2_778
10
10.7906193
20
81.4299864
40
0.8340669
50
72.0203436
51
84.7616527
0
ARC
8
DEFAULT_255_2_778
10
10.9080282
20
81.8080191
40
0.4382821
50
61.8252032
51
71.3646611
0
ARC
8
DEFAULT_255_2_778
10
10.4986962
20
82.4784032
40
1.2918982
50
287.0682731
51
298.4915226
0
ARC
8
DEFAULT_255_2_778
10
10.6577818
20
81.9554772
40
0.7453122
50
270.6811176
51
287.1763457
0
ARC
8
DEFAULT_255_2_778
10
10.6665525
20
81.7894494
40
0.5792318
50
267.7358327
51
270.0088232
0
ARC
8
DEFAULT_255_2_778
10
10.6470952
20
81.6298768
40
0.4192211
50
203.9093897
51
269.5317059
0
ARC
8
DEFAULT_255_2_778
10
11.1145726
20
81.8892122
40
0.9528801
50
192.6009015
51
206.7737237
0
ARC
8
DEFAULT_255_2_778
10
11.5163822
20
81.9975427
40
1.3687639
50
192.6165694
51
193.3570279
0
ARC
8
DEFAULT_255_2_778
10
11.2164444
20
81.8917151
40
1.05363
50
182.6356817
51
190.5628607
0
ARC
8
DEFAULT_255_2_778
10
11.0629576
20
81.8821692
40
0.89987
50
180.0135228
51
182.4779265
0
ARC
8
DEFAULT_255_2_778
10
10.8371185
20
81.8980664
40
0.6742234
50
136.7456723
51
181.3691273
0
ARC
8
DEFAULT_255_2_778
10
10.687757
20
81.9868873
40
0.5059802
50
89.2314975
51
132.4774114
0
ARC
8
DEFAULT_255_2_778
10
10.6944571
20
81.8761601
40
0.6166618
50
87.8056342
51
89.9919799
0
ARC
8
DEFAULT_255_2_778
10
10.7056164
20
81.3344717
40
1.157965
50
70.3175508
51
89.3838437
0
ARC
8
DEFAULT_255_2_778
10
10.6142508
20
81.0269874
40
1.4783609
50
70.2024224
51
70.9971735
0
ARC
8
DEFAULT_255_2_778
10
6.8356463
20
82.5453908
40
0.4410946
50
358.399361
51
20.0218069
0
ARC
8
DEFAULT_255_2_778
10
7.0501301
20
82.6214859
40
0.2135292
50
20.5419455
51
86.7410997
0
ARC
8
DEFAULT_255_2_778
10
6.965547
20
82.5814555
40
0.314717
50
287.8983612
51
351.2113386
0
ARC
8
DEFAULT_255_2_778
10
7.0636919
20
82.5302198
40
0.618465
50
4.9299985
51
29.9140029
0
ARC
8
DEFAULT_255_2_778
10
7.1679648
20
82.5710178
40
0.5080106
50
31.7908677
51
73.6304902
0
ARC
8
DEFAULT_255_2_778
10
7.032524
20
82.1889821
40
0.9130031
50
72.2320975
51
84.9703096
0
ARC
8
DEFAULT_255_2_778
10
6.9980565
20
82.9537673
40
0.9427779
50
276.9765222
51
292.3131775
0
ARC
8
DEFAULT_255_2_778
10
7.177357
20
82.5462302
40
0.4978062
50
291.0302401
51
353.4987619
0
ARC
8
DEFAULT_255_2_778
10
6.907836
20
82.6015679
40
0.7722473
50
351.6832812
51
358.6496898
0
LINE
8
DEFAULT_255_2_778
10
9.1924688
20
81.8546698
11
9.1924688
21
81.8546698
0
LINE
8
DEFAULT_255_2_778
10
9.0665688
20
81.8546698
11
9.0665688
21
81.8546698
0
LINE
8
DEFAULT_255_2_778
10
8.7011688
20
81.8483698
11
8.7011688
21
81.8483698
0
LINE
8
DEFAULT_255_2_778
10
11.1149688
20
82.1943698
11
11.1149688
21
82.1943698
0
LINE
8
DEFAULT_255_2_778
10
11.1149688
20
82.4177698
11
11.1149688
21
83.1701698
0
LINE
8
DEFAULT_255_2_778
10
11.1149688
20
83.1701698
11
11.4787688
21
83.2114698
0
LINE
8
DEFAULT_255_2_778
10
11.4787688
20
83.2114698
11
11.4787688
21
81.2437698
0
LINE
8
DEFAULT_255_2_778
10
11.4787688
20
81.2437698
11
11.1231688
21
81.2437698
0
LINE
8
DEFAULT_255_2_778
10
11.1231688
20
81.2437698
11
11.1149688
21
81.3429698
0
LINE
8
DEFAULT_255_2_778
10
11.1149688
20
82.4179698
11
11.1149688
21
82.4177698
0
LINE
8
DEFAULT_255_2_778
10
7.0622688
20
82.8346698
11
6.7977688
21
82.8346698
0
LINE
8
DEFAULT_255_2_778
10
6.7977688
20
82.8346698
11
6.7977688
21
82.2819698
0
LINE
8
DEFAULT_255_2_778
10
6.7977688
20
82.2819698
11
7.0622688
21
82.2819698
0
LINE
8
DEFAULT_255_2_778
10
7.2765688
20
82.5333698
11
7.2765688
21
82.5330698
0
LINE
8
DEFAULT_255_2_778
10
7.1125688
20
83.0984698
11
6.4066688
21
83.0984698
0
LINE
8
DEFAULT_255_2_778
10
6.4066688
20
83.0984698
11
6.4066688
21
81.2389698
0
LINE
8
DEFAULT_255_2_778
10
6.4066688
20
81.2389698
11
6.7974688
21
81.2389698
0
LINE
8
DEFAULT_255_2_778
10
6.7974688
20
81.2389698
11
6.7974688
21
82.0179698
0
LINE
8
DEFAULT_255_2_778
10
6.7974688
20
82.0179698
11
7.1125688
21
82.0179698
0
LINE
8
DEFAULT_255_2_778
10
7.6798688
20
82.5833698
11
7.6798688
21
82.5833698
0
ARC
8
DEFAULT_255_2_778
10
19.7177964
20
82.4684316
40
0.1241506
50
90.5265294
51
180.7174335
0
ARC
8
DEFAULT_255_2_778
10
19.7155946
20
82.4684112
40
0.1241704
50
359.2920777
51
89.5104656
0
ARC
8
DEFAULT_255_2_778
10
19.7155946
20
82.4653429
40
0.1241704
50
270.4895344
51
0.7079223
0
ARC
8
DEFAULT_255_2_778
10
19.7177964
20
82.4653225
40
0.1241507
50
179.2825375
51
269.4734631
0
LINE
8
DEFAULT_255_2_778
10
19.5936555
20
82.4668771
11
19.5936555
21
82.4668771
0
ARC
8
DEFAULT_255_2_778
10
19.7159834
20
82.4671527
40
0.1600856
50
89.815832
51
180.0770398
0
ARC
8
DEFAULT_255_2_778
10
19.7170125
20
82.4671527
40
0.1600856
50
359.9229602
51
90.184168
0
ARC
8
DEFAULT_255_2_778
10
19.7169913
20
82.4666436
40
0.1601069
50
269.8234249
51
0.1051606
0
ARC
8
DEFAULT_255_2_778
10
19.7160045
20
82.4666437
40
0.160107
50
179.8948697
51
270.1765625
0
LINE
8
DEFAULT_255_2_778
10
19.5558979
20
82.4669375
11
19.5558979
21
82.4669375
0
ARC
8
DEFAULT_255_2_778
10
19.7173671
20
82.424243
40
0.0239886
50
28.4465281
51
103.4267637
0
ARC
8
DEFAULT_255_2_778
10
19.6923938
20
82.2119542
40
0.2364193
50
85.2923939
51
90.3233848
0
ARC
8
DEFAULT_255_2_778
10
19.7079096
20
81.8122581
40
0.7359887
50
91.4445043
51
94.5082143
0
ARC
8
DEFAULT_255_2_778
10
19.7011498
20
82.0376121
40
0.510537
50
90.0204411
51
91.3236595
0
ARC
8
DEFAULT_255_2_778
10
19.7067649
20
82.3132216
40
0.234999
50
77.9191012
51
91.4136047
0
ARC
8
DEFAULT_255_2_778
10
19.7539008
20
82.5094791
40
0.0335995
50
19.4828986
51
86.5059996
0
ARC
8
DEFAULT_255_2_778
10
19.7648421
20
82.5170932
40
0.0210433
50
359.8753665
51
9.8287108
0
ARC
8
DEFAULT_255_2_778
10
19.7362646
20
82.5219597
40
0.0498633
50
318.6549341
51
354.3463421
0
ARC
8
DEFAULT_255_2_778
10
19.6181615
20
82.6096366
40
0.1968255
50
312.3913188
51
322.2071703
0
ARC
8
DEFAULT_255_2_778
10
19.7323609
20
82.4214106
40
0.0466808
50
7.8211356
51
66.6544263
0
ARC
8
DEFAULT_255_2_778
10
19.5988118
20
82.3935628
40
0.1830194
50
4.3516874
51
10.7699648
0
ARC
8
DEFAULT_255_2_778
10
19.8039496
20
82.4037234
40
0.0229506
50
170.6553415
51
230.4661874
0
ARC
8
DEFAULT_255_2_778
10
19.7917715
20
82.3941989
40
0.0085297
50
253.4430888
51
270.5900942
0
ARC
8
DEFAULT_255_2_778
10
19.7115119
20
82.4906272
40
0.0341371
50
13.1090465
51
106.1583193
0
ARC
8
DEFAULT_255_2_778
10
19.6946118
20
82.3455504
40
0.1780193
50
87.6176468
51
90.0490737
0
ARC
8
DEFAULT_255_2_778
10
19.704515
20
82.5414726
40
0.0658749
50
261.2196532
51
305.0769943
0
ARC
8
DEFAULT_255_2_778
10
19.7330859
20
82.4951224
40
0.0119745
50
320.847334
51
0.7046022
0
LINE
8
DEFAULT_255_2_778
10
19.7921594
20
82.3854697
11
19.7511594
21
82.3854697
0
LINE
8
DEFAULT_255_2_778
10
19.7511594
20
82.3854697
11
19.7384594
21
82.4356697
0
LINE
8
DEFAULT_255_2_778
10
19.6910594
20
82.4483697
11
19.6910594
21
82.3856697
0
LINE
8
DEFAULT_255_2_778
10
19.6910594
20
82.3856697
11
19.6532594
21
82.3856697
0
LINE
8
DEFAULT_255_2_778
10
19.6532594
20
82.3856697
11
19.6500594
21
82.5459697
0
LINE
8
DEFAULT_255_2_778
10
19.7918594
20
82.3856697
11
19.7921594
21
82.3854697
0
LINE
8
DEFAULT_255_2_778
10
19.6944594
20
82.5235697
11
19.6944594
21
82.4763697
0
ARC
8
DEFAULT_255_2_778
10
22.0516426
20
81.1014609
40
0.1859656
50
91.2045372
51
181.4098501
0
ARC
8
DEFAULT_255_2_778
10
22.04384
20
81.1013785
40
0.1860476
50
358.6161552
51
88.8008978
0
ARC
8
DEFAULT_255_2_778
10
22.0437755
20
81.0924541
40
0.1861106
50
271.2185606
51
1.3643499
0
ARC
8
DEFAULT_255_2_778
10
22.0517085
20
81.0920751
40
0.1857322
50
178.57764
51
268.7736356
0
ARC
8
DEFAULT_255_2_778
10
22.9491426
20
81.1136609
40
0.1859656
50
91.2045372
51
181.4098501
0
ARC
8
DEFAULT_255_2_778
10
22.9413241
20
81.1136609
40
0.1859656
50
358.5901499
51
88.7954628
0
ARC
8
DEFAULT_255_2_778
10
22.9413241
20
81.1045099
40
0.1859656
50
271.2045372
51
1.4098501
0
ARC
8
DEFAULT_255_2_778
10
22.9491047
20
81.1042712
40
0.1857262
50
178.6072549
51
268.8056271
0
ARC
8
DEFAULT_255_2_778
10
22.5004267
20
81.1013785
40
0.1860476
50
91.1991022
51
181.3838448
0
ARC
8
DEFAULT_255_2_778
10
22.4926241
20
81.1014609
40
0.1859656
50
358.5901499
51
88.7954628
0
ARC
8
DEFAULT_255_2_778
10
22.4925595
20
81.0923716
40
0.1860286
50
271.2240081
51
1.3903789
0
ARC
8
DEFAULT_255_2_778
10
22.5004923
20
81.0921574
40
0.1858142
50
178.6036506
51
268.7791685
0
LINE
8
DEFAULT_255_2_778
10
21.8660334
20
81.0966854
11
21.8657334
21
81.0968854
0
LINE
8
DEFAULT_255_2_778
10
22.7634334
20
81.1087854
11
22.7632334
21
81.1090854
0
LINE
8
DEFAULT_255_2_778
10
22.3147334
20
81.0966854
11
22.3144334
21
81.0968854
0
ARC
8
DEFAULT_255_2_778
10
12.2412908
20
81.8621179
40
0.3756367
50
270.2518229
51
277.9224239
0
ARC
8
DEFAULT_255_2_778
10
12.2267567
20
81.6496058
40
0.163922
50
191.9135594
51
275.6664103
0
ARC
8
DEFAULT_255_2_778
10
12.2912552
20
81.7771972
40
0.6680449
50
207.8643513
51
221.7718618
0
ARC
8
DEFAULT_255_2_778
10
12.0737789
20
81.5707613
40
0.3684417
50
220.3588923
51
270.0277924
0
ARC
8
DEFAULT_255_2_778
10
12.0683238
20
81.7028085
40
0.5005206
50
270.6449322
51
287.6494066
0
ARC
8
DEFAULT_255_2_778
10
11.977822
20
81.9987608
40
0.8099892
50
287.4026496
51
297.6988649
0
ARC
8
DEFAULT_255_2_778
10
11.7698217
20
82.4019576
40
1.2636684
50
297.5514274
51
304.3018591
0
ARC
8
DEFAULT_255_2_778
10
12.3708589
20
81.6263997
40
0.1058286
50
290.4109967
51
338.4144294
0
ARC
8
DEFAULT_255_2_778
10
12.1869241
20
81.9955041
40
0.5177505
50
282.5203845
51
295.2483499
0
LINE
8
DEFAULT_255_2_778
10
12.0663656
20
81.6157664
11
12.0599656
21
82.4637664
0
LINE
8
DEFAULT_255_2_778
10
12.0599656
20
82.4637664
11
11.7006656
21
82.4637664
0
LINE
8
DEFAULT_255_2_778
10
11.7006656
20
82.4637664
11
11.7006656
21
81.4649664
0
LINE
8
DEFAULT_255_2_778
10
12.4819656
20
81.3580664
11
12.4946656
21
81.2450664
0
LINE
8
DEFAULT_255_2_778
10
12.4946656
20
81.2450664
11
12.8349656
21
81.2450664
0
LINE
8
DEFAULT_255_2_778
10
12.8349656
20
81.2450664
11
12.8349656
21
82.4764664
0
LINE
8
DEFAULT_255_2_778
10
12.8349656
20
82.4764664
11
12.4692656
21
82.4764664
0
LINE
8
DEFAULT_255_2_778
10
12.4692656
20
82.4764664
11
12.4692656
21
81.5842664
0
LINE
8
DEFAULT_255_2_778
10
9.3932417
20
68.6593991
11
10.7161417
21
68.6593991
0
LINE
8
DEFAULT_255_2_778
10
10.7161417
20
68.6593991
11
10.7161417
21
39.5551991
0
LINE
8
DEFAULT_255_2_778
10
10.7161417
20
34.2635991
11
10.7161417
21
5.1593991
0
LINE
8
DEFAULT_255_2_778
10
10.7161417
20
5.1593991
11
9.3932417
21
5.1593991
0
LINE
8
DEFAULT_255_2_778
10
9.3932834
20
39.5552333
11
12.0390834
21
39.5552333
0
LINE
8
DEFAULT_255_2_778
10
12.0390834
20
39.5552333
11
12.0390834
21
34.2635333
0
LINE
8
DEFAULT_255_2_778
10
12.0390834
20
34.2635333
11
9.3932834
21
34.2635333
0
LINE
8
DEFAULT_255_2_778
10
9.3932834
20
34.2635333
11
9.3932834
21
39.5552333
0
LINE
8
DEFAULT_255_2_778
10
10.187
20
34.7927666
11
10.187
21
39.0260666
0
LINE
8
DEFAULT_255_2_778
10
9.9224167
20
38.232375
11
10.1870167
21
39.026075
0
LINE
8
DEFAULT_255_2_778
10
10.1870167
20
39.026075
11
10.4516167
21
38.232375
0
LINE
8
DEFAULT_255_2_778
10
10.4516167
20
38.232375
11
9.9224167
21
38.232375
0
LINE
8
DEFAULT_255_2_778
10
11.2453
20
39.0260666
11
11.2453
21
34.7927666
0
LINE
8
DEFAULT_255_2_778
10
10.9807167
20
35.586475
11
11.2453167
21
34.792775
0
LINE
8
DEFAULT_255_2_778
10
11.2453167
20
34.792775
11
11.5099167
21
35.586475
0
LINE
8
DEFAULT_255_2_778
10
11.5099167
20
35.586475
11
10.9807167
21
35.586475
0
LINE
8
DEFAULT_255_2_778
10
19.9765417
20
68.6593991
11
18.6536417
21
68.6593991
0
LINE
8
DEFAULT_255_2_778
10
18.6536417
20
68.6593991
11
18.6536417
21
39.5551991
0
LINE
8
DEFAULT_255_2_778
10
18.6536417
20
34.2635991
11
18.6536417
21
5.1593991
0
LINE
8
DEFAULT_255_2_778
10
18.6536417
20
5.1593991
11
19.9765417
21
5.1593991
0
LINE
8
DEFAULT_255_2_778
10
17.3307834
20
39.5552333
11
19.9765834
21
39.5552333
0
LINE
8
DEFAULT_255_2_778
10
19.9765834
20
39.5552333
11
19.9765834
21
34.2635333
0
LINE
8
DEFAULT_255_2_778
10
19.9765834
20
34.2635333
11
17.3307834
21
34.2635333
0
LINE
8
DEFAULT_255_2_778
10
17.3307834
20
34.2635333
11
17.3307834
21
39.5552333
0
LINE
8
DEFAULT_255_2_778
10
18.1245
20
34.7927666
11
18.1245
21
39.0260666
0
LINE
8
DEFAULT_255_2_778
10
17.8599167
20
38.232375
11
18.1245167
21
39.026075
0
LINE
8
DEFAULT_255_2_778
10
18.1245167
20
39.026075
11
18.3891167
21
38.232375
0
LINE
8
DEFAULT_255_2_778
10
18.3891167
20
38.232375
11
17.8599167
21
38.232375
0
LINE
8
DEFAULT_255_2_778
10
19.1828
20
39.0260666
11
19.1828
21
34.7927666
0
LINE
8
DEFAULT_255_2_778
10
18.9182167
20
35.586475
11
19.1828167
21
34.792775
0
LINE
8
DEFAULT_255_2_778
10
19.1828167
20
34.792775
11
19.4474167
21
35.586475
0
LINE
8
DEFAULT_255_2_778
10
19.4474167
20
35.586475
11
18.9182167
21
35.586475
0
LINE
8
DEFAULT_255_1_234
10
4.9274119
20
76.1991792
11
4.9274119
21
76.0779
0
LINE
8
DEFAULT_255_1_234
10
4.9274119
20
76.0779
11
4.161184
21
76.0779
0
LINE
8
DEFAULT_255_1_234
10
4.161184
20
76.0779
11
4.161184
21
76.1847221
0
LINE
8
DEFAULT_255_1_234
10
4.161184
20
76.1847221
11
4.5659836
21
76.6344995
0
LINE
8
DEFAULT_255_1_234
10
4.2872823
20
76.9027595
11
4.1386952
21
76.9027595
0
LINE
8
DEFAULT_255_1_234
10
4.6535296
20
76.5389218
11
4.3402918
21
76.1991792
0
LINE
8
DEFAULT_255_1_234
10
4.3402918
20
76.1991792
11
4.9274119
21
76.1991792
0
ARC
8
DEFAULT_255_1_234
10
3.216967
20
77.8274527
40
1.8008286
50
318.5132453
51
320.7828378
0
ARC
8
DEFAULT_255_1_234
10
3.7456644
20
77.3971426
40
1.1191493
50
320.7372736
51
323.9737074
0
ARC
8
DEFAULT_255_1_234
10
4.1376501
20
77.1131361
40
0.6350923
50
323.8961724
51
328.6421089
0
ARC
8
DEFAULT_255_1_234
10
4.3423096
20
76.9869031
40
0.3946393
50
328.8299013
51
331.789948
0
ARC
8
DEFAULT_255_1_234
10
4.4420274
20
76.9354509
40
0.2824501
50
331.4255242
51
352.9364833
0
ARC
8
DEFAULT_255_1_234
10
4.4556775
20
76.9323976
40
0.2685315
50
353.2248685
51
0.0169286
0
ARC
8
DEFAULT_255_1_234
10
4.4766652
20
76.934695
40
0.2475536
50
359.4866256
51
15.9339782
0
ARC
8
DEFAULT_255_1_234
10
4.5273637
20
76.9483286
40
0.1950618
50
16.1714718
51
43.5284424
0
ARC
8
DEFAULT_255_1_234
10
4.5350946
20
76.9560573
40
0.184134
50
43.4415429
51
83.1661404
0
ARC
8
DEFAULT_255_1_234
10
4.5216864
20
76.8823771
40
0.258926
50
82.160215
51
90.1505798
0
ARC
8
DEFAULT_255_1_234
10
4.5185291
20
76.8286865
40
0.3126255
50
89.5460705
51
102.5418777
0
ARC
8
DEFAULT_255_1_234
10
4.4942377
20
76.9317665
40
0.2067346
50
102.1739365
51
129.2061916
0
ARC
8
DEFAULT_255_1_234
10
4.4863449
20
76.9442094
40
0.1921118
50
129.7279328
51
135.7542026
0
ARC
8
DEFAULT_255_1_234
10
4.4984977
20
76.9345045
40
0.2075944
50
136.175737
51
166.3674722
0
ARC
8
DEFAULT_255_1_234
10
4.5991896
20
76.9075182
40
0.3118201
50
165.9092917
51
178.8683903
0
ARC
8
DEFAULT_255_1_234
10
4.6856757
20
76.9028179
40
0.3983935
50
178.438168
51
180.0083905
0
ARC
8
DEFAULT_255_1_234
10
4.5455359
20
76.9067231
40
0.4068601
50
163.2878735
51
180.5581814
0
ARC
8
DEFAULT_255_1_234
10
4.4653621
20
76.928784
40
0.3237344
50
133.454115
51
162.9470031
0
ARC
8
DEFAULT_255_1_234
10
4.4832162
20
76.9098
40
0.349795
50
100.7869394
51
133.4384016
0
ARC
8
DEFAULT_255_1_234
10
4.5179934
20
76.7549319
40
0.5084616
50
89.6605301
51
101.3704185
0
ARC
8
DEFAULT_255_1_234
10
4.5246273
20
76.7610496
40
0.502348
50
78.2171172
51
90.4130393
0
ARC
8
DEFAULT_255_1_234
10
4.5601351
20
76.9234637
40
0.3361092
50
55.9268222
51
78.4888551
0
ARC
8
DEFAULT_255_1_234
10
4.5797791
20
76.9573324
40
0.2970617
50
47.9292255
51
55.4054003
0
ARC
8
DEFAULT_255_1_234
10
4.5899352
20
76.9676502
40
0.2825983
50
4.3347696
51
48.0560701
0
ARC
8
DEFAULT_255_1_234
10
4.4803745
20
76.9506601
40
0.393225
50
359.925209
51
5.5967654
0
ARC
8
DEFAULT_255_1_234
10
4.5232637
20
76.9562816
40
0.3503892
50
337.8914096
51
358.9967724
0
ARC
8
DEFAULT_255_1_234
10
4.2519049
20
77.0609706
40
0.6412172
50
326.9135351
51
338.3505194
0
ARC
8
DEFAULT_255_1_234
10
3.8533353
20
77.3164284
40
1.1146189
50
319.6472867
51
327.095818
0
ARC
8
DEFAULT_255_1_234
10
3.4700356
20
77.6326
40
1.6114559
50
317.2586784
51
319.9046139
0
LINE
8
DEFAULT_255_1_234
10
5.7121127
20
77.2473211
11
5.7121127
21
76.470652
0
LINE
8
DEFAULT_255_1_234
10
5.7121127
20
76.470652
11
5.8743538
21
76.470652
0
LINE
8
DEFAULT_255_1_234
10
5.8743538
20
76.470652
11
5.8743538
21
76.3493728
0
LINE
8
DEFAULT_255_1_234
10
5.8743538
20
76.3493728
11
5.7121127
21
76.3493728
0
LINE
8
DEFAULT_255_1_234
10
5.7121127
20
76.3493728
11
5.7121127
21
76.0779
0
LINE
8
DEFAULT_255_1_234
10
5.7121127
20
76.0779
11
5.5627224
21
76.0779
0
LINE
8
DEFAULT_255_1_234
10
5.5627224
20
76.0779
11
5.5627224
21
76.3493728
0
LINE
8
DEFAULT_255_1_234
10
5.5627224
20
76.3493728
11
5.0302181
21
76.3493728
0
LINE
8
DEFAULT_255_1_234
10
5.0302181
20
76.3493728
11
5.0302181
21
76.4369187
0
LINE
8
DEFAULT_255_1_234
10
5.0302181
20
76.4369187
11
5.5538875
21
77.2473211
0
LINE
8
DEFAULT_255_1_234
10
5.5538875
20
77.2473211
11
5.7121127
21
77.2473211
0
LINE
8
DEFAULT_255_1_234
10
5.5450525
20
77.0119912
11
5.1988846
21
76.470652
0
LINE
8
DEFAULT_255_1_234
10
5.1988846
20
76.470652
11
5.5627224
21
76.470652
0
LINE
8
DEFAULT_255_1_234
10
5.5627224
20
76.470652
11
5.5627224
21
77.0441181
0
LINE
8
DEFAULT_255_1_234
10
5.5627224
20
77.0441181
11
5.5450525
21
77.0119912
0
LINE
8
DEFAULT_255_1_234
10
6.101652
20
77.2473211
11
6.434166
21
76.2827093
0
LINE
8
DEFAULT_255_1_234
10
6.434166
20
76.2827093
11
6.7682863
21
77.2473211
0
LINE
8
DEFAULT_255_1_234
10
6.7682863
20
77.2473211
11
6.9369528
21
77.2473211
0
LINE
8
DEFAULT_255_1_234
10
6.9369528
20
77.2473211
11
6.5032389
21
76.0779
0
LINE
8
DEFAULT_255_1_234
10
6.5032389
20
76.0779
11
6.3666994
21
76.0779
0
LINE
8
DEFAULT_255_1_234
10
6.3666994
20
76.0779
11
5.9337887
21
77.2473211
0
LINE
8
DEFAULT_255_1_234
10
5.9337887
20
77.2473211
11
6.101652
21
77.2473211
0
ARC
8
DEFAULT_255_1_234
10
4.4276624
20
5.5020703
40
0.2822356
50
338.8763615
51
0.5166041
0
ARC
8
DEFAULT_255_1_234
10
4.4445278
20
5.4975208
40
0.2648703
50
325.8412414
51
338.4795939
0
ARC
8
DEFAULT_255_1_234
10
4.4054646
20
5.5246042
40
0.3124019
50
296.7586019
51
325.753654
0
ARC
8
DEFAULT_255_1_234
10
4.3766754
20
5.5730789
40
0.368668
50
296.0902311
51
297.3618122
0
ARC
8
DEFAULT_255_1_234
10
4.4024212
20
4.9176041
40
0.3518806
50
47.9009248
51
67.1946869
0
ARC
8
DEFAULT_255_1_234
10
4.4220454
20
4.9422395
40
0.320451
50
35.236241
51
47.551371
0
ARC
8
DEFAULT_255_1_234
10
4.4482072
20
4.9596993
40
0.2890103
50
359.2759738
51
35.4014081
0
ARC
8
DEFAULT_255_1_234
10
4.3737103
20
4.9523826
40
0.3635026
50
343.1294516
51
0.5776525
0
ARC
8
DEFAULT_255_1_234
10
4.4461648
20
4.932433
40
0.2883832
50
310.8497458
51
342.744803
0
ARC
8
DEFAULT_255_1_234
10
4.4043761
20
4.9801294
40
0.3517954
50
281.5473923
51
310.9169905
0
ARC
8
DEFAULT_255_1_234
10
4.368721
20
5.1354084
40
0.5110832
50
269.6192722
51
281.9789957
0
ARC
8
DEFAULT_255_1_234
10
4.3615
20
5.1354828
40
0.5111606
50
257.4584469
51
270.4287458
0
ARC
8
DEFAULT_255_1_234
10
4.3234143
20
4.9751344
40
0.3463762
50
228.7553743
51
257.8484423
0
ARC
8
DEFAULT_255_1_234
10
4.2924341
20
4.9378442
40
0.297916
50
184.0104442
51
228.5071787
0
ARC
8
DEFAULT_255_1_234
10
4.4087285
20
4.9555512
40
0.4152734
50
179.9315461
51
185.3254504
0
ARC
8
DEFAULT_255_1_234
10
4.2910931
20
4.9592992
40
0.2976554
50
145.6795913
51
180.6259649
0
ARC
8
DEFAULT_255_1_234
10
4.307428
20
4.9478929
40
0.3175776
50
115.5537925
51
145.6416199
0
ARC
8
DEFAULT_255_1_234
10
4.341521
20
4.8868028
40
0.3874232
50
113.2437915
51
116.2054627
0
ARC
8
DEFAULT_255_1_234
10
4.3262423
20
5.526658
40
0.3154751
50
222.9548379
51
244.1372485
0
ARC
8
DEFAULT_255_1_234
10
4.3140498
20
5.5129834
40
0.2972382
50
213.3439227
51
222.6271327
0
ARC
8
DEFAULT_255_1_234
10
4.2948433
20
5.4999308
40
0.274019
50
180.4316517
51
213.2713999
0
ARC
8
DEFAULT_255_1_234
10
4.3523434
20
5.504611
40
0.33158
50
179.9992944
51
181.1655061
0
ARC
8
DEFAULT_255_1_234
10
4.3932851
20
5.5080561
40
0.3725376
50
164.6186108
51
180.5292368
0
ARC
8
DEFAULT_255_1_234
10
4.3034714
20
5.5322101
40
0.2795349
50
132.2454369
51
164.5092287
0
ARC
8
DEFAULT_255_1_234
10
4.3321818
20
5.4997028
40
0.3229019
50
100.7052766
51
132.1387266
0
ARC
8
DEFAULT_255_1_234
10
4.362679
20
5.3619086
40
0.4639835
50
89.6732617
51
101.2449487
0
ARC
8
DEFAULT_255_1_234
10
4.3688988
20
5.379399
40
0.4464999
50
76.2876631
51
90.4586123
0
ARC
8
DEFAULT_255_1_234
10
4.399522
20
5.501622
40
0.3205023
50
47.8240157
51
76.4266918
0
ARC
8
DEFAULT_255_1_234
10
4.421777
20
5.527659
40
0.2862661
50
6.9168658
51
47.6261438
0
ARC
8
DEFAULT_255_1_234
10
4.3031173
20
5.505737
40
0.4067708
50
359.8419705
51
7.9694496
0
ARC
8
DEFAULT_255_1_234
10
4.337307
20
4.9616925
40
0.2513121
50
359.4454068
51
16.9256425
0
ARC
8
DEFAULT_255_1_234
10
4.3841881
20
4.9746033
40
0.2027071
50
17.292259
51
45.462717
0
ARC
8
DEFAULT_255_1_234
10
4.3787817
20
4.9699434
40
0.2098212
50
45.3028762
51
83.1921472
0
ARC
8
DEFAULT_255_1_234
10
4.3644501
20
4.8897895
40
0.2911472
50
82.2614531
51
90.143954
0
ARC
8
DEFAULT_255_1_234
10
4.3613621
20
4.913095
40
0.2678513
50
89.4959189
51
104.8579811
0
ARC
8
DEFAULT_255_1_234
10
4.343688
20
4.980089
40
0.1985654
50
104.8855873
51
135.2448349
0
ARC
8
DEFAULT_255_1_234
10
4.3486653
20
4.9756336
40
0.2052373
50
135.3398955
51
172.104394
0
ARC
8
DEFAULT_255_1_234
10
4.4293711
20
4.9601925
40
0.2873299
50
171.2651929
51
180.1859362
0
ARC
8
DEFAULT_255_1_234
10
4.4124412
20
4.9569733
40
0.2704083
50
179.515471
51
193.6466734
0
ARC
8
DEFAULT_255_1_234
10
4.3308181
20
4.9361777
40
0.1861855
50
193.3540587
51
225.8256931
0
ARC
8
DEFAULT_255_1_234
10
4.3348938
20
4.9432524
40
0.1941102
50
226.418029
51
255.8553723
0
ARC
8
DEFAULT_255_1_234
10
4.3605371
20
5.0368998
40
0.2911917
50
255.4655572
51
268.7985967
0
ARC
8
DEFAULT_255_1_234
10
4.3652563
20
5.1207491
40
0.3751331
50
268.3464808
51
270.0104874
0
ARC
8
DEFAULT_255_1_234
10
4.3675951
20
5.0523138
40
0.3067064
50
269.575914
51
282.0823146
0
ARC
8
DEFAULT_255_1_234
10
4.390086
20
4.9528803
40
0.2047712
50
281.7522535
51
306.6056425
0
ARC
8
DEFAULT_255_1_234
10
4.3999286
20
4.9367487
40
0.1859604
50
307.1350025
51
314.0277951
0
ARC
8
DEFAULT_255_1_234
10
4.396337
20
4.9393766
40
0.1903475
50
314.2553419
51
350.169324
0
ARC
8
DEFAULT_255_1_234
10
4.3111839
20
4.9578409
40
0.2774269
50
349.4145679
51
0.2930737
0
ARC
8
DEFAULT_255_1_234
10
4.3632272
20
5.4737353
40
0.2300764
50
89.477591
51
105.729794
0
ARC
8
DEFAULT_255_1_234
10
4.3496185
20
5.5242637
40
0.1777519
50
105.922966
51
135.1662921
0
ARC
8
DEFAULT_255_1_234
10
4.3516688
20
5.5228419
40
0.1802087
50
135.3053131
51
168.9882338
0
ARC
8
DEFAULT_255_1_234
10
4.434426
20
5.5038721
40
0.2650806
50
168.3802067
51
180.3602358
0
ARC
8
DEFAULT_255_1_234
10
4.411584
20
5.5001041
40
0.2422425
50
179.5029707
51
194.9126783
0
ARC
8
DEFAULT_255_1_234
10
4.3530501
20
5.484711
40
0.1817188
50
194.9722181
51
224.1943972
0
ARC
8
DEFAULT_255_1_234
10
4.3502368
20
5.4824169
40
0.1781027
50
224.2961434
51
262.0157375
0
ARC
8
DEFAULT_255_1_234
10
4.3644611
20
5.5555661
40
0.2525492
50
261.1250369
51
270.1959853
0
ARC
8
DEFAULT_255_1_234
10
4.3674366
20
5.5368339
40
0.233825
50
269.4825617
51
285.0988277
0
ARC
8
DEFAULT_255_1_234
10
4.3828525
20
5.478999
40
0.1739712
50
285.1585659
51
315.9484648
0
ARC
8
DEFAULT_255_1_234
10
4.3739537
20
5.4871886
40
0.1860616
50
316.0412958
51
351.9162715
0
ARC
8
DEFAULT_255_1_234
10
4.3006492
20
5.5013245
40
0.2606517
50
351.1056823
51
0.1936567
0
ARC
8
DEFAULT_255_1_234
10
4.3269321
20
5.5043369
40
0.234377
50
359.4789506
51
16.0679113
0
ARC
8
DEFAULT_255_1_234
10
4.374528
20
5.517181
40
0.1850875
50
16.3251951
51
44.791304
0
ARC
8
DEFAULT_255_1_234
10
4.3727561
20
5.5172339
40
0.186312
50
44.3958661
51
88.2498933
0
ARC
8
DEFAULT_255_1_234
10
4.3654115
20
5.4561154
40
0.2476868
50
86.9833827
51
90.0200148
0
LINE
8
DEFAULT_255_1_234
10
4.7556674
20
13.7473211
11
4.7556674
21
13.663791
0
LINE
8
DEFAULT_255_1_234
10
4.7556674
20
13.663791
11
4.2713536
21
12.5779
0
LINE
8
DEFAULT_255_1_234
10
4.2713536
20
12.5779
11
4.1155379
21
12.5779
0
LINE
8
DEFAULT_255_1_234
10
4.1155379
20
12.5779
11
4.5982454
21
13.6252387
0
LINE
8
DEFAULT_255_1_234
10
4.5982454
20
13.6252387
11
3.9653444
21
13.6252387
0
LINE
8
DEFAULT_255_1_234
10
3.9653444
20
13.6252387
11
3.9653444
21
13.7473211
0
LINE
8
DEFAULT_255_1_234
10
3.9653444
20
13.7473211
11
4.7556674
21
13.7473211
0
LINE
8
DEFAULT_255_1_234
10
4.5572835
20
21.6856243
11
4.5837882
21
21.6856243
0
LINE
8
DEFAULT_255_1_234
10
4.5837882
20
21.6856243
11
4.5837882
21
21.559526
0
LINE
8
DEFAULT_255_1_234
10
4.5837882
20
21.559526
11
4.5564803
21
21.559526
0
LINE
8
DEFAULT_255_1_234
10
4.0095189
20
20.9603583
11
4.0095189
21
21.0173836
0
LINE
8
DEFAULT_255_1_234
10
4.1589093
20
20.9981075
11
4.1589093
21
20.9434917
0
ARC
8
DEFAULT_255_1_234
10
4.5617151
20
21.0597455
40
0.4998079
50
90.6001036
51
104.514704
0
ARC
8
DEFAULT_255_1_234
10
4.5228667
20
21.2042131
40
0.3502176
50
104.2855254
51
133.862935
0
ARC
8
DEFAULT_255_1_234
10
4.5392424
20
21.193383
40
0.3693984
50
134.5302688
51
161.6210873
0
ARC
8
DEFAULT_255_1_234
10
4.7045613
20
21.1350895
40
0.5446739
50
161.2849839
51
174.2076652
0
ARC
8
DEFAULT_255_1_234
10
4.845255
20
21.1156787
40
0.6866274
50
173.7810589
51
174.9254635
0
ARC
8
DEFAULT_255_1_234
10
4.3902382
20
20.9773839
40
0.3033419
50
95.8330959
51
138.9954921
0
ARC
8
DEFAULT_255_1_234
10
4.4125738
20
20.8495375
40
0.4328947
50
89.8753725
51
97.0544009
0
ARC
8
DEFAULT_255_1_234
10
4.4173204
20
20.9330748
40
0.3493769
50
71.6407809
51
90.6240094
0
ARC
8
DEFAULT_255_1_234
10
4.4323777
20
20.9885082
40
0.2920396
50
39.6367836
51
71.019018
0
ARC
8
DEFAULT_255_1_234
10
4.368725
20
20.9334998
40
0.3761538
50
10.658731
51
39.9043955
0
ARC
8
DEFAULT_255_1_234
10
4.2139333
20
20.8998686
40
0.5345136
50
359.682601
51
11.132623
0
ARC
8
DEFAULT_255_1_234
10
4.2099464
20
20.892801
40
0.5385081
50
347.2486944
51
0.4369317
0
ARC
8
DEFAULT_255_1_234
10
4.3766941
20
20.8526807
40
0.3670249
50
318.1409698
51
347.6118597
0
ARC
8
DEFAULT_255_1_234
10
4.4091934
20
20.8259702
40
0.3250007
50
275.6342139
51
317.8248465
0
ARC
8
DEFAULT_255_1_234
10
4.3871045
20
20.9559219
40
0.4565864
50
269.8874292
51
276.7917694
0
ARC
8
DEFAULT_255_1_234
10
4.3816116
20
20.8533743
40
0.3540676
50
246.9140195
51
270.7437342
0
ARC
8
DEFAULT_255_1_234
10
4.3822506
20
20.8391384
40
0.3412781
50
218.1665114
51
245.878116
0
ARC
8
DEFAULT_255_1_234
10
4.4701967
20
20.9127279
40
0.455911
50
191.4115814
51
218.6077802
0
ARC
8
DEFAULT_255_1_234
10
4.6640056
20
20.9561833
40
0.6545001
50
179.6345085
51
191.7836486
0
ARC
8
DEFAULT_255_1_234
10
5.2222393
20
21.0240697
40
1.2127388
50
171.4525249
51
180.3158839
0
ARC
8
DEFAULT_255_1_234
10
4.7827269
20
21.0924608
40
0.7679464
50
157.9802646
51
171.6246686
0
ARC
8
DEFAULT_255_1_234
10
4.561329
20
21.1807421
40
0.5296008
50
141.4298019
51
157.854097
0
ARC
8
DEFAULT_255_1_234
10
4.497161
20
21.2261381
40
0.4511509
50
102.8715806
51
140.8564722
0
ARC
8
DEFAULT_255_1_234
10
4.5619226
20
20.9821552
40
0.7034845
50
90.3778349
51
103.5869322
0
ARC
8
DEFAULT_255_1_234
10
4.3881002
20
20.921673
40
0.2370698
50
89.8751008
51
126.2071704
0
ARC
8
DEFAULT_255_1_234
10
4.3926792
20
20.9062303
40
0.2522934
50
124.9745049
51
144.895901
0
ARC
8
DEFAULT_255_1_234
10
4.3750982
20
20.920556
40
0.2296779
50
145.2974905
51
160.2660252
0
ARC
8
DEFAULT_255_1_234
10
4.6823521
20
20.9403071
40
0.5234525
50
179.6514266
51
190.2855912
0
ARC
8
DEFAULT_255_1_234
10
4.5129658
20
20.9083786
40
0.3510893
50
190.0945431
51
207.5098196
0
ARC
8
DEFAULT_255_1_234
10
4.4563928
20
20.8814623
40
0.288489
50
207.9583163
51
216.3251085
0
ARC
8
DEFAULT_255_1_234
10
4.4224036
20
20.8535105
40
0.2445587
50
215.7661442
51
232.5456785
0
ARC
8
DEFAULT_255_1_234
10
4.3841019
20
20.8048482
40
0.1826382
50
232.8005391
51
270.6605633
0
ARC
8
DEFAULT_255_1_234
10
4.388672
20
20.8412612
40
0.2190529
50
269.35537
51
288.4744281
0
ARC
8
DEFAULT_255_1_234
10
4.3979617
20
20.8063118
40
0.1829749
50
289.1833337
51
322.9683818
0
ARC
8
DEFAULT_255_1_234
10
4.3368139
20
20.8545391
40
0.2608399
50
322.6007884
51
346.5182367
0
ARC
8
DEFAULT_255_1_234
10
4.2210735
20
20.8840616
40
0.3802777
50
346.2582162
51
358.7741648
0
ARC
8
DEFAULT_255_1_234
10
4.1192404
20
20.8895965
40
0.4822176
50
358.3755224
51
0.0098023
0
ARC
8
DEFAULT_255_1_234
10
4.1948591
20
20.8923657
40
0.4066078
50
359.6214041
51
11.2839074
0
ARC
8
DEFAULT_255_1_234
10
4.3225738
20
20.9190066
40
0.2761514
50
11.0482309
51
31.8146458
0
ARC
8
DEFAULT_255_1_234
10
4.3534781
20
20.9357584
40
0.2410679
50
32.3035391
51
38.082671
0
ARC
8
DEFAULT_255_1_234
10
4.3955441
20
20.9738662
40
0.1844966
50
36.825067
51
85.7415724
0
ARC
8
DEFAULT_255_1_234
10
4.3888274
20
20.9238301
40
0.2349122
50
85.0140713
51
90.0513278
0
LINE
8
DEFAULT_255_1_234
10
4.1878235
20
29.0086963
11
4.0689538
21
29.0392169
0
LINE
8
DEFAULT_255_1_234
10
4.0689538
20
29.0392169
11
4.1283887
21
29.6223211
0
LINE
8
DEFAULT_255_1_234
10
4.1283887
20
29.6223211
11
4.7275563
21
29.6223211
0
LINE
8
DEFAULT_255_1_234
10
4.7275563
20
29.6223211
11
4.7275563
21
29.4849784
0
LINE
8
DEFAULT_255_1_234
10
4.7275563
20
29.4849784
11
4.254487
21
29.4849784
0
LINE
8
DEFAULT_255_1_234
10
4.254487
20
29.4849784
11
4.2191473
21
29.1661184
0
LINE
8
DEFAULT_255_1_234
10
4.0271888
20
28.7605156
11
4.1677442
21
28.7605156
0
LINE
8
DEFAULT_255_1_234
10
4.2271791
20
29.0408232
11
4.1878235
21
29.0086963
0
ARC
8
DEFAULT_255_1_234
10
4.4046257
20
28.848123
40
0.3681349
50
93.7182161
51
120.2538958
0
ARC
8
DEFAULT_255_1_234
10
4.414052
20
28.7673394
40
0.449379
50
89.9660152
51
94.2496022
0
ARC
8
DEFAULT_255_1_234
10
4.4181254
20
28.8262549
40
0.390482
50
73.8043271
51
90.5585896
0
ARC
8
DEFAULT_255_1_234
10
4.4416151
20
28.9120602
40
0.3015334
50
41.3071453
51
73.5430202
0
ARC
8
DEFAULT_255_1_234
10
4.3999978
20
28.8762324
40
0.3564457
50
13.5075983
51
41.2174222
0
ARC
8
DEFAULT_255_1_234
10
4.2358182
20
28.8332486
40
0.5261351
50
1.1331335
51
13.8829381
0
ARC
8
DEFAULT_255_1_234
10
4.0946551
20
28.8256665
40
0.6674378
50
359.9919444
51
1.544251
0
ARC
8
DEFAULT_255_1_234
10
4.2223377
20
28.821528
40
0.5397702
50
347.8572367
51
0.4293338
0
ARC
8
DEFAULT_255_1_234
10
4.3973695
20
28.7818736
40
0.3603188
50
323.673004
51
348.1672506
0
ARC
8
DEFAULT_255_1_234
10
4.4268203
20
28.7639168
40
0.3259678
50
316.8171152
51
323.1492751
0
ARC
8
DEFAULT_255_1_234
10
4.4329392
20
28.760246
40
0.3189975
50
281.8396411
51
316.5457803
0
ARC
8
DEFAULT_255_1_234
10
4.3953656
20
28.9157762
40
0.4789527
50
269.5770101
51
282.4214771
0
ARC
8
DEFAULT_255_1_234
10
4.3882467
20
28.8944125
40
0.45759
50
256.2427136
51
270.4486331
0
ARC
8
DEFAULT_255_1_234
10
4.358337
20
28.7744229
40
0.3339303
50
228.9023911
51
256.3314342
0
ARC
8
DEFAULT_255_1_234
10
4.3509602
20
28.7627746
40
0.32031
50
193.753695
51
228.5271154
0
ARC
8
DEFAULT_255_1_234
10
4.4747556
20
28.79908
40
0.4492253
50
184.924711
51
194.497588
0
ARC
8
DEFAULT_255_1_234
10
4.4940123
20
28.8026591
40
0.3289787
50
187.3600538
51
198.6732863
0
ARC
8
DEFAULT_255_1_234
10
4.3890417
20
28.7662674
40
0.217884
50
198.4451669
51
217.794479
0
ARC
8
DEFAULT_255_1_234
10
4.3594592
20
28.7453085
40
0.1816698
50
218.2887171
51
228.5612368
0
ARC
8
DEFAULT_255_1_234
10
4.3692379
20
28.7584963
40
0.1980329
50
228.9654866
51
258.1234728
0
ARC
8
DEFAULT_255_1_234
10
4.3898089
20
28.8465833
40
0.2884748
50
257.7258293
51
270.401361
0
ARC
8
DEFAULT_255_1_234
10
4.3942975
20
28.8020821
40
0.2439788
50
269.4204404
51
286.4209037
0
ARC
8
DEFAULT_255_1_234
10
4.4091463
20
28.7481657
40
0.1880666
50
286.7251356
51
320.600362
0
ARC
8
DEFAULT_255_1_234
10
4.3708288
20
28.7792595
40
0.2374121
50
320.6712579
51
344.5441685
0
ARC
8
DEFAULT_255_1_234
10
4.2551614
20
28.8132045
40
0.3579479
50
344.2412205
51
356.7357071
0
ARC
8
DEFAULT_255_1_234
10
4.1302763
20
28.8235444
40
0.4832297
50
356.3548756
51
0.0500261
0
ARC
8
DEFAULT_255_1_234
10
4.2639272
20
28.826665
40
0.3495889
50
359.5576869
51
12.953486
0
ARC
8
DEFAULT_255_1_234
10
4.3694169
20
28.8522434
40
0.2410532
50
12.6490276
51
41.6081334
0
ARC
8
DEFAULT_255_1_234
10
4.392454
20
28.8718321
40
0.2108218
50
41.7850273
51
85.9892764
0
ARC
8
DEFAULT_255_1_234
10
4.3801277
20
28.7905462
40
0.2928454
50
84.6957577
51
90.0676183
0
ARC
8
DEFAULT_255_1_234
10
4.3777761
20
28.7236716
40
0.3597255
50
89.6804936
51
99.1614436
0
ARC
8
DEFAULT_255_1_234
10
4.3572392
20
28.8464131
40
0.235281
50
98.9830931
51
113.8908934
0
ARC
8
DEFAULT_255_1_234
10
4.3342802
20
28.9005587
40
0.176479
50
114.1950727
51
127.3641004
0
LINE
8
DEFAULT_255_1_234
10
4.8395628
20
37.5598211
11
4.8395628
21
36.783152
0
LINE
8
DEFAULT_255_1_234
10
4.8395628
20
36.783152
11
5.0018039
21
36.783152
0
LINE
8
DEFAULT_255_1_234
10
5.0018039
20
36.783152
11
5.0018039
21
36.6618728
0
LINE
8
DEFAULT_255_1_234
10
5.0018039
20
36.6618728
11
4.8395628
21
36.6618728
0
LINE
8
DEFAULT_255_1_234
10
4.8395628
20
36.6618728
11
4.8395628
21
36.3904
0
LINE
8
DEFAULT_255_1_234
10
4.8395628
20
36.3904
11
4.6901725
21
36.3904
0
LINE
8
DEFAULT_255_1_234
10
4.6901725
20
36.3904
11
4.6901725
21
36.6618728
0
LINE
8
DEFAULT_255_1_234
10
4.6901725
20
36.6618728
11
4.1576682
21
36.6618728
0
LINE
8
DEFAULT_255_1_234
10
4.1576682
20
36.6618728
11
4.1576682
21
36.7494187
0
LINE
8
DEFAULT_255_1_234
10
4.1576682
20
36.7494187
11
4.6813375
21
37.5598211
0
LINE
8
DEFAULT_255_1_234
10
4.6813375
20
37.5598211
11
4.8395628
21
37.5598211
0
LINE
8
DEFAULT_255_1_234
10
4.6725026
20
37.3244912
11
4.3263347
21
36.783152
0
LINE
8
DEFAULT_255_1_234
10
4.3263347
20
36.783152
11
4.6901725
21
36.783152
0
LINE
8
DEFAULT_255_1_234
10
4.6901725
20
36.783152
11
4.6901725
21
37.3566181
0
LINE
8
DEFAULT_255_1_234
10
4.6901725
20
37.3566181
11
4.6725026
21
37.3244912
0
LINE
8
DEFAULT_255_1_234
10
4.2167378
20
44.8636169
11
4.2167378
21
44.9848962
0
LINE
8
DEFAULT_255_1_234
10
4.2167378
20
44.9848962
11
4.328379
21
44.9848962
0
LINE
8
DEFAULT_255_1_234
10
4.1380268
20
45.1905087
11
3.9894396
21
45.1905087
0
LINE
8
DEFAULT_255_1_234
10
3.9789983
20
44.6363188
11
4.1283887
21
44.6363188
0
LINE
8
DEFAULT_255_1_234
10
4.328379
20
44.8636169
11
4.2167378
21
44.8636169
0
ARC
8
DEFAULT_255_1_234
10
4.3254656
20
45.3241713
40
0.3392876
50
270.4919872
51
281.8951556
0
ARC
8
DEFAULT_255_1_234
10
4.3495918
20
45.2139702
40
0.2264817
50
281.6691735
51
301.2943132
0
ARC
8
DEFAULT_255_1_234
10
4.3666128
20
45.1828304
40
0.1910381
50
301.7833094
51
311.7545298
0
ARC
8
DEFAULT_255_1_234
10
4.3757704
20
45.1726748
40
0.1773635
50
311.7323931
51
354.2802411
0
ARC
8
DEFAULT_255_1_234
10
4.3031329
20
45.1851722
40
0.2509385
50
353.0937916
51
0.1181479
0
ARC
8
DEFAULT_255_1_234
10
4.2570114
20
45.1899386
40
0.2970898
50
359.1805295
51
15.0453146
0
ARC
8
DEFAULT_255_1_234
10
4.3915951
20
45.2291992
40
0.1569564
50
13.9577229
51
77.6713066
0
ARC
8
DEFAULT_255_1_234
10
4.352948
20
45.0906949
40
0.3006298
50
76.1116566
51
90.7026153
0
ARC
8
DEFAULT_255_1_234
10
4.3470318
20
45.1180545
40
0.2732568
50
89.5324876
51
103.531937
0
ARC
8
DEFAULT_255_1_234
10
4.3269762
20
45.1979884
40
0.1908508
50
103.2931773
51
133.5619022
0
ARC
8
DEFAULT_255_1_234
10
4.3225251
20
45.2039375
40
0.1834746
50
133.8349307
51
173.5344437
0
ARC
8
DEFAULT_255_1_234
10
4.3948294
20
45.1911213
40
0.2568033
50
172.5096846
51
180.1366907
0
ARC
8
DEFAULT_255_1_234
10
4.2997188
20
45.1945622
40
0.3103056
50
155.3484492
51
180.7484736
0
ARC
8
DEFAULT_255_1_234
10
4.2948277
20
45.1916846
40
0.3070957
50
131.5744599
51
154.4798489
0
ARC
8
DEFAULT_255_1_234
10
4.3261424
20
45.160031
40
0.3515643
50
96.9875458
51
131.9690667
0
ARC
8
DEFAULT_255_1_234
10
4.3480904
20
45.0354636
40
0.4779224
50
89.8596053
51
97.7825159
0
ARC
8
DEFAULT_255_1_234
10
4.3528967
20
45.0092616
40
0.5041361
50
78.3655447
51
90.4131539
0
ARC
8
DEFAULT_255_1_234
10
4.3886885
20
45.1751887
40
0.3344039
50
56.6229102
51
78.638727
0
ARC
8
DEFAULT_255_1_234
10
4.4101829
20
45.2127805
40
0.2912001
50
47.0253525
51
56.0854072
0
ARC
8
DEFAULT_255_1_234
10
4.4121609
20
45.2167223
40
0.2869704
50
10.9208013
51
46.7778124
0
ARC
8
DEFAULT_255_1_234
10
4.2757675
20
45.1851857
40
0.426899
50
359.6364486
51
11.6087304
0
ARC
8
DEFAULT_255_1_234
10
4.4592519
20
45.1836752
40
0.243409
50
332.3549906
51
359.7179418
0
ARC
8
DEFAULT_255_1_234
10
4.3942121
20
45.2145142
40
0.3153459
50
325.2333722
51
332.8745602
0
ARC
8
DEFAULT_255_1_234
10
4.4094744
20
45.2038828
40
0.2967456
50
292.9802137
51
325.2392345
0
ARC
8
DEFAULT_255_1_234
10
4.3820118
20
45.2572863
40
0.3566604
50
292.5402179
51
293.6924929
0
ARC
8
DEFAULT_255_1_234
10
4.4212714
20
44.6118091
40
0.3307468
50
57.6435486
51
72.8625112
0
ARC
8
DEFAULT_255_1_234
10
4.4567214
20
44.6692549
40
0.2632492
50
36.7248896
51
57.4697979
0
ARC
8
DEFAULT_255_1_234
10
4.4555847
20
44.670522
40
0.2634081
50
8.0545065
51
36.356114
0
ARC
8
DEFAULT_255_1_234
10
4.3693032
20
44.6550174
40
0.3510261
50
359.8320645
51
8.5869982
0
ARC
8
DEFAULT_255_1_234
10
4.3317808
20
44.6502101
40
0.3885653
50
343.9829931
51
0.5571613
0
ARC
8
DEFAULT_255_1_234
10
4.4204005
20
44.6259438
40
0.2966924
50
311.6359546
51
343.7651759
0
ARC
8
DEFAULT_255_1_234
10
4.3825574
20
44.6686102
40
0.3537231
50
279.7829875
51
311.6255694
0
ARC
8
DEFAULT_255_1_234
10
4.3524351
20
44.812328
40
0.5004971
50
269.7286406
51
280.3856417
0
ARC
8
DEFAULT_255_1_234
10
4.3462423
20
44.8081996
40
0.4963778
50
256.6828919
51
270.4412052
0
ARC
8
DEFAULT_255_1_234
10
4.3123719
20
44.6697394
40
0.3538406
50
229.4223008
51
256.8556159
0
ARC
8
DEFAULT_255_1_234
10
4.2709112
20
44.6230736
40
0.2914296
50
181.818294
51
229.6455059
0
ARC
8
DEFAULT_255_1_234
10
4.3749068
20
44.6361496
40
0.3959084
50
179.9755256
51
183.2323064
0
ARC
8
DEFAULT_255_1_234
10
4.3576814
20
44.6341037
40
0.2293034
50
179.4465117
51
196.2869258
0
ARC
8
DEFAULT_255_1_234
10
4.3089222
20
44.6207651
40
0.1787621
50
196.5661473
51
227.705904
0
ARC
8
DEFAULT_255_1_234
10
4.3253317
20
44.6391155
40
0.2033784
50
227.7652068
51
257.8762805
0
ARC
8
DEFAULT_255_1_234
10
4.3478287
20
44.7334156
40
0.3003081
50
257.4584385
51
270.426602
0
ARC
8
DEFAULT_255_1_234
10
4.3523853
20
44.7623996
40
0.329292
50
269.5962073
51
280.8789248
0
ARC
8
DEFAULT_255_1_234
10
4.3753382
20
44.6477685
40
0.2123908
50
280.6346389
51
299.8595945
0
ARC
8
DEFAULT_255_1_234
10
4.3944289
20
44.6115212
40
0.171457
50
300.3576302
51
314.5517981
0
ARC
8
DEFAULT_255_1_234
10
4.3861349
20
44.6175919
40
0.1816095
50
315.0728369
51
345.0431014
0
ARC
8
DEFAULT_255_1_234
10
4.2938163
20
44.6444841
40
0.2777492
50
344.5986631
51
357.9269593
0
ARC
8
DEFAULT_255_1_234
10
4.2042489
20
44.6506276
40
0.3674917
50
357.4748886
51
0.0231117
0
ARC
8
DEFAULT_255_1_234
10
4.3065599
20
44.6530679
40
0.2651907
50
359.5047933
51
13.4239635
0
ARC
8
DEFAULT_255_1_234
10
4.3932242
20
44.6752478
40
0.1757509
50
12.9498199
51
48.7551375
0
ARC
8
DEFAULT_255_1_234
10
4.3749976
20
44.65034
40
0.2065134
50
49.5088623
51
72.1836453
0
ARC
8
DEFAULT_255_1_234
10
4.3392129
20
44.5441291
40
0.3185836
50
71.9010081
51
84.3554254
0
ARC
8
DEFAULT_255_1_234
10
4.3230761
20
44.4080326
40
0.4556151
50
84.0193428
51
89.333121
0
LINE
8
DEFAULT_255_1_234
10
4.7669119
20
52.3866792
11
4.7669119
21
52.2654
0
LINE
8
DEFAULT_255_1_234
10
4.7669119
20
52.2654
11
4.000684
21
52.2654
0
LINE
8
DEFAULT_255_1_234
10
4.000684
20
52.2654
11
4.000684
21
52.3722221
0
LINE
8
DEFAULT_255_1_234
10
4.000684
20
52.3722221
11
4.4054836
21
52.8219995
0
LINE
8
DEFAULT_255_1_234
10
4.1267823
20
53.0902595
11
3.9781952
21
53.0902595
0
LINE
8
DEFAULT_255_1_234
10
4.4930296
20
52.7264218
11
4.1797918
21
52.3866792
0
LINE
8
DEFAULT_255_1_234
10
4.1797918
20
52.3866792
11
4.7669119
21
52.3866792
0
ARC
8
DEFAULT_255_1_234
10
3.056467
20
54.0149527
40
1.8008286
50
318.5132453
51
320.7828378
0
ARC
8
DEFAULT_255_1_234
10
3.5851644
20
53.5846426
40
1.1191493
50
320.7372736
51
323.9737074
0
ARC
8
DEFAULT_255_1_234
10
3.9771501
20
53.3006361
40
0.6350923
50
323.8961724
51
328.6421089
0
ARC
8
DEFAULT_255_1_234
10
4.1818096
20
53.1744031
40
0.3946393
50
328.8299013
51
331.789948
0
ARC
8
DEFAULT_255_1_234
10
4.2815274
20
53.1229509
40
0.2824501
50
331.4255242
51
352.9364833
0
ARC
8
DEFAULT_255_1_234
10
4.2951775
20
53.1198976
40
0.2685315
50
353.2248685
51
0.0169286
0
ARC
8
DEFAULT_255_1_234
10
4.3161652
20
53.122195
40
0.2475536
50
359.4866256
51
15.9339782
0
ARC
8
DEFAULT_255_1_234
10
4.3668637
20
53.1358286
40
0.1950618
50
16.1714718
51
43.5284424
0
ARC
8
DEFAULT_255_1_234
10
4.3745946
20
53.1435573
40
0.184134
50
43.4415429
51
83.1661404
0
ARC
8
DEFAULT_255_1_234
10
4.3611864
20
53.0698771
40
0.258926
50
82.160215
51
90.1505798
0
ARC
8
DEFAULT_255_1_234
10
4.3580291
20
53.0161865
40
0.3126255
50
89.5460705
51
102.5418777
0
ARC
8
DEFAULT_255_1_234
10
4.3337377
20
53.1192665
40
0.2067346
50
102.1739365
51
129.2061916
0
ARC
8
DEFAULT_255_1_234
10
4.3258449
20
53.1317094
40
0.1921118
50
129.7279328
51
135.7542026
0
ARC
8
DEFAULT_255_1_234
10
4.3379977
20
53.1220045
40
0.2075944
50
136.175737
51
166.3674722
0
ARC
8
DEFAULT_255_1_234
10
4.4386896
20
53.0950182
40
0.3118201
50
165.9092917
51
178.8683903
0
ARC
8
DEFAULT_255_1_234
10
4.5251757
20
53.0903179
40
0.3983935
50
178.438168
51
180.0083905
0
ARC
8
DEFAULT_255_1_234
10
4.3850359
20
53.0942231
40
0.4068601
50
163.2878735
51
180.5581814
0
ARC
8
DEFAULT_255_1_234
10
4.3048621
20
53.116284
40
0.3237344
50
133.454115
51
162.9470031
0
ARC
8
DEFAULT_255_1_234
10
4.3227162
20
53.0973
40
0.349795
50
100.7869394
51
133.4384016
0
ARC
8
DEFAULT_255_1_234
10
4.3574934
20
52.9424319
40
0.5084616
50
89.6605301
51
101.3704185
0
ARC
8
DEFAULT_255_1_234
10
4.3641273
20
52.9485496
40
0.502348
50
78.2171172
51
90.4130393
0
ARC
8
DEFAULT_255_1_234
10
4.3996351
20
53.1109637
40
0.3361092
50
55.9268222
51
78.4888551
0
ARC
8
DEFAULT_255_1_234
10
4.4192791
20
53.1448324
40
0.2970617
50
47.9292255
51
55.4054003
0
ARC
8
DEFAULT_255_1_234
10
4.4294352
20
53.1551502
40
0.2825983
50
4.3347696
51
48.0560701
0
ARC
8
DEFAULT_255_1_234
10
4.3198745
20
53.1381601
40
0.393225
50
359.925209
51
5.5967654
0
ARC
8
DEFAULT_255_1_234
10
4.3627637
20
53.1437816
40
0.3503892
50
337.8914096
51
358.9967724
0
ARC
8
DEFAULT_255_1_234
10
4.0914049
20
53.2484706
40
0.6412172
50
326.9135351
51
338.3505194
0
ARC
8
DEFAULT_255_1_234
10
3.6928353
20
53.5039284
40
1.1146189
50
319.6472867
51
327.095818
0
ARC
8
DEFAULT_255_1_234
10
3.3095356
20
53.8201
40
1.6114559
50
317.2586784
51
319.9046139
0
LINE
8
DEFAULT_255_1_234
10
4.4807137
20
61.3779433
11
4.4807137
21
60.2029
0
LINE
8
DEFAULT_255_1_234
10
4.4807137
20
60.2029
11
4.3313234
21
60.2029
0
LINE
8
DEFAULT_255_1_234
10
4.3313234
20
60.2029
11
4.3313234
21
61.1932133
0
LINE
8
DEFAULT_255_1_234
10
4.3313234
20
61.1932133
11
4.0317396
21
61.0831785
0
LINE
8
DEFAULT_255_1_234
10
4.0317396
20
61.0831785
11
4.0317396
21
61.2181117
0
LINE
8
DEFAULT_255_1_234
10
4.0317396
20
61.2181117
11
4.4574217
21
61.3779433
0
LINE
8
DEFAULT_255_1_234
10
4.4574217
20
61.3779433
11
4.4807137
21
61.3779433
0
LINE
8
DEFAULT_255_1_234
10
4.801923
20
68.5114663
11
4.9569355
21
68.5114663
0
LINE
8
DEFAULT_255_1_234
10
4.0565777
20
68.6704947
11
4.0565777
21
68.7829391
0
LINE
8
DEFAULT_255_1_234
10
4.9569355
20
68.9339357
11
4.801923
21
68.9339357
0
LINE
8
DEFAULT_255_1_234
10
4.2115902
20
68.7789232
11
4.2115902
21
68.6656757
0
ARC
8
DEFAULT_255_1_234
10
4.4088742
20
68.5711846
40
0.5513052
50
340.1774281
51
353.7814284
0
ARC
8
DEFAULT_255_1_234
10
4.5660095
20
68.5126582
40
0.3836379
50
311.4558989
51
340.4421614
0
ARC
8
DEFAULT_255_1_234
10
4.5626763
20
68.5237528
40
0.3941894
50
282.4333181
51
310.7513653
0
ARC
8
DEFAULT_255_1_234
10
4.5187502
20
68.7052679
40
0.5809175
50
269.9358511
51
282.809604
0
ARC
8
DEFAULT_255_1_234
10
4.5135568
20
68.8510212
40
0.7266847
50
270.0021091
51
270.3581957
0
ARC
8
DEFAULT_255_1_234
10
4.5082985
20
68.5909585
40
0.4666519
50
250.7884749
51
270.6489167
0
ARC
8
DEFAULT_255_1_234
10
4.491482
20
68.5272319
40
0.4009729
50
219.3627325
51
250.0611886
0
ARC
8
DEFAULT_255_1_234
10
4.5744031
20
68.5977042
40
0.5097822
50
193.5479632
51
219.5756669
0
ARC
8
DEFAULT_255_1_234
10
4.8115652
20
68.6592919
40
0.7547848
50
181.1218675
51
193.87563
0
ARC
8
DEFAULT_255_1_234
10
5.0185833
20
68.670358
40
0.9620055
50
179.9918545
51
181.5394234
0
ARC
8
DEFAULT_255_1_234
10
4.8334935
20
68.7866788
40
0.7769248
50
169.5837241
51
180.2757934
0
ARC
8
DEFAULT_255_1_234
10
4.6497873
20
68.8206229
40
0.590109
50
155.0365899
51
169.6003176
0
ARC
8
DEFAULT_255_1_234
10
4.5362337
20
68.8753677
40
0.4640625
50
136.783148
51
155.2472683
0
ARC
8
DEFAULT_255_1_234
10
4.4972814
20
68.9084562
40
0.4130255
50
121.7633186
51
136.428115
0
ARC
8
DEFAULT_255_1_234
10
4.5107776
20
68.8835227
40
0.4413323
50
95.6459699
51
121.5490577
0
ARC
8
DEFAULT_255_1_234
10
4.5265058
20
68.7726949
40
0.55319
50
89.924208
51
96.1377933
0
ARC
8
DEFAULT_255_1_234
10
4.5315491
20
68.7845542
40
0.5413475
50
76.6779277
51
90.4563316
0
ARC
8
DEFAULT_255_1_234
10
4.5709114
20
68.9436114
40
0.3775041
50
47.485847
51
76.9287264
0
ARC
8
DEFAULT_255_1_234
10
4.5562087
20
68.9336159
40
0.3948286
50
16.5424086
51
46.8933463
0
ARC
8
DEFAULT_255_1_234
10
4.3954244
20
68.8807861
40
0.564021
50
5.4072051
51
17.0365086
0
ARC
8
DEFAULT_255_1_234
10
4.2515261
20
68.8576679
40
0.5556559
50
7.8891745
51
15.9239216
0
ARC
8
DEFAULT_255_1_234
10
4.4502274
20
68.9153631
40
0.3487515
50
15.7653144
51
27.9410532
0
ARC
8
DEFAULT_255_1_234
10
4.5606492
20
68.974479
40
0.2235026
50
27.8166557
51
46.4008329
0
ARC
8
DEFAULT_255_1_234
10
4.5656135
20
68.9739082
40
0.2205286
50
47.4371857
51
75.0698205
0
ARC
8
DEFAULT_255_1_234
10
4.5347529
20
68.8664765
40
0.3322915
50
74.7008593
51
87.8124495
0
ARC
8
DEFAULT_255_1_234
10
4.5274217
20
68.7608844
40
0.4380987
50
87.3814673
51
90.0240855
0
ARC
8
DEFAULT_255_1_234
10
4.523576
20
68.8786291
40
0.3203749
50
89.3451631
51
108.5745436
0
ARC
8
DEFAULT_255_1_234
10
4.5098865
20
68.9299908
40
0.2673494
50
109.2998449
51
143.3037509
0
ARC
8
DEFAULT_255_1_234
10
4.5860938
20
68.8713881
40
0.3634757
50
143.0753173
51
163.1916937
0
ARC
8
DEFAULT_255_1_234
10
4.7812666
20
68.8097967
40
0.5681262
50
162.9373603
51
174.6208611
0
ARC
8
DEFAULT_255_1_234
10
5.0438708
20
68.781001
40
0.8322832
50
174.3419979
51
180.1430411
0
ARC
8
DEFAULT_255_1_234
10
4.9507864
20
68.6615698
40
0.7392076
50
179.6817502
51
189.150529
0
ARC
8
DEFAULT_255_1_234
10
4.7007112
20
68.619919
40
0.4856932
50
188.9910863
51
203.5773039
0
ARC
8
DEFAULT_255_1_234
10
4.5927445
20
68.5751211
40
0.3688271
50
203.9077269
51
215.1312379
0
ARC
8
DEFAULT_255_1_234
10
4.5004539
20
68.5035941
40
0.2522457
50
213.9071664
51
263.8849284
0
ARC
8
DEFAULT_255_1_234
10
4.5129868
20
68.5820518
40
0.3316174
50
263.1758525
51
270.1031083
0
ARC
8
DEFAULT_255_1_234
10
4.516196
20
68.7067365
40
0.4563091
50
269.6719807
51
279.0609165
0
ARC
8
DEFAULT_255_1_234
10
4.5428728
20
68.5454907
40
0.2928759
50
278.8750225
51
293.6346586
0
ARC
8
DEFAULT_255_1_234
10
4.5748936
20
68.47029
40
0.2111472
50
293.8553404
51
310.0518804
0
ARC
8
DEFAULT_255_1_234
10
4.575379
20
68.4640516
40
0.2060917
50
311.0646779
51
332.0108348
0
ARC
8
DEFAULT_255_1_234
10
4.4561517
20
68.5297978
40
0.3422352
50
331.6588543
51
343.2878891
0
ARC
8
DEFAULT_255_1_234
10
4.2499032
20
68.5931798
40
0.5580003
50
343.1446044
51
351.010618
0
ARC
8
DEFAULT_255_1_234
10
4.0957678
20
68.6212871
40
0.7146438
50
350.7157277
51
351.1602153
0
LINE
8
DEFAULT_255_1_234
10
5.6171444
20
69.3154433
11
5.6171444
21
68.1404
0
LINE
8
DEFAULT_255_1_234
10
5.6171444
20
68.1404
11
5.4677541
21
68.1404
0
LINE
8
DEFAULT_255_1_234
10
5.4677541
20
68.1404
11
5.4677541
21
69.1307133
0
LINE
8
DEFAULT_255_1_234
10
5.4677541
20
69.1307133
11
5.1681703
21
69.0206785
0
LINE
8
DEFAULT_255_1_234
10
5.1681703
20
69.0206785
11
5.1681703
21
69.1556117
0
LINE
8
DEFAULT_255_1_234
10
5.1681703
20
69.1556117
11
5.5938524
21
69.3154433
0
LINE
8
DEFAULT_255_1_234
10
5.5938524
20
69.3154433
11
5.6171444
21
69.3154433
0
LINE
8
DEFAULT_255_1_234
10
23.1656817
20
76.7694327
11
23.1656817
21
76.5766709
0
LINE
8
DEFAULT_255_1_234
10
22.427565
20
76.5565916
11
22.427565
21
76.7549755
0
LINE
8
DEFAULT_255_1_234
10
23.0170946
20
76.5365123
11
23.0170946
21
76.7798739
0
LINE
8
DEFAULT_255_1_234
10
22.5761521
20
76.7911184
11
22.5761521
21
76.5533789
0
ARC
8
DEFAULT_255_1_234
10
21.9409707
20
76.5717805
40
1.2247208
50
353.8441951
51
0.2287902
0
ARC
8
DEFAULT_255_1_234
10
22.4049211
20
76.5199806
40
0.7578929
50
344.4934747
51
353.9765454
0
ARC
8
DEFAULT_255_1_234
10
22.7041801
20
76.4348981
40
0.4467846
50
329.2803592
51
344.7472793
0
ARC
8
DEFAULT_255_1_234
10
22.8034626
20
76.3804018
40
0.3336173
50
324.9352394
51
328.6160465
0
ARC
8
DEFAULT_255_1_234
10
22.8411734
20
76.3540427
40
0.2876076
50
280.580143
51
324.9173126
0
ARC
8
DEFAULT_255_1_234
10
22.8010527
20
76.5211099
40
0.4592847
50
269.5977311
51
281.6734359
0
ARC
8
DEFAULT_255_1_234
10
22.7938433
20
76.5091173
40
0.4472986
50
256.6228859
51
270.51044
0
ARC
8
DEFAULT_255_1_234
10
22.753641
20
76.3542877
40
0.2873874
50
215.8618325
51
257.2788573
0
ARC
8
DEFAULT_255_1_234
10
22.8557442
20
76.4227977
40
0.4102928
50
197.9693508
51
215.2623606
0
ARC
8
DEFAULT_255_1_234
10
23.1042558
20
76.5066709
40
0.6725652
50
187.8816417
51
198.2346507
0
ARC
8
DEFAULT_255_1_234
10
23.5000766
20
76.5638079
40
1.0724845
50
180.8976217
51
188.0055519
0
ARC
8
DEFAULT_255_1_234
10
23.7800954
20
76.5741777
40
1.3526448
50
180.7449369
51
181.1510016
0
ARC
8
DEFAULT_255_1_234
10
23.6223683
20
76.7598042
40
1.1948131
50
173.7675579
51
180.231553
0
ARC
8
DEFAULT_255_1_234
10
23.170583
20
76.8108666
40
0.7401564
50
164.3058563
51
173.9002247
0
ARC
8
DEFAULT_255_1_234
10
22.8793899
20
76.8947656
40
0.4371288
50
148.7922025
51
164.568378
0
ARC
8
DEFAULT_255_1_234
10
22.7842351
20
76.9478929
40
0.3282386
50
144.5883898
51
148.1176286
0
ARC
8
DEFAULT_255_1_234
10
22.7499249
20
76.9718315
40
0.2864044
50
101.6440918
51
144.514236
0
ARC
8
DEFAULT_255_1_234
10
22.7924315
20
76.8029069
40
0.4604934
50
89.5284041
51
102.5819763
0
ARC
8
DEFAULT_255_1_234
10
22.8003403
20
76.7990018
40
0.464401
50
77.0437873
51
90.5081339
0
ARC
8
DEFAULT_255_1_234
10
22.8405405
20
76.9632615
40
0.2953195
50
48.2778575
51
77.4994676
0
ARC
8
DEFAULT_255_1_234
10
22.8478036
20
76.9761746
40
0.2808655
50
36.3142134
51
47.6305865
0
ARC
8
DEFAULT_255_1_234
10
22.7609343
20
76.9176515
40
0.3855453
50
18.2931786
51
35.6769206
0
ARC
8
DEFAULT_255_1_234
10
22.5066102
20
76.8303593
40
0.654423
50
8.024666
51
18.5605216
0
ARC
8
DEFAULT_255_1_234
10
22.0903022
20
76.7688792
40
1.0752407
50
1.1274072
51
8.1718305
0
ARC
8
DEFAULT_255_1_234
10
21.7667213
20
76.7561885
40
1.3990231
50
0.5424119
51
1.3863029
0
ARC
8
DEFAULT_255_1_234
10
21.948859
20
76.7834342
40
1.0682415
50
359.8090433
51
4.9407866
0
ARC
8
DEFAULT_255_1_234
10
22.3698604
20
76.8210113
40
0.6455691
50
4.8362157
51
12.2904523
0
ARC
8
DEFAULT_255_1_234
10
22.6453719
20
76.8823965
40
0.3633074
50
12.0805627
51
23.8173984
0
ARC
8
DEFAULT_255_1_234
10
22.7627425
20
76.9320919
40
0.2358723
50
24.2871213
51
31.3935614
0
ARC
8
DEFAULT_255_1_234
10
22.8152122
20
76.9664233
40
0.1732111
50
30.7407893
51
82.4657128
0
ARC
8
DEFAULT_255_1_234
10
22.7972256
20
76.8780691
40
0.263235
50
81.1060089
51
90.2184952
0
ARC
8
DEFAULT_255_1_234
10
22.7936555
20
76.9038924
40
0.2374236
50
89.3806855
51
105.6762551
0
ARC
8
DEFAULT_255_1_234
10
22.7753186
20
76.9705567
40
0.1682847
50
105.7981136
51
149.7388061
0
ARC
8
DEFAULT_255_1_234
10
22.8817264
20
76.906595
40
0.2924306
50
149.4208916
51
163.6286378
0
ARC
8
DEFAULT_255_1_234
10
23.0908152
20
76.842825
40
0.5110213
50
163.3763315
51
172.1410975
0
ARC
8
DEFAULT_255_1_234
10
23.4208871
20
76.7955518
40
0.8444586
50
172.0259487
51
178.0703232
0
ARC
8
DEFAULT_255_1_234
10
23.723896
20
76.7811906
40
1.1477868
50
177.8631668
51
179.5044149
0
ARC
8
DEFAULT_255_1_234
10
23.6166365
20
76.5497389
40
1.0404907
50
179.7995573
51
185.2460446
0
ARC
8
DEFAULT_255_1_234
10
23.2123404
20
76.5114513
40
0.6343885
50
185.1411642
51
193.0079639
0
ARC
8
DEFAULT_255_1_234
10
22.9479877
20
76.4489641
40
0.3627568
50
192.7897626
51
205.2507664
0
ARC
8
DEFAULT_255_1_234
10
22.8433424
20
76.4022415
40
0.2481908
50
205.8005384
51
211.2537509
0
ARC
8
DEFAULT_255_1_234
10
22.7909864
20
76.367158
40
0.1852521
50
210.3789793
51
238.4008143
0
ARC
8
DEFAULT_255_1_234
10
22.7890386
20
76.3718376
40
0.1882621
50
239.6520629
51
265.9793761
0
ARC
8
DEFAULT_255_1_234
10
22.7975586
20
76.4390427
40
0.2559272
50
265.1315437
51
270.060332
0
ARC
8
DEFAULT_255_1_234
10
22.8004365
20
76.4066534
40
0.2235528
50
269.3314664
51
287.2178029
0
ARC
8
DEFAULT_255_1_234
10
22.8142217
20
76.3563279
40
0.1714108
50
287.7958004
51
329.080874
0
ARC
8
DEFAULT_255_1_234
10
22.7184674
20
76.416093
40
0.2842745
50
328.6634704
51
343.3325132
0
ARC
8
DEFAULT_255_1_234
10
22.5011694
20
76.4837863
40
0.5118644
50
343.0499468
51
351.9393422
0
ARC
8
DEFAULT_255_1_234
10
22.1544994
20
76.5348949
40
0.8622784
50
351.8069023
51
357.7959224
0
ARC
8
DEFAULT_255_1_234
10
21.830955
20
76.5516721
40
1.1862365
50
357.5871873
51
359.2677531
0
LINE
8
DEFAULT_255_1_234
10
23.4492021
20
77.2473211
11
23.7817161
21
76.2827093
0
LINE
8
DEFAULT_255_1_234
10
23.7817161
20
76.2827093
11
24.1158364
21
77.2473211
0
LINE
8
DEFAULT_255_1_234
10
24.1158364
20
77.2473211
11
24.2845029
21
77.2473211
0
LINE
8
DEFAULT_255_1_234
10
24.2845029
20
77.2473211
11
23.850789
21
76.0779
0
LINE
8
DEFAULT_255_1_234
10
23.850789
20
76.0779
11
23.7142495
21
76.0779
0
LINE
8
DEFAULT_255_1_234
10
23.7142495
20
76.0779
11
23.2813388
21
77.2473211
0
LINE
8
DEFAULT_255_1_234
10
23.2813388
20
77.2473211
11
23.4492021
21
77.2473211
0
LINE
8
DEFAULT_255_1_234
10
22.4522522
20
5.8098211
11
22.7847662
21
4.8452093
0
LINE
8
DEFAULT_255_1_234
10
22.7847662
20
4.8452093
11
23.1188865
21
5.8098211
0
LINE
8
DEFAULT_255_1_234
10
23.1188865
20
5.8098211
11
23.287553
21
5.8098211
0
LINE
8
DEFAULT_255_1_234
10
23.287553
20
5.8098211
11
22.8538391
21
4.6404
0
LINE
8
DEFAULT_255_1_234
10
22.8538391
20
4.6404
11
22.7172996
21
4.6404
0
LINE
8
DEFAULT_255_1_234
10
22.7172996
20
4.6404
11
22.2843889
21
5.8098211
0
LINE
8
DEFAULT_255_1_234
10
22.2843889
20
5.8098211
11
22.4522522
21
5.8098211
0
LINE
8
DEFAULT_255_1_234
10
23.846562
20
5.6090276
11
23.846562
21
5.2676788
0
LINE
8
DEFAULT_255_1_234
10
23.846562
20
5.2676788
11
24.1726505
21
5.2676788
0
LINE
8
DEFAULT_255_1_234
10
24.1726505
20
5.2676788
11
24.1726505
21
5.1271233
0
LINE
8
DEFAULT_255_1_234
10
24.1726505
20
5.1271233
11
23.846562
21
5.1271233
0
LINE
8
DEFAULT_255_1_234
10
23.846562
20
5.1271233
11
23.846562
21
4.7576634
0
LINE
8
DEFAULT_255_1_234
10
23.846562
20
4.7576634
11
23.6971716
21
4.7576634
0
LINE
8
DEFAULT_255_1_234
10
23.6971716
20
4.7576634
11
23.6971716
21
5.1271233
0
LINE
8
DEFAULT_255_1_234
10
23.6971716
20
5.1271233
11
23.3710831
21
5.1271233
0
LINE
8
DEFAULT_255_1_234
10
23.3710831
20
5.1271233
11
23.3710831
21
5.2676788
0
LINE
8
DEFAULT_255_1_234
10
23.3710831
20
5.2676788
11
23.6971716
21
5.2676788
0
LINE
8
DEFAULT_255_1_234
10
23.6971716
20
5.2676788
11
23.6971716
21
5.6090276
0
LINE
8
DEFAULT_255_1_234
10
23.6971716
20
5.6090276
11
23.846562
21
5.6090276
0
LINE
8
DEFAULT_255_1_234
10
24.3368674
20
13.7473211
11
24.3368674
21
13.663791
0
LINE
8
DEFAULT_255_1_234
10
24.3368674
20
13.663791
11
23.8525536
21
12.5779
0
LINE
8
DEFAULT_255_1_234
10
23.8525536
20
12.5779
11
23.6967379
21
12.5779
0
LINE
8
DEFAULT_255_1_234
10
23.6967379
20
12.5779
11
24.1794454
21
13.6252387
0
LINE
8
DEFAULT_255_1_234
10
24.1794454
20
13.6252387
11
23.5465444
21
13.6252387
0
LINE
8
DEFAULT_255_1_234
10
23.5465444
20
13.6252387
11
23.5465444
21
13.7473211
0
LINE
8
DEFAULT_255_1_234
10
23.5465444
20
13.7473211
11
24.3368674
21
13.7473211
0
LINE
8
DEFAULT_255_1_234
10
24.1384835
20
21.6856243
11
24.1649882
21
21.6856243
0
LINE
8
DEFAULT_255_1_234
10
24.1649882
20
21.6856243
11
24.1649882
21
21.559526
0
LINE
8
DEFAULT_255_1_234
10
24.1649882
20
21.559526
11
24.1376803
21
21.559526
0
LINE
8
DEFAULT_255_1_234
10
23.5907189
20
20.9603583
11
23.5907189
21
21.0173836
0
LINE
8
DEFAULT_255_1_234
10
23.7401093
20
20.9981075
11
23.7401093
21
20.9434917
0
ARC
8
DEFAULT_255_1_234
10
24.1429151
20
21.0597455
40
0.4998079
50
90.6001036
51
104.514704
0
ARC
8
DEFAULT_255_1_234
10
24.1040667
20
21.2042131
40
0.3502176
50
104.2855254
51
133.862935
0
ARC
8
DEFAULT_255_1_234
10
24.1204424
20
21.193383
40
0.3693984
50
134.5302688
51
161.6210873
0
ARC
8
DEFAULT_255_1_234
10
24.2857613
20
21.1350895
40
0.5446739
50
161.2849839
51
174.2076652
0
ARC
8
DEFAULT_255_1_234
10
24.426455
20
21.1156787
40
0.6866274
50
173.7810589
51
174.9254635
0
ARC
8
DEFAULT_255_1_234
10
23.9714382
20
20.9773839
40
0.3033419
50
95.8330959
51
138.9954921
0
ARC
8
DEFAULT_255_1_234
10
23.9937738
20
20.8495375
40
0.4328947
50
89.8753725
51
97.0544009
0
ARC
8
DEFAULT_255_1_234
10
23.9985204
20
20.9330748
40
0.3493769
50
71.6407809
51
90.6240094
0
ARC
8
DEFAULT_255_1_234
10
24.0135777
20
20.9885082
40
0.2920396
50
39.6367836
51
71.019018
0
ARC
8
DEFAULT_255_1_234
10
23.949925
20
20.9334998
40
0.3761538
50
10.658731
51
39.9043955
0
ARC
8
DEFAULT_255_1_234
10
23.7951333
20
20.8998686
40
0.5345136
50
359.682601
51
11.132623
0
ARC
8
DEFAULT_255_1_234
10
23.7911464
20
20.892801
40
0.5385081
50
347.2486944
51
0.4369317
0
ARC
8
DEFAULT_255_1_234
10
23.9578941
20
20.8526807
40
0.3670249
50
318.1409698
51
347.6118597
0
ARC
8
DEFAULT_255_1_234
10
23.9903934
20
20.8259702
40
0.3250007
50
275.6342139
51
317.8248465
0
ARC
8
DEFAULT_255_1_234
10
23.9683045
20
20.9559219
40
0.4565864
50
269.8874292
51
276.7917694
0
ARC
8
DEFAULT_255_1_234
10
23.9628116
20
20.8533743
40
0.3540676
50
246.9140195
51
270.7437342
0
ARC
8
DEFAULT_255_1_234
10
23.9634506
20
20.8391384
40
0.3412781
50
218.1665114
51
245.878116
0
ARC
8
DEFAULT_255_1_234
10
24.0513967
20
20.9127279
40
0.455911
50
191.4115814
51
218.6077802
0
ARC
8
DEFAULT_255_1_234
10
24.2452056
20
20.9561833
40
0.6545001
50
179.6345085
51
191.7836486
0
ARC
8
DEFAULT_255_1_234
10
24.8034393
20
21.0240697
40
1.2127388
50
171.4525249
51
180.3158839
0
ARC
8
DEFAULT_255_1_234
10
24.3639269
20
21.0924608
40
0.7679464
50
157.9802646
51
171.6246686
0
ARC
8
DEFAULT_255_1_234
10
24.142529
20
21.1807421
40
0.5296008
50
141.4298019
51
157.854097
0
ARC
8
DEFAULT_255_1_234
10
24.078361
20
21.2261381
40
0.4511509
50
102.8715806
51
140.8564722
0
ARC
8
DEFAULT_255_1_234
10
24.1431226
20
20.9821552
40
0.7034845
50
90.3778349
51
103.5869322
0
ARC
8
DEFAULT_255_1_234
10
23.9693002
20
20.921673
40
0.2370698
50
89.8751008
51
126.2071704
0
ARC
8
DEFAULT_255_1_234
10
23.9738792
20
20.9062303
40
0.2522934
50
124.9745049
51
144.895901
0
ARC
8
DEFAULT_255_1_234
10
23.9562982
20
20.920556
40
0.2296779
50
145.2974905
51
160.2660252
0
ARC
8
DEFAULT_255_1_234
10
24.2635521
20
20.9403071
40
0.5234525
50
179.6514266
51
190.2855912
0
ARC
8
DEFAULT_255_1_234
10
24.0941658
20
20.9083786
40
0.3510893
50
190.0945431
51
207.5098196
0
ARC
8
DEFAULT_255_1_234
10
24.0375928
20
20.8814623
40
0.288489
50
207.9583163
51
216.3251085
0
ARC
8
DEFAULT_255_1_234
10
24.0036036
20
20.8535105
40
0.2445587
50
215.7661442
51
232.5456785
0
ARC
8
DEFAULT_255_1_234
10
23.9653019
20
20.8048482
40
0.1826382
50
232.8005391
51
270.6605633
0
ARC
8
DEFAULT_255_1_234
10
23.969872
20
20.8412612
40
0.2190529
50
269.35537
51
288.4744281
0
ARC
8
DEFAULT_255_1_234
10
23.9791617
20
20.8063118
40
0.1829749
50
289.1833337
51
322.9683818
0
ARC
8
DEFAULT_255_1_234
10
23.9180139
20
20.8545391
40
0.2608399
50
322.6007884
51
346.5182367
0
ARC
8
DEFAULT_255_1_234
10
23.8022735
20
20.8840616
40
0.3802777
50
346.2582162
51
358.7741648
0
ARC
8
DEFAULT_255_1_234
10
23.7004404
20
20.8895965
40
0.4822176
50
358.3755224
51
0.0098023
0
ARC
8
DEFAULT_255_1_234
10
23.7760591
20
20.8923657
40
0.4066078
50
359.6214041
51
11.2839074
0
ARC
8
DEFAULT_255_1_234
10
23.9037738
20
20.9190066
40
0.2761514
50
11.0482309
51
31.8146458
0
ARC
8
DEFAULT_255_1_234
10
23.9346781
20
20.9357584
40
0.2410679
50
32.3035391
51
38.082671
0
ARC
8
DEFAULT_255_1_234
10
23.9767441
20
20.9738662
40
0.1844966
50
36.825067
51
85.7415724
0
ARC
8
DEFAULT_255_1_234
10
23.9700274
20
20.9238301
40
0.2349122
50
85.0140713
51
90.0513278
0
LINE
8
DEFAULT_255_1_234
10
23.7690235
20
29.0086963
11
23.6501538
21
29.0392169
0
LINE
8
DEFAULT_255_1_234
10
23.6501538
20
29.0392169
11
23.7095887
21
29.6223211
0
LINE
8
DEFAULT_255_1_234
10
23.7095887
20
29.6223211
11
24.3087563
21
29.6223211
0
LINE
8
DEFAULT_255_1_234
10
24.3087563
20
29.6223211
11
24.3087563
21
29.4849784
0
LINE
8
DEFAULT_255_1_234
10
24.3087563
20
29.4849784
11
23.835687
21
29.4849784
0
LINE
8
DEFAULT_255_1_234
10
23.835687
20
29.4849784
11
23.8003473
21
29.1661184
0
LINE
8
DEFAULT_255_1_234
10
23.6083888
20
28.7605156
11
23.7489442
21
28.7605156
0
LINE
8
DEFAULT_255_1_234
10
23.8083791
20
29.0408232
11
23.7690235
21
29.0086963
0
ARC
8
DEFAULT_255_1_234
10
23.9858257
20
28.848123
40
0.3681349
50
93.7182161
51
120.2538958
0
ARC
8
DEFAULT_255_1_234
10
23.995252
20
28.7673394
40
0.449379
50
89.9660152
51
94.2496022
0
ARC
8
DEFAULT_255_1_234
10
23.9993254
20
28.8262549
40
0.390482
50
73.8043271
51
90.5585896
0
ARC
8
DEFAULT_255_1_234
10
24.0228151
20
28.9120602
40
0.3015334
50
41.3071453
51
73.5430202
0
ARC
8
DEFAULT_255_1_234
10
23.9811978
20
28.8762324
40
0.3564457
50
13.5075983
51
41.2174222
0
ARC
8
DEFAULT_255_1_234
10
23.8170182
20
28.8332486
40
0.5261351
50
1.1331335
51
13.8829381
0
ARC
8
DEFAULT_255_1_234
10
23.6758551
20
28.8256665
40
0.6674378
50
359.9919444
51
1.544251
0
ARC
8
DEFAULT_255_1_234
10
23.8035377
20
28.821528
40
0.5397702
50
347.8572367
51
0.4293338
0
ARC
8
DEFAULT_255_1_234
10
23.9785695
20
28.7818736
40
0.3603188
50
323.673004
51
348.1672506
0
ARC
8
DEFAULT_255_1_234
10
24.0080203
20
28.7639168
40
0.3259678
50
316.8171152
51
323.1492751
0
ARC
8
DEFAULT_255_1_234
10
24.0141392
20
28.760246
40
0.3189975
50
281.8396411
51
316.5457803
0
ARC
8
DEFAULT_255_1_234
10
23.9765656
20
28.9157762
40
0.4789527
50
269.5770101
51
282.4214771
0
ARC
8
DEFAULT_255_1_234
10
23.9694467
20
28.8944125
40
0.45759
50
256.2427136
51
270.4486331
0
ARC
8
DEFAULT_255_1_234
10
23.939537
20
28.7744229
40
0.3339303
50
228.9023911
51
256.3314342
0
ARC
8
DEFAULT_255_1_234
10
23.9321602
20
28.7627746
40
0.32031
50
193.753695
51
228.5271154
0
ARC
8
DEFAULT_255_1_234
10
24.0559556
20
28.79908
40
0.4492253
50
184.924711
51
194.497588
0
ARC
8
DEFAULT_255_1_234
10
24.0752123
20
28.8026591
40
0.3289787
50
187.3600538
51
198.6732863
0
ARC
8
DEFAULT_255_1_234
10
23.9702417
20
28.7662674
40
0.217884
50
198.4451669
51
217.794479
0
ARC
8
DEFAULT_255_1_234
10
23.9406592
20
28.7453085
40
0.1816698
50
218.2887171
51
228.5612368
0
ARC
8
DEFAULT_255_1_234
10
23.9504379
20
28.7584963
40
0.1980329
50
228.9654866
51
258.1234728
0
ARC
8
DEFAULT_255_1_234
10
23.9710089
20
28.8465833
40
0.2884748
50
257.7258293
51
270.401361
0
ARC
8
DEFAULT_255_1_234
10
23.9754975
20
28.8020821
40
0.2439788
50
269.4204404
51
286.4209037
0
ARC
8
DEFAULT_255_1_234
10
23.9903463
20
28.7481657
40
0.1880666
50
286.7251356
51
320.600362
0
ARC
8
DEFAULT_255_1_234
10
23.9520288
20
28.7792595
40
0.2374121
50
320.6712579
51
344.5441685
0
ARC
8
DEFAULT_255_1_234
10
23.8363614
20
28.8132045
40
0.3579479
50
344.2412205
51
356.7357071
0
ARC
8
DEFAULT_255_1_234
10
23.7114763
20
28.8235444
40
0.4832297
50
356.3548756
51
0.0500261
0
ARC
8
DEFAULT_255_1_234
10
23.8451272
20
28.826665
40
0.3495889
50
359.5576869
51
12.953486
0
ARC
8
DEFAULT_255_1_234
10
23.9506169
20
28.8522434
40
0.2410532
50
12.6490276
51
41.6081334
0
ARC
8
DEFAULT_255_1_234
10
23.973654
20
28.8718321
40
0.2108218
50
41.7850273
51
85.9892764
0
ARC
8
DEFAULT_255_1_234
10
23.9613277
20
28.7905462
40
0.2928454
50
84.6957577
51
90.0676183
0
ARC
8
DEFAULT_255_1_234
10
23.9589761
20
28.7236716
40
0.3597255
50
89.6804936
51
99.1614436
0
ARC
8
DEFAULT_255_1_234
10
23.9384392
20
28.8464131
40
0.235281
50
98.9830931
51
113.8908934
0
ARC
8
DEFAULT_255_1_234
10
23.9154802
20
28.9005587
40
0.176479
50
114.1950727
51
127.3641004
0
LINE
8
DEFAULT_255_1_234
10
23.9975628
20
37.5598211
11
23.9975628
21
36.783152
0
LINE
8
DEFAULT_255_1_234
10
23.9975628
20
36.783152
11
24.1598039
21
36.783152
0
LINE
8
DEFAULT_255_1_234
10
24.1598039
20
36.783152
11
24.1598039
21
36.6618728
0
LINE
8
DEFAULT_255_1_234
10
24.1598039
20
36.6618728
11
23.9975628
21
36.6618728
0
LINE
8
DEFAULT_255_1_234
10
23.9975628
20
36.6618728
11
23.9975628
21
36.3904
0
LINE
8
DEFAULT_255_1_234
10
23.9975628
20
36.3904
11
23.8481725
21
36.3904
0
LINE
8
DEFAULT_255_1_234
10
23.8481725
20
36.3904
11
23.8481725
21
36.6618728
0
LINE
8
DEFAULT_255_1_234
10
23.8481725
20
36.6618728
11
23.3156682
21
36.6618728
0
LINE
8
DEFAULT_255_1_234
10
23.3156682
20
36.6618728
11
23.3156682
21
36.7494187
0
LINE
8
DEFAULT_255_1_234
10
23.3156682
20
36.7494187
11
23.8393375
21
37.5598211
0
LINE
8
DEFAULT_255_1_234
10
23.8393375
20
37.5598211
11
23.9975628
21
37.5598211
0
LINE
8
DEFAULT_255_1_234
10
23.8305026
20
37.3244912
11
23.4843347
21
36.783152
0
LINE
8
DEFAULT_255_1_234
10
23.4843347
20
36.783152
11
23.8481725
21
36.783152
0
LINE
8
DEFAULT_255_1_234
10
23.8481725
20
36.783152
11
23.8481725
21
37.3566181
0
LINE
8
DEFAULT_255_1_234
10
23.8481725
20
37.3566181
11
23.8305026
21
37.3244912
0
LINE
8
DEFAULT_255_1_234
10
23.7979378
20
44.8636169
11
23.7979378
21
44.9848962
0
LINE
8
DEFAULT_255_1_234
10
23.7979378
20
44.9848962
11
23.909579
21
44.9848962
0
LINE
8
DEFAULT_255_1_234
10
23.7192268
20
45.1905087
11
23.5706396
21
45.1905087
0
LINE
8
DEFAULT_255_1_234
10
23.5601983
20
44.6363188
11
23.7095887
21
44.6363188
0
LINE
8
DEFAULT_255_1_234
10
23.909579
20
44.8636169
11
23.7979378
21
44.8636169
0
ARC
8
DEFAULT_255_1_234
10
23.9066656
20
45.3241713
40
0.3392876
50
270.4919872
51
281.8951556
0
ARC
8
DEFAULT_255_1_234
10
23.9307918
20
45.2139702
40
0.2264817
50
281.6691735
51
301.2943132
0
ARC
8
DEFAULT_255_1_234
10
23.9478128
20
45.1828304
40
0.1910381
50
301.7833094
51
311.7545298
0
ARC
8
DEFAULT_255_1_234
10
23.9569704
20
45.1726748
40
0.1773635
50
311.7323931
51
354.2802411
0
ARC
8
DEFAULT_255_1_234
10
23.8843329
20
45.1851722
40
0.2509385
50
353.0937916
51
0.1181479
0
ARC
8
DEFAULT_255_1_234
10
23.8382114
20
45.1899386
40
0.2970898
50
359.1805295
51
15.0453146
0
ARC
8
DEFAULT_255_1_234
10
23.9727951
20
45.2291992
40
0.1569564
50
13.9577229
51
77.6713066
0
ARC
8
DEFAULT_255_1_234
10
23.934148
20
45.0906949
40
0.3006298
50
76.1116566
51
90.7026153
0
ARC
8
DEFAULT_255_1_234
10
23.9282318
20
45.1180545
40
0.2732568
50
89.5324876
51
103.531937
0
ARC
8
DEFAULT_255_1_234
10
23.9081762
20
45.1979884
40
0.1908508
50
103.2931773
51
133.5619022
0
ARC
8
DEFAULT_255_1_234
10
23.9037251
20
45.2039375
40
0.1834746
50
133.8349307
51
173.5344437
0
ARC
8
DEFAULT_255_1_234
10
23.9760294
20
45.1911213
40
0.2568033
50
172.5096846
51
180.1366907
0
ARC
8
DEFAULT_255_1_234
10
23.8809188
20
45.1945622
40
0.3103056
50
155.3484492
51
180.7484736
0
ARC
8
DEFAULT_255_1_234
10
23.8760277
20
45.1916846
40
0.3070957
50
131.5744599
51
154.4798489
0
ARC
8
DEFAULT_255_1_234
10
23.9073424
20
45.160031
40
0.3515643
50
96.9875458
51
131.9690667
0
ARC
8
DEFAULT_255_1_234
10
23.9292904
20
45.0354636
40
0.4779224
50
89.8596053
51
97.7825159
0
ARC
8
DEFAULT_255_1_234
10
23.9340967
20
45.0092616
40
0.5041361
50
78.3655447
51
90.4131539
0
ARC
8
DEFAULT_255_1_234
10
23.9698885
20
45.1751887
40
0.3344039
50
56.6229102
51
78.638727
0
ARC
8
DEFAULT_255_1_234
10
23.9913829
20
45.2127805
40
0.2912001
50
47.0253525
51
56.0854072
0
ARC
8
DEFAULT_255_1_234
10
23.9933609
20
45.2167223
40
0.2869704
50
10.9208013
51
46.7778124
0
ARC
8
DEFAULT_255_1_234
10
23.8569675
20
45.1851857
40
0.426899
50
359.6364486
51
11.6087304
0
ARC
8
DEFAULT_255_1_234
10
24.0404519
20
45.1836752
40
0.243409
50
332.3549906
51
359.7179418
0
ARC
8
DEFAULT_255_1_234
10
23.9754121
20
45.2145142
40
0.3153459
50
325.2333722
51
332.8745602
0
ARC
8
DEFAULT_255_1_234
10
23.9906744
20
45.2038828
40
0.2967456
50
292.9802137
51
325.2392345
0
ARC
8
DEFAULT_255_1_234
10
23.9632118
20
45.2572863
40
0.3566604
50
292.5402179
51
293.6924929
0
ARC
8
DEFAULT_255_1_234
10
24.0024714
20
44.6118091
40
0.3307468
50
57.6435486
51
72.8625112
0
ARC
8
DEFAULT_255_1_234
10
24.0379214
20
44.6692549
40
0.2632492
50
36.7248896
51
57.4697979
0
ARC
8
DEFAULT_255_1_234
10
24.0367847
20
44.670522
40
0.2634081
50
8.0545065
51
36.356114
0
ARC
8
DEFAULT_255_1_234
10
23.9505032
20
44.6550174
40
0.3510261
50
359.8320645
51
8.5869982
0
ARC
8
DEFAULT_255_1_234
10
23.9129808
20
44.6502101
40
0.3885653
50
343.9829931
51
0.5571613
0
ARC
8
DEFAULT_255_1_234
10
24.0016005
20
44.6259438
40
0.2966924
50
311.6359546
51
343.7651759
0
ARC
8
DEFAULT_255_1_234
10
23.9637574
20
44.6686102
40
0.3537231
50
279.7829875
51
311.6255694
0
ARC
8
DEFAULT_255_1_234
10
23.9336351
20
44.812328
40
0.5004971
50
269.7286406
51
280.3856417
0
ARC
8
DEFAULT_255_1_234
10
23.9274423
20
44.8081996
40
0.4963778
50
256.6828919
51
270.4412052
0
ARC
8
DEFAULT_255_1_234
10
23.8935719
20
44.6697394
40
0.3538406
50
229.4223008
51
256.8556159
0
ARC
8
DEFAULT_255_1_234
10
23.8521112
20
44.6230736
40
0.2914296
50
181.818294
51
229.6455059
0
ARC
8
DEFAULT_255_1_234
10
23.9561068
20
44.6361496
40
0.3959084
50
179.9755256
51
183.2323064
0
ARC
8
DEFAULT_255_1_234
10
23.9388814
20
44.6341037
40
0.2293034
50
179.4465117
51
196.2869258
0
ARC
8
DEFAULT_255_1_234
10
23.8901222
20
44.6207651
40
0.1787621
50
196.5661473
51
227.705904
0
ARC
8
DEFAULT_255_1_234
10
23.9065317
20
44.6391155
40
0.2033784
50
227.7652068
51
257.8762805
0
ARC
8
DEFAULT_255_1_234
10
23.9290287
20
44.7334156
40
0.3003081
50
257.4584385
51
270.426602
0
ARC
8
DEFAULT_255_1_234
10
23.9335853
20
44.7623996
40
0.329292
50
269.5962073
51
280.8789248
0
ARC
8
DEFAULT_255_1_234
10
23.9565382
20
44.6477685
40
0.2123908
50
280.6346389
51
299.8595945
0
ARC
8
DEFAULT_255_1_234
10
23.9756289
20
44.6115212
40
0.171457
50
300.3576302
51
314.5517981
0
ARC
8
DEFAULT_255_1_234
10
23.9673349
20
44.6175919
40
0.1816095
50
315.0728369
51
345.0431014
0
ARC
8
DEFAULT_255_1_234
10
23.8750163
20
44.6444841
40
0.2777492
50
344.5986631
51
357.9269593
0
ARC
8
DEFAULT_255_1_234
10
23.7854489
20
44.6506276
40
0.3674917
50
357.4748886
51
0.0231117
0
ARC
8
DEFAULT_255_1_234
10
23.8877599
20
44.6530679
40
0.2651907
50
359.5047933
51
13.4239635
0
ARC
8
DEFAULT_255_1_234
10
23.9744242
20
44.6752478
40
0.1757509
50
12.9498199
51
48.7551375
0
ARC
8
DEFAULT_255_1_234
10
23.9561976
20
44.65034
40
0.2065134
50
49.5088623
51
72.1836453
0
ARC
8
DEFAULT_255_1_234
10
23.9204129
20
44.5441291
40
0.3185836
50
71.9010081
51
84.3554254
0
ARC
8
DEFAULT_255_1_234
10
23.9042761
20
44.4080326
40
0.4556151
50
84.0193428
51
89.333121
0
LINE
8
DEFAULT_255_1_234
10
24.3481119
20
52.3866792
11
24.3481119
21
52.2654
0
LINE
8
DEFAULT_255_1_234
10
24.3481119
20
52.2654
11
23.581884
21
52.2654
0
LINE
8
DEFAULT_255_1_234
10
23.581884
20
52.2654
11
23.581884
21
52.3722221
0
LINE
8
DEFAULT_255_1_234
10
23.581884
20
52.3722221
11
23.9866836
21
52.8219995
0
LINE
8
DEFAULT_255_1_234
10
23.7079823
20
53.0902595
11
23.5593952
21
53.0902595
0
LINE
8
DEFAULT_255_1_234
10
24.0742296
20
52.7264218
11
23.7609918
21
52.3866792
0
LINE
8
DEFAULT_255_1_234
10
23.7609918
20
52.3866792
11
24.3481119
21
52.3866792
0
ARC
8
DEFAULT_255_1_234
10
22.637667
20
54.0149527
40
1.8008286
50
318.5132453
51
320.7828378
0
ARC
8
DEFAULT_255_1_234
10
23.1663644
20
53.5846426
40
1.1191493
50
320.7372736
51
323.9737074
0
ARC
8
DEFAULT_255_1_234
10
23.5583501
20
53.3006361
40
0.6350923
50
323.8961724
51
328.6421089
0
ARC
8
DEFAULT_255_1_234
10
23.7630096
20
53.1744031
40
0.3946393
50
328.8299013
51
331.789948
0
ARC
8
DEFAULT_255_1_234
10
23.8627274
20
53.1229509
40
0.2824501
50
331.4255242
51
352.9364833
0
ARC
8
DEFAULT_255_1_234
10
23.8763775
20
53.1198976
40
0.2685315
50
353.2248685
51
0.0169286
0
ARC
8
DEFAULT_255_1_234
10
23.8973652
20
53.122195
40
0.2475536
50
359.4866256
51
15.9339782
0
ARC
8
DEFAULT_255_1_234
10
23.9480637
20
53.1358286
40
0.1950618
50
16.1714718
51
43.5284424
0
ARC
8
DEFAULT_255_1_234
10
23.9557946
20
53.1435573
40
0.184134
50
43.4415429
51
83.1661404
0
ARC
8
DEFAULT_255_1_234
10
23.9423864
20
53.0698771
40
0.258926
50
82.160215
51
90.1505798
0
ARC
8
DEFAULT_255_1_234
10
23.9392291
20
53.0161865
40
0.3126255
50
89.5460705
51
102.5418777
0
ARC
8
DEFAULT_255_1_234
10
23.9149377
20
53.1192665
40
0.2067346
50
102.1739365
51
129.2061916
0
ARC
8
DEFAULT_255_1_234
10
23.9070449
20
53.1317094
40
0.1921118
50
129.7279328
51
135.7542026
0
ARC
8
DEFAULT_255_1_234
10
23.9191977
20
53.1220045
40
0.2075944
50
136.175737
51
166.3674722
0
ARC
8
DEFAULT_255_1_234
10
24.0198896
20
53.0950182
40
0.3118201
50
165.9092917
51
178.8683903
0
ARC
8
DEFAULT_255_1_234
10
24.1063757
20
53.0903179
40
0.3983935
50
178.438168
51
180.0083905
0
ARC
8
DEFAULT_255_1_234
10
23.9662359
20
53.0942231
40
0.4068601
50
163.2878735
51
180.5581814
0
ARC
8
DEFAULT_255_1_234
10
23.8860621
20
53.116284
40
0.3237344
50
133.454115
51
162.9470031
0
ARC
8
DEFAULT_255_1_234
10
23.9039162
20
53.0973
40
0.349795
50
100.7869394
51
133.4384016
0
ARC
8
DEFAULT_255_1_234
10
23.9386934
20
52.9424319
40
0.5084616
50
89.6605301
51
101.3704185
0
ARC
8
DEFAULT_255_1_234
10
23.9453273
20
52.9485496
40
0.502348
50
78.2171172
51
90.4130393
0
ARC
8
DEFAULT_255_1_234
10
23.9808351
20
53.1109637
40
0.3361092
50
55.9268222
51
78.4888551
0
ARC
8
DEFAULT_255_1_234
10
24.0004791
20
53.1448324
40
0.2970617
50
47.9292255
51
55.4054003
0
ARC
8
DEFAULT_255_1_234
10
24.0106352
20
53.1551502
40
0.2825983
50
4.3347696
51
48.0560701
0
ARC
8
DEFAULT_255_1_234
10
23.9010745
20
53.1381601
40
0.393225
50
359.925209
51
5.5967654
0
ARC
8
DEFAULT_255_1_234
10
23.9439637
20
53.1437816
40
0.3503892
50
337.8914096
51
358.9967724
0
ARC
8
DEFAULT_255_1_234
10
23.6726049
20
53.2484706
40
0.6412172
50
326.9135351
51
338.3505194
0
ARC
8
DEFAULT_255_1_234
10
23.2740353
20
53.5039284
40
1.1146189
50
319.6472867
51
327.095818
0
ARC
8
DEFAULT_255_1_234
10
22.8907356
20
53.8201
40
1.6114559
50
317.2586784
51
319.9046139
0
LINE
8
DEFAULT_255_1_234
10
24.0785137
20
61.3779433
11
24.0785137
21
60.2029
0
LINE
8
DEFAULT_255_1_234
10
24.0785137
20
60.2029
11
23.9291234
21
60.2029
0
LINE
8
DEFAULT_255_1_234
10
23.9291234
20
60.2029
11
23.9291234
21
61.1932133
0
LINE
8
DEFAULT_255_1_234
10
23.9291234
20
61.1932133
11
23.6295396
21
61.0831785
0
LINE
8
DEFAULT_255_1_234
10
23.6295396
20
61.0831785
11
23.6295396
21
61.2181117
0
LINE
8
DEFAULT_255_1_234
10
23.6295396
20
61.2181117
11
24.0552217
21
61.3779433
0
LINE
8
DEFAULT_255_1_234
10
24.0552217
20
61.3779433
11
24.0785137
21
61.3779433
0
LINE
8
DEFAULT_255_1_234
10
23.186823
20
68.5114663
11
23.3418355
21
68.5114663
0
LINE
8
DEFAULT_255_1_234
10
22.4414777
20
68.6704947
11
22.4414777
21
68.7829391
0
LINE
8
DEFAULT_255_1_234
10
23.3418355
20
68.9339357
11
23.186823
21
68.9339357
0
LINE
8
DEFAULT_255_1_234
10
22.5964902
20
68.7789232
11
22.5964902
21
68.6656757
0
ARC
8
DEFAULT_255_1_234
10
22.7937742
20
68.5711846
40
0.5513052
50
340.1774281
51
353.7814284
0
ARC
8
DEFAULT_255_1_234
10
22.9509095
20
68.5126582
40
0.3836379
50
311.4558989
51
340.4421614
0
ARC
8
DEFAULT_255_1_234
10
22.9475763
20
68.5237528
40
0.3941894
50
282.4333181
51
310.7513653
0
ARC
8
DEFAULT_255_1_234
10
22.9036502
20
68.7052679
40
0.5809175
50
269.9358511
51
282.809604
0
ARC
8
DEFAULT_255_1_234
10
22.8984568
20
68.8510212
40
0.7266847
50
270.0021091
51
270.3581957
0
ARC
8
DEFAULT_255_1_234
10
22.8931985
20
68.5909585
40
0.4666519
50
250.7884749
51
270.6489167
0
ARC
8
DEFAULT_255_1_234
10
22.876382
20
68.5272319
40
0.4009729
50
219.3627325
51
250.0611886
0
ARC
8
DEFAULT_255_1_234
10
22.9593031
20
68.5977042
40
0.5097822
50
193.5479632
51
219.5756669
0
ARC
8
DEFAULT_255_1_234
10
23.1964652
20
68.6592919
40
0.7547848
50
181.1218675
51
193.87563
0
ARC
8
DEFAULT_255_1_234
10
23.4034833
20
68.670358
40
0.9620055
50
179.9918545
51
181.5394234
0
ARC
8
DEFAULT_255_1_234
10
23.2183935
20
68.7866788
40
0.7769248
50
169.5837241
51
180.2757934
0
ARC
8
DEFAULT_255_1_234
10
23.0346873
20
68.8206229
40
0.590109
50
155.0365899
51
169.6003176
0
ARC
8
DEFAULT_255_1_234
10
22.9211337
20
68.8753677
40
0.4640625
50
136.783148
51
155.2472683
0
ARC
8
DEFAULT_255_1_234
10
22.8821814
20
68.9084562
40
0.4130255
50
121.7633186
51
136.428115
0
ARC
8
DEFAULT_255_1_234
10
22.8956776
20
68.8835227
40
0.4413323
50
95.6459699
51
121.5490577
0
ARC
8
DEFAULT_255_1_234
10
22.9114058
20
68.7726949
40
0.55319
50
89.924208
51
96.1377933
0
ARC
8
DEFAULT_255_1_234
10
22.9164491
20
68.7845542
40
0.5413475
50
76.6779277
51
90.4563316
0
ARC
8
DEFAULT_255_1_234
10
22.9558114
20
68.9436114
40
0.3775041
50
47.485847
51
76.9287264
0
ARC
8
DEFAULT_255_1_234
10
22.9411087
20
68.9336159
40
0.3948286
50
16.5424086
51
46.8933463
0
ARC
8
DEFAULT_255_1_234
10
22.7803244
20
68.8807861
40
0.564021
50
5.4072051
51
17.0365086
0
ARC
8
DEFAULT_255_1_234
10
22.6364261
20
68.8576679
40
0.5556559
50
7.8891745
51
15.9239216
0
ARC
8
DEFAULT_255_1_234
10
22.8351274
20
68.9153631
40
0.3487515
50
15.7653144
51
27.9410532
0
ARC
8
DEFAULT_255_1_234
10
22.9455492
20
68.974479
40
0.2235026
50
27.8166557
51
46.4008329
0
ARC
8
DEFAULT_255_1_234
10
22.9505135
20
68.9739082
40
0.2205286
50
47.4371857
51
75.0698205
0
ARC
8
DEFAULT_255_1_234
10
22.9196529
20
68.8664765
40
0.3322915
50
74.7008593
51
87.8124495
0
ARC
8
DEFAULT_255_1_234
10
22.9123217
20
68.7608844
40
0.4380987
50
87.3814673
51
90.0240855
0
ARC
8
DEFAULT_255_1_234
10
22.908476
20
68.8786291
40
0.3203749
50
89.3451631
51
108.5745436
0
ARC
8
DEFAULT_255_1_234
10
22.8947865
20
68.9299908
40
0.2673494
50
109.2998449
51
143.3037509
0
ARC
8
DEFAULT_255_1_234
10
22.9709938
20
68.8713881
40
0.3634757
50
143.0753173
51
163.1916937
0
ARC
8
DEFAULT_255_1_234
10
23.1661666
20
68.8097967
40
0.5681262
50
162.9373603
51
174.6208611
0
ARC
8
DEFAULT_255_1_234
10
23.4287708
20
68.781001
40
0.8322832
50
174.3419979
51
180.1430411
0
ARC
8
DEFAULT_255_1_234
10
23.3356864
20
68.6615698
40
0.7392076
50
179.6817502
51
189.150529
0
ARC
8
DEFAULT_255_1_234
10
23.0856112
20
68.619919
40
0.4856932
50
188.9910863
51
203.5773039
0
ARC
8
DEFAULT_255_1_234
10
22.9776445
20
68.5751211
40
0.3688271
50
203.9077269
51
215.1312379
0
ARC
8
DEFAULT_255_1_234
10
22.8853539
20
68.5035941
40
0.2522457
50
213.9071664
51
263.8849284
0
ARC
8
DEFAULT_255_1_234
10
22.8978868
20
68.5820518
40
0.3316174
50
263.1758525
51
270.1031083
0
ARC
8
DEFAULT_255_1_234
10
22.901096
20
68.7067365
40
0.4563091
50
269.6719807
51
279.0609165
0
ARC
8
DEFAULT_255_1_234
10
22.9277728
20
68.5454907
40
0.2928759
50
278.8750225
51
293.6346586
0
ARC
8
DEFAULT_255_1_234
10
22.9597936
20
68.47029
40
0.2111472
50
293.8553404
51
310.0518804
0
ARC
8
DEFAULT_255_1_234
10
22.960279
20
68.4640516
40
0.2060917
50
311.0646779
51
332.0108348
0
ARC
8
DEFAULT_255_1_234
10
22.8410517
20
68.5297978
40
0.3422352
50
331.6588543
51
343.2878891
0
ARC
8
DEFAULT_255_1_234
10
22.6348032
20
68.5931798
40
0.5580003
50
343.1446044
51
351.010618
0
ARC
8
DEFAULT_255_1_234
10
22.4806678
20
68.6212871
40
0.7146438
50
350.7157277
51
351.1602153
0
LINE
8
DEFAULT_255_1_234
10
24.2799426
20
68.2616792
11
24.2799426
21
68.1404
0
LINE
8
DEFAULT_255_1_234
10
24.2799426
20
68.1404
11
23.5137147
21
68.1404
0
LINE
8
DEFAULT_255_1_234
10
23.5137147
20
68.1404
11
23.5137147
21
68.2472221
0
LINE
8
DEFAULT_255_1_234
10
23.5137147
20
68.2472221
11
23.9185144
21
68.6969995
0
LINE
8
DEFAULT_255_1_234
10
23.639813
20
68.9652595
11
23.4912259
21
68.9652595
0
LINE
8
DEFAULT_255_1_234
10
24.0060603
20
68.6014218
11
23.6928225
21
68.2616792
0
LINE
8
DEFAULT_255_1_234
10
23.6928225
20
68.2616792
11
24.2799426
21
68.2616792
0
ARC
8
DEFAULT_255_1_234
10
22.5694977
20
69.8899527
40
1.8008286
50
318.5132453
51
320.7828378
0
ARC
8
DEFAULT_255_1_234
10
23.0981951
20
69.4596426
40
1.1191493
50
320.7372736
51
323.9737074
0
ARC
8
DEFAULT_255_1_234
10
23.4901808
20
69.1756361
40
0.6350923
50
323.8961724
51
328.6421089
0
ARC
8
DEFAULT_255_1_234
10
23.6948403
20
69.0494031
40
0.3946393
50
328.8299013
51
331.789948
0
ARC
8
DEFAULT_255_1_234
10
23.7945582
20
68.9979509
40
0.2824501
50
331.4255242
51
352.9364833
0
ARC
8
DEFAULT_255_1_234
10
23.8082082
20
68.9948976
40
0.2685315
50
353.2248685
51
0.0169286
0
ARC
8
DEFAULT_255_1_234
10
23.8291959
20
68.997195
40
0.2475536
50
359.4866256
51
15.9339782
0
ARC
8
DEFAULT_255_1_234
10
23.8798944
20
69.0108286
40
0.1950618
50
16.1714718
51
43.5284424
0
ARC
8
DEFAULT_255_1_234
10
23.8876253
20
69.0185573
40
0.184134
50
43.4415429
51
83.1661404
0
ARC
8
DEFAULT_255_1_234
10
23.8742171
20
68.9448771
40
0.258926
50
82.160215
51
90.1505798
0
ARC
8
DEFAULT_255_1_234
10
23.8710599
20
68.8911865
40
0.3126255
50
89.5460705
51
102.5418777
0
ARC
8
DEFAULT_255_1_234
10
23.8467685
20
68.9942665
40
0.2067346
50
102.1739365
51
129.2061916
0
ARC
8
DEFAULT_255_1_234
10
23.8388756
20
69.0067094
40
0.1921118
50
129.7279328
51
135.7542026
0
ARC
8
DEFAULT_255_1_234
10
23.8510284
20
68.9970045
40
0.2075944
50
136.175737
51
166.3674722
0
ARC
8
DEFAULT_255_1_234
10
23.9517203
20
68.9700182
40
0.3118201
50
165.9092917
51
178.8683903
0
ARC
8
DEFAULT_255_1_234
10
24.0382065
20
68.9653179
40
0.3983935
50
178.438168
51
180.0083905
0
ARC
8
DEFAULT_255_1_234
10
23.8980667
20
68.9692231
40
0.4068601
50
163.2878735
51
180.5581814
0
ARC
8
DEFAULT_255_1_234
10
23.8178928
20
68.991284
40
0.3237344
50
133.454115
51
162.9470031
0
ARC
8
DEFAULT_255_1_234
10
23.8357469
20
68.9723
40
0.349795
50
100.7869394
51
133.4384016
0
ARC
8
DEFAULT_255_1_234
10
23.8705241
20
68.8174319
40
0.5084616
50
89.6605301
51
101.3704185
0
ARC
8
DEFAULT_255_1_234
10
23.877158
20
68.8235496
40
0.502348
50
78.2171172
51
90.4130393
0
ARC
8
DEFAULT_255_1_234
10
23.9126658
20
68.9859637
40
0.3361092
50
55.9268222
51
78.4888551
0
ARC
8
DEFAULT_255_1_234
10
23.9323098
20
69.0198324
40
0.2970617
50
47.9292255
51
55.4054003
0
ARC
8
DEFAULT_255_1_234
10
23.9424659
20
69.0301502
40
0.2825983
50
4.3347696
51
48.0560701
0
ARC
8
DEFAULT_255_1_234
10
23.8329052
20
69.0131601
40
0.393225
50
359.925209
51
5.5967654
0
ARC
8
DEFAULT_255_1_234
10
23.8757944
20
69.0187816
40
0.3503892
50
337.8914096
51
358.9967724
0
ARC
8
DEFAULT_255_1_234
10
23.6044356
20
69.1234706
40
0.6412172
50
326.9135351
51
338.3505194
0
ARC
8
DEFAULT_255_1_234
10
23.205866
20
69.3789284
40
1.1146189
50
319.6472867
51
327.095818
0
ARC
8
DEFAULT_255_1_234
10
22.8225663
20
69.6951
40
1.6114559
50
317.2586784
51
319.9046139
0
ENDSEC
0
EOF