0
SECTION
2
HEADER
9
$MEASUREMENT
70
1
0
ENDSEC
0
SECTION
2
TABLES
0
TABLE
2
LTYPE
0
LTYPE
72
65
70
64
2
CONTINUOUS
3
______
73
0
40
0
0
ENDTAB
0
TABLE
2
LAYER
0
LAYER
2
DEFAULT_255_2_778
70
0
62
255
6
CONTINUOUS
0
LAYER
2
DEFAULT_255_1_388
70
0
62
255
6
CONTINUOUS
0
ENDTAB
0
ENDSEC
0
SECTION
2
ENTITIES
0
ARC
8
DEFAULT_255_2_778
10
3.5700693
20
91.6802028
40
0.7914215
50
129.1312896
51
180.1450914
0
ARC
8
DEFAULT_255_2_778
10
3.5703345
20
91.6806899
40
0.7912112
50
89.854026
51
129.1684493
0
ARC
8
DEFAULT_255_2_778
10
25.7993937
20
91.6803765
40
0.7915249
50
39.4792447
51
90.147911
0
ARC
8
DEFAULT_255_2_778
10
25.7999935
20
91.6802231
40
0.7911595
50
359.8533901
51
39.5154338
0
ARC
8
DEFAULT_255_2_778
10
25.7996693
20
-1.9863495
40
0.7914836
50
309.4761667
51
0.1482649
0
ARC
8
DEFAULT_255_2_778
10
25.799398
20
-1.9867805
40
0.7913235
50
269.8517415
51
309.511178
0
ARC
8
DEFAULT_255_2_778
10
3.570342
20
-1.9867224
40
0.7913815
50
219.1282118
51
270.1454017
0
ARC
8
DEFAULT_255_2_778
10
3.5700247
20
-1.9863399
40
0.7913769
50
179.8524075
51
219.1641908
0
LINE
8
DEFAULT_255_2_778
10
3.5723503
20
92.4718987
11
25.7973503
21
92.4718987
0
LINE
8
DEFAULT_255_2_778
10
26.5911503
20
91.6781987
11
26.5911503
21
-1.9843013
0
LINE
8
DEFAULT_255_2_778
10
25.7973503
20
-2.7781013
11
3.5723503
21
-2.7781013
0
LINE
8
DEFAULT_255_2_778
10
2.7786503
20
-1.9843013
11
2.7786503
21
91.6781987
0
LINE
8
DEFAULT_255_1_388
10
11.8752094
20
-0.1247683
11
11.5652868
21
-0.1247683
0
LINE
8
DEFAULT_255_1_388
10
11.5652868
20
-0.1247683
11
11.5652868
21
-0.6398
0
LINE
8
DEFAULT_255_1_388
10
11.5652868
20
-0.6398
11
11.3918024
21
-0.6398
0
LINE
8
DEFAULT_255_1_388
10
11.3918024
20
-0.6398
11
11.3918024
21
0.6757898
0
LINE
8
DEFAULT_255_1_388
10
11.3918024
20
0.6757898
11
11.8770165
21
0.6757898
0
LINE
8
DEFAULT_255_1_388
10
11.5652868
20
0.5330267
11
11.5652868
21
0.0170914
0
LINE
8
DEFAULT_255_1_388
10
11.5652868
20
0.0170914
11
11.8770165
21
0.0170914
0
LINE
8
DEFAULT_255_1_388
10
11.8869557
20
0.5330267
11
11.5652868
21
0.5330267
0
ARC
8
DEFAULT_255_1_388
10
11.8817538
20
-0.0058666
40
0.6816729
50
78.8380084
51
90.398184
0
ARC
8
DEFAULT_255_1_388
10
11.9285569
20
0.2214796
40
0.449571
50
58.9633273
51
79.0810717
0
ARC
8
DEFAULT_255_1_388
10
11.9624953
20
0.2844823
40
0.3781049
50
48.0194715
51
58.4475592
0
ARC
8
DEFAULT_255_1_388
10
11.9724773
20
0.2940818
40
0.3642936
50
3.3374546
51
48.1766642
0
ARC
8
DEFAULT_255_1_388
10
11.833958
20
0.2741581
40
0.5038766
50
359.9483251
51
4.6822857
0
ARC
8
DEFAULT_255_1_388
10
11.8479503
20
0.2693779
40
0.4899031
50
346.1879032
51
0.5059221
0
ARC
8
DEFAULT_255_1_388
10
12.0008295
20
0.2296763
40
0.3319729
50
310.8832219
51
346.5426612
0
ARC
8
DEFAULT_255_1_388
10
11.9661143
20
0.2765853
40
0.3901853
50
286.6925305
51
310.228778
0
ARC
8
DEFAULT_255_1_388
10
11.9020873
20
0.4779585
40
0.6014737
50
274.6848219
51
287.0247342
0
ARC
8
DEFAULT_255_1_388
10
11.8767422
20
0.7264088
40
0.8511785
50
269.8968222
51
275.0192639
0
ARC
8
DEFAULT_255_1_388
10
11.8798415
20
0.4926144
40
0.4755314
50
269.6596206
51
279.4150542
0
ARC
8
DEFAULT_255_1_388
10
11.9087873
20
0.3248945
40
0.3053379
50
279.2050006
51
294.9901776
0
ARC
8
DEFAULT_255_1_388
10
11.9414508
20
0.2520353
40
0.2255036
50
295.2886769
51
311.2912669
0
ARC
8
DEFAULT_255_1_388
10
11.9494249
20
0.2401938
40
0.2113522
50
311.7853512
51
347.2860549
0
ARC
8
DEFAULT_255_1_388
10
11.838741
20
0.268643
40
0.3256011
50
346.6891629
51
0.1057086
0
ARC
8
DEFAULT_255_1_388
10
11.746487
20
0.2719247
40
0.417863
50
359.63239
51
359.9961329
0
ARC
8
DEFAULT_255_1_388
10
11.8629475
20
0.2746987
40
0.3014155
50
359.4673371
51
15.5931159
0
ARC
8
DEFAULT_255_1_388
10
11.9332538
20
0.2936937
40
0.2285918
50
15.7441779
51
46.620186
0
ARC
8
DEFAULT_255_1_388
10
11.9166298
20
0.2745361
40
0.2539359
50
46.8628482
51
75.6676625
0
ARC
8
DEFAULT_255_1_388
10
11.8835354
20
0.1554243
40
0.3775415
50
75.2763152
51
88.2916439
0
ARC
8
DEFAULT_255_1_388
10
11.8769354
20
0.0552097
40
0.4779221
50
87.8589087
51
88.7986197
0
LINE
8
DEFAULT_255_1_388
10
13.0652038
20
0.6821148
11
13.0652038
21
-0.6398
0
LINE
8
DEFAULT_255_1_388
10
13.0652038
20
-0.6398
11
12.8971408
21
-0.6398
0
LINE
8
DEFAULT_255_1_388
10
12.8971408
20
-0.6398
11
12.8971408
21
0.474295
0
LINE
8
DEFAULT_255_1_388
10
12.8971408
20
0.474295
11
12.5601112
21
0.3505066
0
LINE
8
DEFAULT_255_1_388
10
12.5601112
20
0.3505066
11
12.5601112
21
0.5023055
0
LINE
8
DEFAULT_255_1_388
10
12.5601112
20
0.5023055
11
13.0390004
21
0.6821148
0
LINE
8
DEFAULT_255_1_388
10
13.0390004
20
0.6821148
11
13.0652038
21
0.6821148
0
LINE
8
DEFAULT_255_1_388
10
13.9199757
20
-0.0127263
11
13.9199757
21
-0.1491645
0
LINE
8
DEFAULT_255_1_388
10
13.9199757
20
-0.1491645
11
13.4790363
21
-0.1491645
0
LINE
8
DEFAULT_255_1_388
10
13.4790363
20
-0.1491645
11
13.4790363
21
-0.0127263
0
LINE
8
DEFAULT_255_1_388
10
13.4790363
20
-0.0127263
11
13.9199757
21
-0.0127263
0
LINE
8
DEFAULT_255_1_388
10
14.2759801
20
-0.0145334
11
14.1422526
21
0.0198021
0
LINE
8
DEFAULT_255_1_388
10
14.1422526
20
0.0198021
11
14.2091164
21
0.6757898
0
LINE
8
DEFAULT_255_1_388
10
14.2091164
20
0.6757898
11
14.8831754
21
0.6757898
0
LINE
8
DEFAULT_255_1_388
10
14.8831754
20
0.6757898
11
14.8831754
21
0.5212803
0
LINE
8
DEFAULT_255_1_388
10
14.8831754
20
0.5212803
11
14.350976
21
0.5212803
0
LINE
8
DEFAULT_255_1_388
10
14.350976
20
0.5212803
11
14.3112191
21
0.1625652
0
LINE
8
DEFAULT_255_1_388
10
14.0952672
20
-0.2937348
11
14.253391
21
-0.2937348
0
LINE
8
DEFAULT_255_1_388
10
14.3202548
20
0.0216092
11
14.2759801
21
-0.0145334
0
ARC
8
DEFAULT_255_1_388
10
14.5198805
20
-0.1951759
40
0.4141476
50
93.7181681
51
120.253934
0
ARC
8
DEFAULT_255_1_388
10
14.5304857
20
-0.2860716
40
0.5055616
50
89.9660471
51
94.2495185
0
ARC
8
DEFAULT_255_1_388
10
14.5350679
20
-0.2197846
40
0.4392953
50
73.8045384
51
90.5585736
0
ARC
8
DEFAULT_255_1_388
10
14.5614937
20
-0.123248
40
0.3392225
50
41.3071072
51
73.543002
0
ARC
8
DEFAULT_255_1_388
10
14.5146757
20
-0.1635539
40
0.4009977
50
13.5075837
51
41.2174839
0
ARC
8
DEFAULT_255_1_388
10
14.3299854
20
-0.2119093
40
0.5918864
50
1.1330171
51
13.8830737
0
ARC
8
DEFAULT_255_1_388
10
14.17035
20
-0.2204478
40
0.7516787
50
359.9925091
51
1.5431298
0
ARC
8
DEFAULT_255_1_388
10
14.3148115
20
-0.2250973
40
0.6072343
50
347.8572712
51
0.4294349
0
ARC
8
DEFAULT_255_1_388
10
14.511725
20
-0.2697102
40
0.4053482
50
323.6727442
51
348.1674594
0
ARC
8
DEFAULT_255_1_388
10
14.5448214
20
-0.2898825
40
0.3667495
50
316.8171818
51
323.1486802
0
ARC
8
DEFAULT_255_1_388
10
14.5517338
20
-0.2940388
40
0.358869
50
281.839603
51
316.5458142
0
ARC
8
DEFAULT_255_1_388
10
14.5094625
20
-0.1190637
40
0.5388223
50
269.5770964
51
282.4214641
0
ARC
8
DEFAULT_255_1_388
10
14.5014546
20
-0.143107
40
0.5147801
50
256.2425863
51
270.4486481
0
ARC
8
DEFAULT_255_1_388
10
14.4678074
20
-0.2780876
40
0.3756708
50
228.9024379
51
256.33135
0
ARC
8
DEFAULT_255_1_388
10
14.4595054
20
-0.2911946
40
0.360344
50
193.7536029
51
228.5272638
0
ARC
8
DEFAULT_255_1_388
10
14.5987619
20
-0.2503537
40
0.5053599
50
184.9244437
51
194.4976052
0
ARC
8
DEFAULT_255_1_388
10
14.620426
20
-0.2463278
40
0.3700839
50
187.3596909
51
198.6733728
0
ARC
8
DEFAULT_255_1_388
10
14.5023504
20
-0.2872627
40
0.2451195
50
198.4453795
51
217.7945479
0
ARC
8
DEFAULT_255_1_388
10
14.4690676
20
-0.3108437
40
0.2043754
50
218.2887146
51
228.5613203
0
ARC
8
DEFAULT_255_1_388
10
14.4800683
20
-0.2960098
40
0.2227819
50
228.9652423
51
258.1237049
0
ARC
8
DEFAULT_255_1_388
10
14.503212
20
-0.1969036
40
0.3245374
50
257.7260585
51
270.4013717
0
ARC
8
DEFAULT_255_1_388
10
14.5082618
20
-0.2469745
40
0.2744726
50
269.4204315
51
286.420998
0
ARC
8
DEFAULT_255_1_388
10
14.5249674
20
-0.3076295
40
0.2115721
50
286.7250065
51
320.6004665
0
ARC
8
DEFAULT_255_1_388
10
14.481859
20
-0.2726473
40
0.2670878
50
320.6712228
51
344.5440474
0
ARC
8
DEFAULT_255_1_388
10
14.3517304
20
-0.2344606
40
0.4026927
50
344.241448
51
356.735803
0
ARC
8
DEFAULT_255_1_388
10
14.2113611
20
-0.2228344
40
0.5435085
50
356.3547471
51
0.0507222
0
ARC
8
DEFAULT_255_1_388
10
14.3615876
20
-0.2193188
40
0.3932934
50
359.5579289
51
12.9534322
0
ARC
8
DEFAULT_255_1_388
10
14.4802716
20
-0.1905414
40
0.2711827
50
12.6489751
51
41.608121
0
ARC
8
DEFAULT_255_1_388
10
14.5061876
20
-0.1685054
40
0.2371737
50
41.7851122
51
85.9892156
0
ARC
8
DEFAULT_255_1_388
10
14.4923186
20
-0.2600262
40
0.3295244
50
84.6965848
51
90.0672125
0
ARC
8
DEFAULT_255_1_388
10
14.4896753
20
-0.3351882
40
0.4046926
50
89.6804991
51
99.161352
0
ARC
8
DEFAULT_255_1_388
10
14.4665763
20
-0.1971152
40
0.2647044
50
98.9836248
51
113.8905702
0
ARC
8
DEFAULT_255_1_388
10
14.4407437
20
-0.1361882
40
0.1985386
50
114.195234
51
127.3641866
0
LINE
8
DEFAULT_255_1_388
10
15.3150792
20
-0.0145334
11
15.1813517
21
0.0198021
0
LINE
8
DEFAULT_255_1_388
10
15.1813517
20
0.0198021
11
15.2482155
21
0.6757898
0
LINE
8
DEFAULT_255_1_388
10
15.2482155
20
0.6757898
11
15.9222746
21
0.6757898
0
LINE
8
DEFAULT_255_1_388
10
15.9222746
20
0.6757898
11
15.9222746
21
0.5212803
0
LINE
8
DEFAULT_255_1_388
10
15.9222746
20
0.5212803
11
15.3900751
21
0.5212803
0
LINE
8
DEFAULT_255_1_388
10
15.3900751
20
0.5212803
11
15.3503183
21
0.1625652
0
LINE
8
DEFAULT_255_1_388
10
15.1343664
20
-0.2937348
11
15.2924901
21
-0.2937348
0
LINE
8
DEFAULT_255_1_388
10
15.3593539
20
0.0216092
11
15.3150792
21
-0.0145334
0
ARC
8
DEFAULT_255_1_388
10
15.5589796
20
-0.1951759
40
0.4141476
50
93.7181681
51
120.253934
0
ARC
8
DEFAULT_255_1_388
10
15.5695848
20
-0.2860716
40
0.5055616
50
89.9660471
51
94.2495185
0
ARC
8
DEFAULT_255_1_388
10
15.574167
20
-0.2197846
40
0.4392953
50
73.8045384
51
90.5585736
0
ARC
8
DEFAULT_255_1_388
10
15.6005928
20
-0.123248
40
0.3392225
50
41.3071072
51
73.543002
0
ARC
8
DEFAULT_255_1_388
10
15.5537748
20
-0.1635539
40
0.4009977
50
13.5075837
51
41.2174839
0
ARC
8
DEFAULT_255_1_388
10
15.3690845
20
-0.2119093
40
0.5918864
50
1.1330171
51
13.8830737
0
ARC
8
DEFAULT_255_1_388
10
15.2094491
20
-0.2204478
40
0.7516787
50
359.9925091
51
1.5431298
0
ARC
8
DEFAULT_255_1_388
10
15.3539106
20
-0.2250973
40
0.6072343
50
347.8572712
51
0.4294349
0
ARC
8
DEFAULT_255_1_388
10
15.5508241
20
-0.2697102
40
0.4053482
50
323.6727442
51
348.1674594
0
ARC
8
DEFAULT_255_1_388
10
15.5839205
20
-0.2898825
40
0.3667495
50
316.8171818
51
323.1486802
0
ARC
8
DEFAULT_255_1_388
10
15.5908329
20
-0.2940388
40
0.358869
50
281.839603
51
316.5458142
0
ARC
8
DEFAULT_255_1_388
10
15.5485617
20
-0.1190637
40
0.5388223
50
269.5770964
51
282.4214641
0
ARC
8
DEFAULT_255_1_388
10
15.5405537
20
-0.143107
40
0.5147801
50
256.2425863
51
270.4486481
0
ARC
8
DEFAULT_255_1_388
10
15.5069065
20
-0.2780876
40
0.3756708
50
228.9024379
51
256.33135
0
ARC
8
DEFAULT_255_1_388
10
15.4986045
20
-0.2911946
40
0.360344
50
193.7536029
51
228.5272638
0
ARC
8
DEFAULT_255_1_388
10
15.637861
20
-0.2503537
40
0.5053599
50
184.9244437
51
194.4976052
0
ARC
8
DEFAULT_255_1_388
10
15.6595251
20
-0.2463278
40
0.3700839
50
187.3596909
51
198.6733728
0
ARC
8
DEFAULT_255_1_388
10
15.5414495
20
-0.2872627
40
0.2451195
50
198.4453795
51
217.7945479
0
ARC
8
DEFAULT_255_1_388
10
15.5081667
20
-0.3108437
40
0.2043754
50
218.2887146
51
228.5613203
0
ARC
8
DEFAULT_255_1_388
10
15.5191674
20
-0.2960098
40
0.2227819
50
228.9652423
51
258.1237049
0
ARC
8
DEFAULT_255_1_388
10
15.5423112
20
-0.1969036
40
0.3245374
50
257.7260585
51
270.4013717
0
ARC
8
DEFAULT_255_1_388
10
15.547361
20
-0.2469745
40
0.2744726
50
269.4204315
51
286.420998
0
ARC
8
DEFAULT_255_1_388
10
15.5640665
20
-0.3076295
40
0.2115721
50
286.7250065
51
320.6004665
0
ARC
8
DEFAULT_255_1_388
10
15.5209581
20
-0.2726473
40
0.2670878
50
320.6712228
51
344.5440474
0
ARC
8
DEFAULT_255_1_388
10
15.3908295
20
-0.2344606
40
0.4026927
50
344.241448
51
356.735803
0
ARC
8
DEFAULT_255_1_388
10
15.2504602
20
-0.2228344
40
0.5435085
50
356.3547471
51
0.0507222
0
ARC
8
DEFAULT_255_1_388
10
15.4006867
20
-0.2193188
40
0.3932934
50
359.5579289
51
12.9534322
0
ARC
8
DEFAULT_255_1_388
10
15.5193707
20
-0.1905414
40
0.2711827
50
12.6489751
51
41.608121
0
ARC
8
DEFAULT_255_1_388
10
15.5452867
20
-0.1685054
40
0.2371737
50
41.7851122
51
85.9892156
0
ARC
8
DEFAULT_255_1_388
10
15.5314177
20
-0.2600262
40
0.3295244
50
84.6965848
51
90.0672125
0
ARC
8
DEFAULT_255_1_388
10
15.5287745
20
-0.3351882
40
0.4046926
50
89.6804991
51
99.161352
0
ARC
8
DEFAULT_255_1_388
10
15.5056754
20
-0.1971152
40
0.2647044
50
98.9836248
51
113.8905702
0
ARC
8
DEFAULT_255_1_388
10
15.4798429
20
-0.1361882
40
0.1985386
50
114.195234
51
127.3641866
0
LINE
8
DEFAULT_255_1_388
10
16.9686022
20
0.138169
11
16.9686022
21
-0.0786865
0
LINE
8
DEFAULT_255_1_388
10
16.1382265
20
-0.1012756
11
16.1382265
21
0.1219048
0
LINE
8
DEFAULT_255_1_388
10
16.8014428
20
-0.1238647
11
16.8014428
21
0.1499153
0
LINE
8
DEFAULT_255_1_388
10
16.3053859
20
0.1625652
11
16.3053859
21
-0.1048898
0
ARC
8
DEFAULT_255_1_388
10
15.5908356
20
-0.0841882
40
1.3777776
50
353.8440855
51
0.2287917
0
ARC
8
DEFAULT_255_1_388
10
16.1127373
20
-0.1424586
40
0.852639
50
344.4934746
51
353.9763743
0
ARC
8
DEFAULT_255_1_388
10
16.4494181
20
-0.2381809
40
0.5026273
50
329.2803599
51
344.7473406
0
ARC
8
DEFAULT_255_1_388
10
16.5609676
20
-0.2993962
40
0.3754848
50
324.9361395
51
328.6153007
0
ARC
8
DEFAULT_255_1_388
10
16.6035326
20
-0.3291414
40
0.3235566
50
280.5801797
51
324.9173226
0
ARC
8
DEFAULT_255_1_388
10
16.5583955
20
-0.1411764
40
0.5167077
50
269.5979457
51
281.6732777
0
ARC
8
DEFAULT_255_1_388
10
16.5502858
20
-0.1546887
40
0.5032026
50
256.6228565
51
270.5105488
0
ARC
8
DEFAULT_255_1_388
10
16.5050601
20
-0.3288655
40
0.3233092
50
215.8618351
51
257.2787793
0
ARC
8
DEFAULT_255_1_388
10
16.6199308
20
-0.2517894
40
0.4615831
50
197.9695203
51
215.2622745
0
ARC
8
DEFAULT_255_1_388
10
16.8994984
20
-0.1574359
40
0.7566307
50
187.8816486
51
198.2346584
0
ARC
8
DEFAULT_255_1_388
10
17.3448222
20
-0.0931547
40
1.2065653
50
180.8977266
51
188.0054894
0
ARC
8
DEFAULT_255_1_388
10
17.6498436
20
-0.08166
40
1.5117443
50
180.7434591
51
181.152202
0
ARC
8
DEFAULT_255_1_388
10
17.4823431
20
0.1273371
40
1.3441277
50
173.7674302
51
180.2315596
0
ARC
8
DEFAULT_255_1_388
10
16.97413
20
0.1847779
40
0.8326847
50
164.3058537
51
173.9000553
0
ARC
8
DEFAULT_255_1_388
10
16.64653
20
0.2791652
40
0.4917711
50
148.7922028
51
164.5682288
0
ARC
8
DEFAULT_255_1_388
10
16.5396038
20
0.3388457
40
0.3694204
50
144.5883979
51
148.1161588
0
ARC
8
DEFAULT_255_1_388
10
16.5008783
20
0.3658667
40
0.322202
50
101.6440149
51
144.5142619
0
ARC
8
DEFAULT_255_1_388
10
16.5486975
20
0.1758337
40
0.5180451
50
89.528284
51
102.5820197
0
ARC
8
DEFAULT_255_1_388
10
16.5575967
20
0.1714376
40
0.5224441
50
77.0437914
51
90.508231
0
ARC
8
DEFAULT_255_1_388
10
16.6028221
20
0.3562272
40
0.3322297
50
48.2777708
51
77.4996087
0
ARC
8
DEFAULT_255_1_388
10
16.6109961
20
0.3707557
40
0.315966
50
36.3141586
51
47.6307332
0
ARC
8
DEFAULT_255_1_388
10
16.5132683
20
0.3049159
40
0.4337313
50
18.2931065
51
35.6770203
0
ARC
8
DEFAULT_255_1_388
10
16.2271524
20
0.2067107
40
0.7362203
50
8.0246996
51
18.5605636
0
ARC
8
DEFAULT_255_1_388
10
15.7587879
20
0.1375432
40
1.2096583
50
1.127539
51
8.1718423
0
ARC
8
DEFAULT_255_1_388
10
15.3939013
20
0.1232374
40
1.5747719
50
0.5432713
51
1.38669
0
ARC
8
DEFAULT_255_1_388
10
15.5996392
20
0.1539163
40
1.2018103
50
359.8092569
51
4.9408001
0
ARC
8
DEFAULT_255_1_388
10
16.0732973
20
0.19619
40
0.7262727
50
4.8364937
51
12.2906017
0
ARC
8
DEFAULT_255_1_388
10
16.3832438
20
0.2652485
40
0.4087324
50
12.0806994
51
23.8171225
0
ARC
8
DEFAULT_255_1_388
10
16.5152834
20
0.3211508
40
0.2653719
50
24.2874621
51
31.3934353
0
ARC
8
DEFAULT_255_1_388
10
16.5743269
20
0.3597822
40
0.1948607
50
30.7407708
51
82.4658033
0
ARC
8
DEFAULT_255_1_388
10
16.554093
20
0.2604017
40
0.2961198
50
81.1057101
51
90.2187368
0
ARC
8
DEFAULT_255_1_388
10
16.5500742
20
0.2894421
40
0.2670929
50
89.380395
51
105.6763916
0
ARC
8
DEFAULT_255_1_388
10
16.5294464
20
0.364432
40
0.1893189
50
105.7980655
51
149.7387869
0
ARC
8
DEFAULT_255_1_388
10
16.6491604
20
0.2924719
40
0.3289892
50
149.4208441
51
163.628295
0
ARC
8
DEFAULT_255_1_388
10
16.8843834
20
0.2207345
40
0.5749004
50
163.3764549
51
172.141138
0
ARC
8
DEFAULT_255_1_388
10
17.2556555
20
0.1675582
40
0.9499585
50
172.0258462
51
178.0705453
0
ARC
8
DEFAULT_255_1_388
10
17.5978108
20
0.1513682
40
1.2924734
50
177.8639301
51
179.5036263
0
ARC
8
DEFAULT_255_1_388
10
17.4759127
20
-0.1089849
40
1.170534
50
179.7995545
51
185.246089
0
ARC
8
DEFAULT_255_1_388
10
17.021072
20
-0.1520596
40
0.7136613
50
185.1411911
51
193.0082205
0
ARC
8
DEFAULT_255_1_388
10
16.7236981
20
-0.2223559
40
0.4080987
50
192.7897338
51
205.2507384
0
ARC
8
DEFAULT_255_1_388
10
16.6059191
20
-0.2749462
40
0.2791522
50
205.8001921
51
211.2545876
0
ARC
8
DEFAULT_255_1_388
10
16.547073
20
-0.3143868
40
0.2084074
50
210.3789935
51
238.4007996
0
ARC
8
DEFAULT_255_1_388
10
16.5448816
20
-0.3091214
40
0.2117943
50
239.6521916
51
265.9793852
0
ARC
8
DEFAULT_255_1_388
10
16.5544665
20
-0.2334642
40
0.2879689
50
265.1324455
51
270.0603288
0
ARC
8
DEFAULT_255_1_388
10
16.5577042
20
-0.2699582
40
0.2514919
50
269.3314378
51
287.2180039
0
ARC
8
DEFAULT_255_1_388
10
16.5732124
20
-0.3265709
40
0.1928357
50
287.7957942
51
329.0808983
0
ARC
8
DEFAULT_255_1_388
10
16.4654881
20
-0.2593349
40
0.319808
50
328.6635261
51
343.3325043
0
ARC
8
DEFAULT_255_1_388
10
16.221034
20
-0.1831805
40
0.5758408
50
343.0498092
51
351.9392499
0
ARC
8
DEFAULT_255_1_388
10
15.8309661
20
-0.1256795
40
0.9701202
50
351.8071632
51
357.7957897
0
ARC
8
DEFAULT_255_1_388
10
15.4675138
20
-0.1068276
40
1.3340376
50
357.5870923
51
359.2682493
0
ARC
8
DEFAULT_255_2_778
10
8.509117
20
90.0058756
40
0.4373747
50
56.3665942
51
72.7074496
0
ARC
8
DEFAULT_255_2_778
10
8.5463845
20
90.1194358
40
0.3178747
50
73.036784
51
89.7973226
0
ARC
8
DEFAULT_255_2_778
10
8.5537306
20
90.097049
40
0.3403165
50
91.0475309
51
125.5485458
0
ARC
8
DEFAULT_255_2_778
10
8.7194697
20
89.8481905
40
0.6392287
50
124.6669492
51
139.114563
0
ARC
8
DEFAULT_255_2_778
10
8.9609112
20
89.6247799
40
0.9680575
50
138.4713305
51
142.1157612
0
ARC
8
DEFAULT_255_2_778
10
8.583458
20
89.6555121
40
0.5212765
50
117.7453356
51
135.8758074
0
ARC
8
DEFAULT_255_2_778
10
8.486317
20
89.8378596
40
0.3146729
50
90.4656379
51
117.5483702
0
ARC
8
DEFAULT_255_2_778
10
8.4802065
20
89.8225957
40
0.3299454
50
64.3679478
51
89.3829577
0
ARC
8
DEFAULT_255_2_778
10
8.4478855
20
89.7410224
40
0.4175182
50
64.8738747
51
65.2115951
0
LINE
8
DEFAULT_255_2_778
10
8.1968689
20
90.2192331
11
8.1968689
21
90.3952331
0
LINE
8
DEFAULT_255_2_778
10
8.1968689
20
90.3952331
11
7.8565689
21
90.3952331
0
LINE
8
DEFAULT_255_2_778
10
7.8565689
20
90.3952331
11
7.8565689
21
89.1765331
0
LINE
8
DEFAULT_255_2_778
10
7.8565689
20
89.1765331
11
8.2219689
21
89.1765331
0
LINE
8
DEFAULT_255_2_778
10
8.2219689
20
89.1765331
11
8.2092689
21
90.0184331
0
LINE
8
DEFAULT_255_2_778
10
8.6251689
20
90.1190331
11
8.7513689
21
90.3700331
0
LINE
8
DEFAULT_255_2_778
10
15.2045689
20
89.1762331
11
15.2045689
21
90.4076331
0
LINE
8
DEFAULT_255_2_778
10
15.2045689
20
90.4076331
11
15.5702689
21
90.4076331
0
LINE
8
DEFAULT_255_2_778
10
15.5702689
20
90.4076331
11
15.5702689
21
89.1762331
0
LINE
8
DEFAULT_255_2_778
10
15.5702689
20
89.1762331
11
15.2045689
21
89.1762331
0
ARC
8
DEFAULT_255_2_778
10
15.3896435
20
90.800366
40
0.1978332
50
90.7257917
51
180.9507563
0
ARC
8
DEFAULT_255_2_778
10
15.3846161
20
90.8004493
40
0.1977501
50
359.0247012
51
89.2694187
0
ARC
8
DEFAULT_255_2_778
10
15.3846161
20
90.7937174
40
0.1977501
50
270.7305813
51
0.9752988
0
ARC
8
DEFAULT_255_2_778
10
15.3896435
20
90.7938007
40
0.1978332
50
179.0492437
51
269.2742083
0
LINE
8
DEFAULT_255_2_778
10
15.1918375
20
90.7970833
11
15.1918375
21
90.7970833
0
LINE
8
DEFAULT_255_2_778
10
16.8978729
20
89.1729854
11
16.8978729
21
90.4043854
0
LINE
8
DEFAULT_255_2_778
10
16.8978729
20
90.4043854
11
17.2635729
21
90.4043854
0
LINE
8
DEFAULT_255_2_778
10
17.2635729
20
90.4043854
11
17.2635729
21
89.1729854
0
LINE
8
DEFAULT_255_2_778
10
17.2635729
20
89.1729854
11
16.8978729
21
89.1729854
0
ARC
8
DEFAULT_255_2_778
10
17.0829435
20
90.797166
40
0.1978332
50
90.7257917
51
180.9507563
0
ARC
8
DEFAULT_255_2_778
10
17.0779161
20
90.7972493
40
0.1977501
50
359.0247012
51
89.2694187
0
ARC
8
DEFAULT_255_2_778
10
17.0779161
20
90.7905174
40
0.1977501
50
270.7305813
51
0.9752988
0
ARC
8
DEFAULT_255_2_778
10
17.0829435
20
90.7906007
40
0.1978332
50
179.0492437
51
269.2742083
0
LINE
8
DEFAULT_255_2_778
10
16.8851375
20
90.7938833
11
16.8851375
21
90.7938833
0
ARC
8
DEFAULT_255_2_778
10
22.0788624
20
89.0554788
40
0.399929
50
186.2090497
51
214.6438559
0
ARC
8
DEFAULT_255_2_778
10
21.9921847
20
89.015624
40
0.3064065
50
217.727985
51
266.8306819
0
ARC
8
DEFAULT_255_2_778
10
22.0316252
20
89.2259571
40
0.5193404
50
263.7675625
51
266.8049274
0
ARC
8
DEFAULT_255_2_778
10
22.0082454
20
89.0321919
40
0.2399325
50
195.4006145
51
268.6707088
0
ARC
8
DEFAULT_255_2_778
10
22.2805996
20
89.158176
40
0.5382116
50
193.3258898
51
200.6383232
0
ARC
8
DEFAULT_255_2_778
10
22.0638429
20
89.00519
40
0.3083241
50
141.9083968
51
174.6152863
0
ARC
8
DEFAULT_255_2_778
10
22.0026746
20
89.0311305
40
0.2447935
50
89.9988769
51
137.8510912
0
ARC
8
DEFAULT_255_2_778
10
21.9982309
20
89.0488687
40
0.3117869
50
89.1824841
51
162.3459304
0
ARC
8
DEFAULT_255_2_778
10
22.258036
20
88.9169629
40
0.6011919
50
157.8713755
51
162.5920001
0
ARC
8
DEFAULT_255_2_778
10
13.7766756
20
89.5859305
40
0.434232
50
284.0737984
51
307.1283935
0
ARC
8
DEFAULT_255_2_778
10
13.6851625
20
89.922507
40
0.7829896
50
272.5675489
51
284.5802087
0
ARC
8
DEFAULT_255_2_778
10
13.6592437
20
90.2814017
40
1.1427274
50
269.9523961
51
273.0596894
0
ARC
8
DEFAULT_255_2_778
10
13.6631315
20
90.6630793
40
1.5244123
50
264.3721605
51
269.8181894
0
ARC
8
DEFAULT_255_2_778
10
13.7276162
20
91.3348534
40
2.1992727
50
260.3040359
51
264.4165702
0
ARC
8
DEFAULT_255_2_778
10
13.8169183
20
91.8872771
40
2.75885
50
259.2299789
51
260.4081406
0
ARC
8
DEFAULT_255_2_778
10
13.5378686
20
89.7368398
40
0.6077178
50
188.8927198
51
247.0988028
0
ARC
8
DEFAULT_255_2_778
10
13.8804177
20
89.8279831
40
0.9609548
50
185.1081288
51
191.1050073
0
ARC
8
DEFAULT_255_2_778
10
13.7482073
20
89.7554785
40
0.8250312
50
161.5072483
51
180.9066349
0
ARC
8
DEFAULT_255_2_778
10
13.4992734
20
89.8342242
40
0.5639907
50
120.4701872
51
161.0725957
0
ARC
8
DEFAULT_255_2_778
10
13.5849214
20
89.7674885
40
0.6661417
50
90.0499347
51
123.9108507
0
ARC
8
DEFAULT_255_2_778
10
13.5978311
20
89.6109595
40
0.8227812
50
89.9974966
51
90.9394619
0
ARC
8
DEFAULT_255_2_778
10
13.5918811
20
89.4499209
40
0.9838382
50
77.8335832
51
89.6513936
0
ARC
8
DEFAULT_255_2_778
10
13.5043967
20
89.0320168
40
1.4107957
50
69.8093959
51
77.9373312
0
ARC
8
DEFAULT_255_2_778
10
13.4008346
20
88.7302522
40
1.7297745
50
69.0266426
51
70.0397415
0
ARC
8
DEFAULT_255_2_778
10
13.559202
20
88.7521779
40
1.4359408
50
73.9178594
51
79.2452957
0
ARC
8
DEFAULT_255_2_778
10
13.6567017
20
89.2724721
40
0.9065925
50
79.1629935
51
86.6049203
0
ARC
8
DEFAULT_255_2_778
10
13.6747301
20
89.5237944
40
0.654651
50
86.8774046
51
89.9568351
0
ARC
8
DEFAULT_255_2_778
10
13.6672581
20
89.761064
40
0.4174572
50
88.9067133
51
108.0688095
0
ARC
8
DEFAULT_255_2_778
10
13.6100304
20
89.9348074
40
0.2345328
50
107.942404
51
152.2459688
0
ARC
8
DEFAULT_255_2_778
10
14.3241597
20
89.6045486
40
1.0210941
50
154.5072776
51
162.5682748
0
ARC
8
DEFAULT_255_2_778
10
13.952215
20
89.7192929
40
0.6318603
50
162.3915767
51
174.8213024
0
ARC
8
DEFAULT_255_2_778
10
13.787072
20
89.7381035
40
0.4657093
50
175.2922289
51
179.9490984
0
ARC
8
DEFAULT_255_2_778
10
13.6599161
20
89.7307143
40
0.338643
50
178.6796766
51
234.9381893
0
ARC
8
DEFAULT_255_2_778
10
13.6575594
20
89.7423791
40
0.3469445
50
236.3635337
51
264.9414885
0
ARC
8
DEFAULT_255_2_778
10
13.6836236
20
89.9178656
40
0.5241505
50
263.7947872
51
270.1188666
0
ARC
8
DEFAULT_255_2_778
10
13.6783507
20
90.1552527
40
0.7615633
50
270.4785196
51
281.0719661
0
ARC
8
DEFAULT_255_2_778
10
13.5940398
20
90.6091133
40
1.2231753
50
280.8649891
51
287.2606546
0
ARC
8
DEFAULT_255_2_778
10
14.6487772
20
91.4420389
40
2.2970478
50
276.5245429
51
279.5045514
0
ARC
8
DEFAULT_255_2_778
10
14.7141671
20
90.8644037
40
1.7157236
50
272.7759418
51
276.5469051
0
ARC
8
DEFAULT_255_2_778
10
14.7339562
20
90.4841464
40
1.3349546
50
270.0439674
51
272.7180028
0
ARC
8
DEFAULT_255_2_778
10
14.7253399
20
90.0159869
40
0.8668484
50
258.6359382
51
270.6372354
0
ARC
8
DEFAULT_255_2_778
10
14.6326818
20
89.5800616
40
0.4212409
50
235.5405817
51
259.3086539
0
ARC
8
DEFAULT_255_2_778
10
14.5715943
20
89.4727304
40
0.2983588
50
181.5929591
51
233.550276
0
ARC
8
DEFAULT_255_2_778
10
14.7698134
20
89.5026912
40
0.4979343
50
179.9387066
51
184.4062155
0
ARC
8
DEFAULT_255_2_778
10
14.863071
20
89.5986312
40
0.2330741
50
194.3604277
51
259.8152315
0
ARC
8
DEFAULT_255_2_778
10
14.9677954
20
89.964228
40
0.6126343
50
256.2189254
51
270.9017933
0
ARC
8
DEFAULT_255_2_778
10
14.9769331
20
90.3315407
40
0.9798713
50
270.0294871
51
272.2486365
0
LINE
8
DEFAULT_255_2_778
10
15.6204794
20
90.4012239
11
15.9670794
21
90.4012239
0
LINE
8
DEFAULT_255_2_778
10
15.9670794
20
90.4012239
11
16.2379794
21
89.6599239
0
LINE
8
DEFAULT_255_2_778
10
16.2379794
20
89.6599239
11
16.5088794
21
90.4073239
0
LINE
8
DEFAULT_255_2_778
10
16.5088794
20
90.4073239
11
16.8176794
21
90.4073239
0
LINE
8
DEFAULT_255_2_778
10
16.8176794
20
90.4073239
11
16.3133794
21
89.1571239
0
LINE
8
DEFAULT_255_2_778
10
16.3133794
20
89.1571239
11
16.0926794
21
89.1571239
0
LINE
8
DEFAULT_255_2_778
10
16.0926794
20
89.1571239
11
15.6204794
21
90.4012239
0
LINE
8
DEFAULT_255_2_778
10
19.3386794
20
89.7604239
11
19.3605794
21
89.6786239
0
LINE
8
DEFAULT_255_2_778
10
19.3605794
20
89.6786239
11
19.4960794
21
89.7509239
0
LINE
8
DEFAULT_255_2_778
10
19.4960794
20
89.7509239
11
19.4960794
21
89.0944239
0
LINE
8
DEFAULT_255_2_778
10
19.4960794
20
89.0944239
11
19.5968794
21
89.0944239
0
LINE
8
DEFAULT_255_2_778
10
19.5968794
20
89.0944239
11
19.5904794
21
89.8419239
0
LINE
8
DEFAULT_255_2_778
10
19.5904794
20
89.8419239
11
19.5023794
21
89.8419239
0
LINE
8
DEFAULT_255_2_778
10
19.5023794
20
89.8419239
11
19.3386794
21
89.7604239
0
LINE
8
DEFAULT_255_2_778
10
6.2430794
20
91.0296239
11
6.3250794
21
91.0296239
0
LINE
8
DEFAULT_255_2_778
10
6.3250794
20
91.0296239
11
6.3250794
21
89.0727239
0
LINE
8
DEFAULT_255_2_778
10
6.3250794
20
89.0727239
11
18.5318794
21
89.0696239
0
LINE
8
DEFAULT_255_2_778
10
18.5318794
20
89.0696239
11
18.5350794
21
88.9878239
0
LINE
8
DEFAULT_255_2_778
10
18.5350794
20
88.9878239
11
6.2430794
21
88.9878239
0
LINE
8
DEFAULT_255_2_778
10
6.2430794
20
88.9878239
11
6.2430794
21
91.0233239
0
LINE
8
DEFAULT_255_2_778
10
19.0753794
20
89.1000239
11
19.0753794
21
89.0122239
0
LINE
8
DEFAULT_255_2_778
10
19.0753794
20
89.0122239
11
21.6812794
21
89.0122239
0
LINE
8
DEFAULT_255_2_778
10
22.0026794
20
88.7074239
11
22.0026794
21
88.7923239
0
LINE
8
DEFAULT_255_2_778
10
22.0026794
20
89.2759239
11
22.0026794
21
89.3606239
0
LINE
8
DEFAULT_255_2_778
10
21.6843794
20
89.0968239
11
19.0816794
21
89.0968239
0
LINE
8
DEFAULT_255_2_778
10
13.9630794
20
89.4408239
11
14.0387794
21
89.2397239
0
LINE
8
DEFAULT_255_2_778
10
14.0199794
20
90.3454239
11
13.9569794
21
90.1319239
0
LINE
8
DEFAULT_255_2_778
10
14.2718794
20
89.5032239
11
14.2718794
21
90.1940239
0
LINE
8
DEFAULT_255_2_778
10
14.2718794
20
90.1940239
11
14.0826794
21
90.1940239
0
LINE
8
DEFAULT_255_2_778
10
14.0826794
20
90.1940239
11
14.0826794
21
90.4076239
0
LINE
8
DEFAULT_255_2_778
10
14.0826794
20
90.4076239
11
14.2718794
21
90.4076239
0
LINE
8
DEFAULT_255_2_778
10
14.2718794
20
90.4076239
11
14.4104794
21
90.9100239
0
LINE
8
DEFAULT_255_2_778
10
14.4104794
20
90.9100239
11
14.6247794
21
90.9100239
0
LINE
8
DEFAULT_255_2_778
10
14.6247794
20
90.9100239
11
14.6374794
21
90.4076239
0
LINE
8
DEFAULT_255_2_778
10
14.6374794
20
90.4076239
11
14.9777794
21
90.4076239
0
LINE
8
DEFAULT_255_2_778
10
14.9777794
20
90.4076239
11
14.9777794
21
90.1940239
0
LINE
8
DEFAULT_255_2_778
10
14.9777794
20
90.1940239
11
14.6372794
21
90.1940239
0
LINE
8
DEFAULT_255_2_778
10
14.6372794
20
90.1940239
11
14.6372794
21
89.5408239
0
LINE
8
DEFAULT_255_2_778
10
15.0153794
20
89.3524239
11
15.0280794
21
89.1765239
0
ARC
8
DEFAULT_255_2_778
10
18.3024027
20
89.0357006
40
0.5885618
50
314.1425413
51
331.9270918
0
ARC
8
DEFAULT_255_2_778
10
18.4398834
20
88.8955729
40
0.3922584
50
269.0322425
51
313.9868193
0
ARC
8
DEFAULT_255_2_778
10
18.4381885
20
89.0878771
40
0.5845273
50
255.6360648
51
269.5167247
0
ARC
8
DEFAULT_255_2_778
10
18.5134055
20
89.3913721
40
0.8971981
50
246.6811795
51
255.790956
0
ARC
8
DEFAULT_255_2_778
10
18.6382092
20
89.6944441
40
1.224929
50
243.4462224
51
246.9319367
0
ARC
8
DEFAULT_255_2_778
10
18.3621687
20
89.1239307
40
0.3648127
50
238.6960142
51
269.7522384
0
ARC
8
DEFAULT_255_2_778
10
18.3585706
20
89.1579979
40
0.3988816
50
270.2902271
51
286.0302682
0
ARC
8
DEFAULT_255_2_778
10
18.3439528
20
88.9796393
40
0.2399938
50
301.3239159
51
328.5484084
0
ARC
8
DEFAULT_255_2_778
10
17.8593662
20
89.3058932
40
0.8240117
50
326.7768178
51
337.3925755
0
ARC
8
DEFAULT_255_2_778
10
16.8007869
20
89.7645542
40
1.9776351
50
336.9149998
51
342.1307954
0
ARC
8
DEFAULT_255_2_778
10
18.1252835
20
89.5691636
40
0.1954042
50
190.120766
51
263.958695
0
ARC
8
DEFAULT_255_2_778
10
18.2014334
20
89.8717827
40
0.5062622
50
258.9866291
51
270.5697296
0
ARC
8
DEFAULT_255_2_778
10
18.204321
20
90.1892145
40
0.8236717
50
270.1493118
51
275.0745303
0
ARC
8
DEFAULT_255_2_778
10
18.1872931
20
90.4063127
40
1.0414275
50
274.9512067
51
276.4741818
0
ARC
8
DEFAULT_255_2_778
10
17.9114118
20
91.6625729
40
2.5197089
50
276.512457
51
279.4178429
0
ARC
8
DEFAULT_255_2_778
10
17.9872799
20
90.9922245
40
1.8450814
50
272.9002784
51
276.532699
0
ARC
8
DEFAULT_255_2_778
10
18.0109581
20
90.5499216
40
1.4021477
50
270.0528156
51
272.8484525
0
ARC
8
DEFAULT_255_2_778
10
18.0029255
20
90.0411315
40
0.8934054
50
259.5071449
51
270.5980454
0
ARC
8
DEFAULT_255_2_778
10
17.912813
20
89.5801743
40
0.4237716
50
238.7101736
51
260.1371304
0
ARC
8
DEFAULT_255_2_778
10
17.8289731
20
89.4337213
40
0.2551147
50
181.256628
51
237.7180126
0
LINE
8
DEFAULT_255_2_778
10
18.0906198
20
88.5987265
11
18.1726198
21
88.8122265
0
LINE
8
DEFAULT_255_2_778
10
18.6830198
20
89.1577265
11
18.2544198
21
90.1880265
0
LINE
8
DEFAULT_255_2_778
10
18.2544198
20
90.1880265
11
17.9329198
21
90.1880265
0
LINE
8
DEFAULT_255_2_778
10
17.9329198
20
90.1880265
11
17.9329198
21
89.5348265
0
LINE
8
DEFAULT_255_2_778
10
18.3047198
20
89.3715265
11
18.3237198
21
89.1768265
0
LINE
8
DEFAULT_255_2_778
10
17.5739198
20
89.4281265
11
17.5612198
21
90.1946265
0
LINE
8
DEFAULT_255_2_778
10
17.5612198
20
90.1946265
11
17.3720198
21
90.1946265
0
LINE
8
DEFAULT_255_2_778
10
17.3720198
20
90.1946265
11
17.3720198
21
90.4082265
0
LINE
8
DEFAULT_255_2_778
10
17.3720198
20
90.4082265
11
17.5736198
21
90.4082265
0
LINE
8
DEFAULT_255_2_778
10
17.5736198
20
90.4082265
11
17.6996198
21
90.9106265
0
LINE
8
DEFAULT_255_2_778
10
17.6996198
20
90.9106265
11
17.9139198
21
90.9106265
0
LINE
8
DEFAULT_255_2_778
10
17.9139198
20
90.9106265
11
17.9266198
21
90.4082265
0
LINE
8
DEFAULT_255_2_778
10
17.9266198
20
90.4082265
11
18.5568198
21
90.4082265
0
LINE
8
DEFAULT_255_2_778
10
18.5568198
20
90.4082265
11
18.8592198
21
89.5790265
0
LINE
8
DEFAULT_255_2_778
10
18.8592198
20
89.5790265
11
19.1616198
21
90.4082265
0
LINE
8
DEFAULT_255_2_778
10
19.1616198
20
90.4082265
11
19.4768198
21
90.4082265
0
LINE
8
DEFAULT_255_2_778
10
19.4768198
20
90.4082265
11
18.8214198
21
88.7622265
0
ARC
8
DEFAULT_255_2_778
10
20.4886862
20
89.4729313
40
0.5325132
50
158.8117849
51
180.8166314
0
ARC
8
DEFAULT_255_2_778
10
20.1842351
20
89.5990458
40
0.2032019
50
123.934274
51
160.9412119
0
ARC
8
DEFAULT_255_2_778
10
20.1146708
20
89.6920343
40
0.0874105
50
90.4874929
51
120.1257683
0
ARC
8
DEFAULT_255_2_778
10
20.1002562
20
89.6536743
40
0.1265082
50
24.4554496
51
83.7963195
0
ARC
8
DEFAULT_255_2_778
10
19.838393
20
89.4974289
40
0.4308905
50
5.6598625
51
28.957143
0
ARC
8
DEFAULT_255_2_778
10
19.6526819
20
89.4658841
40
0.6189454
50
359.9497817
51
6.8703696
0
ARC
8
DEFAULT_255_2_778
10
19.739561
20
89.4578406
40
0.532119
50
338.804197
51
0.8077062
0
ARC
8
DEFAULT_255_2_778
10
20.0434041
20
89.3318836
40
0.2034314
50
303.9637337
51
340.9394474
0
ARC
8
DEFAULT_255_2_778
10
20.1131773
20
89.2386817
40
0.0873432
50
270.4918639
51
300.1560267
0
ARC
8
DEFAULT_255_2_778
10
20.1275984
20
89.2771157
40
0.1265149
50
204.4617097
51
263.7964427
0
ARC
8
DEFAULT_255_2_778
10
20.3893028
20
89.4333099
40
0.4307345
50
185.6642403
51
208.9631817
0
ARC
8
DEFAULT_255_2_778
10
20.5745796
20
89.4648017
40
0.6183526
50
179.9499665
51
186.873664
0
ARC
8
DEFAULT_255_2_778
10
20.3794104
20
89.4694257
40
0.5240325
50
152.511927
51
180.7855003
0
ARC
8
DEFAULT_255_2_778
10
20.153316
20
89.5973056
40
0.264594
50
107.9689651
51
154.4798484
0
ARC
8
DEFAULT_255_2_778
10
20.1171586
20
89.6751433
40
0.1796984
50
90.01006
51
104.6572928
0
ARC
8
DEFAULT_255_2_778
10
20.1028885
20
89.624023
40
0.2312574
50
28.2083535
51
86.4700607
0
ARC
8
DEFAULT_255_2_778
10
19.8816202
20
89.4768591
40
0.4964429
50
2.8146136
51
31.1060953
0
ARC
8
DEFAULT_255_2_778
10
19.7786343
20
89.4623264
40
0.6000928
50
359.9919055
51
3.7176902
0
ARC
8
DEFAULT_255_2_778
10
19.8537274
20
89.4550993
40
0.5250483
50
332.6664514
51
0.7794307
0
ARC
8
DEFAULT_255_2_778
10
20.0799829
20
89.3279762
40
0.2658372
50
288.4439106
51
334.6152105
0
ARC
8
DEFAULT_255_2_778
10
20.1170892
20
89.2493069
40
0.1797652
50
270.012078
51
285.1556488
0
ARC
8
DEFAULT_255_2_778
10
20.1313807
20
89.3004594
40
0.2313572
50
208.2191033
51
266.4678588
0
ARC
8
DEFAULT_255_2_778
10
20.3525546
20
89.4476219
40
0.4964632
50
182.8162116
51
211.116011
0
ARC
8
DEFAULT_255_2_778
10
20.4554662
20
89.4621534
40
0.6000391
50
179.9915681
51
183.7193211
0
LINE
8
DEFAULT_255_2_778
10
19.9562271
20
89.4653417
11
19.9562271
21
89.4653417
0
LINE
8
DEFAULT_255_2_778
10
19.8554271
20
89.4622417
11
19.8554271
21
89.4622417
0
ARC
8
DEFAULT_255_2_778
10
21.0810862
20
89.4729313
40
0.5325132
50
158.8117849
51
180.8166314
0
ARC
8
DEFAULT_255_2_778
10
20.7766351
20
89.5990458
40
0.2032019
50
123.934274
51
160.9412119
0
ARC
8
DEFAULT_255_2_778
10
20.7070708
20
89.6920343
40
0.0874105
50
90.4874929
51
120.1257683
0
ARC
8
DEFAULT_255_2_778
10
20.6926562
20
89.6536743
40
0.1265082
50
24.4554496
51
83.7963195
0
ARC
8
DEFAULT_255_2_778
10
20.430793
20
89.4974289
40
0.4308905
50
5.6598625
51
28.957143
0
ARC
8
DEFAULT_255_2_778
10
20.2450819
20
89.4658841
40
0.6189454
50
359.9497817
51
6.8703696
0
ARC
8
DEFAULT_255_2_778
10
20.331961
20
89.4578406
40
0.532119
50
338.804197
51
0.8077062
0
ARC
8
DEFAULT_255_2_778
10
20.6358041
20
89.3318836
40
0.2034314
50
303.9637337
51
340.9394474
0
ARC
8
DEFAULT_255_2_778
10
20.7055773
20
89.2386817
40
0.0873432
50
270.4918639
51
300.1560267
0
ARC
8
DEFAULT_255_2_778
10
20.7199984
20
89.2771157
40
0.1265149
50
204.4617097
51
263.7964427
0
ARC
8
DEFAULT_255_2_778
10
20.9817028
20
89.4333099
40
0.4307345
50
185.6642403
51
208.9631817
0
ARC
8
DEFAULT_255_2_778
10
21.1669796
20
89.4648017
40
0.6183526
50
179.9499665
51
186.873664
0
ARC
8
DEFAULT_255_2_778
10
20.9718104
20
89.4694257
40
0.5240325
50
152.511927
51
180.7855003
0
ARC
8
DEFAULT_255_2_778
10
20.745716
20
89.5973056
40
0.264594
50
107.9689651
51
154.4798484
0
ARC
8
DEFAULT_255_2_778
10
20.7095586
20
89.6751433
40
0.1796984
50
90.01006
51
104.6572928
0
ARC
8
DEFAULT_255_2_778
10
20.6952885
20
89.624023
40
0.2312574
50
28.2083535
51
86.4700607
0
ARC
8
DEFAULT_255_2_778
10
20.4740202
20
89.4768591
40
0.4964429
50
2.8146136
51
31.1060953
0
ARC
8
DEFAULT_255_2_778
10
20.3710343
20
89.4623264
40
0.6000928
50
359.9919055
51
3.7176902
0
ARC
8
DEFAULT_255_2_778
10
20.4461274
20
89.4550993
40
0.5250483
50
332.6664514
51
0.7794307
0
ARC
8
DEFAULT_255_2_778
10
20.6723829
20
89.3279762
40
0.2658372
50
288.4439106
51
334.6152105
0
ARC
8
DEFAULT_255_2_778
10
20.7094892
20
89.2493069
40
0.1797652
50
270.012078
51
285.1556488
0
ARC
8
DEFAULT_255_2_778
10
20.7237807
20
89.3004594
40
0.2313572
50
208.2191033
51
266.4678588
0
ARC
8
DEFAULT_255_2_778
10
20.9449546
20
89.4476219
40
0.4964632
50
182.8162116
51
211.116011
0
ARC
8
DEFAULT_255_2_778
10
21.0478662
20
89.4621534
40
0.6000391
50
179.9915681
51
183.7193211
0
LINE
8
DEFAULT_255_2_778
10
20.5486271
20
89.4653417
11
20.5486271
21
89.4653417
0
LINE
8
DEFAULT_255_2_778
10
20.4478271
20
89.4622417
11
20.4478271
21
89.4622417
0
ARC
8
DEFAULT_255_2_778
10
21.6734862
20
89.4729313
40
0.5325132
50
158.8117849
51
180.8166314
0
ARC
8
DEFAULT_255_2_778
10
21.3690351
20
89.5990458
40
0.2032019
50
123.934274
51
160.9412119
0
ARC
8
DEFAULT_255_2_778
10
21.2994708
20
89.6920343
40
0.0874105
50
90.4874929
51
120.1257683
0
ARC
8
DEFAULT_255_2_778
10
21.2850562
20
89.6536743
40
0.1265082
50
24.4554496
51
83.7963195
0
ARC
8
DEFAULT_255_2_778
10
21.023193
20
89.4974289
40
0.4308905
50
5.6598625
51
28.957143
0
ARC
8
DEFAULT_255_2_778
10
20.8374819
20
89.4658841
40
0.6189454
50
359.9497817
51
6.8703696
0
ARC
8
DEFAULT_255_2_778
10
20.924361
20
89.4578406
40
0.532119
50
338.804197
51
0.8077062
0
ARC
8
DEFAULT_255_2_778
10
21.2282041
20
89.3318836
40
0.2034314
50
303.9637337
51
340.9394474
0
ARC
8
DEFAULT_255_2_778
10
21.2979773
20
89.2386817
40
0.0873432
50
270.4918639
51
300.1560267
0
ARC
8
DEFAULT_255_2_778
10
21.3123984
20
89.2771157
40
0.1265149
50
204.4617097
51
263.7964427
0
ARC
8
DEFAULT_255_2_778
10
21.5741028
20
89.4333099
40
0.4307345
50
185.6642403
51
208.9631817
0
ARC
8
DEFAULT_255_2_778
10
21.7593796
20
89.4648017
40
0.6183526
50
179.9499665
51
186.873664
0
ARC
8
DEFAULT_255_2_778
10
21.5642104
20
89.4694257
40
0.5240325
50
152.511927
51
180.7855003
0
ARC
8
DEFAULT_255_2_778
10
21.338116
20
89.5973056
40
0.264594
50
107.9689651
51
154.4798484
0
ARC
8
DEFAULT_255_2_778
10
21.3019586
20
89.6751433
40
0.1796984
50
90.01006
51
104.6572928
0
ARC
8
DEFAULT_255_2_778
10
21.2876885
20
89.624023
40
0.2312574
50
28.2083535
51
86.4700607
0
ARC
8
DEFAULT_255_2_778
10
21.0664202
20
89.4768591
40
0.4964429
50
2.8146136
51
31.1060953
0
ARC
8
DEFAULT_255_2_778
10
20.9634343
20
89.4623264
40
0.6000928
50
359.9919055
51
3.7176902
0
ARC
8
DEFAULT_255_2_778
10
21.0385274
20
89.4550993
40
0.5250483
50
332.6664514
51
0.7794307
0
ARC
8
DEFAULT_255_2_778
10
21.2647829
20
89.3279762
40
0.2658372
50
288.4439106
51
334.6152105
0
ARC
8
DEFAULT_255_2_778
10
21.3018892
20
89.2493069
40
0.1797652
50
270.012078
51
285.1556488
0
ARC
8
DEFAULT_255_2_778
10
21.3161807
20
89.3004594
40
0.2313572
50
208.2191033
51
266.4678588
0
ARC
8
DEFAULT_255_2_778
10
21.5373546
20
89.4476219
40
0.4964632
50
182.8162116
51
211.116011
0
ARC
8
DEFAULT_255_2_778
10
21.6402662
20
89.4621534
40
0.6000391
50
179.9915681
51
183.7193211
0
LINE
8
DEFAULT_255_2_778
10
21.1410271
20
89.4653417
11
21.1410271
21
89.4653417
0
LINE
8
DEFAULT_255_2_778
10
21.0402271
20
89.4622417
11
21.0402271
21
89.4622417
0
ARC
8
DEFAULT_255_2_778
10
9.3873819
20
89.7983426
40
0.1950108
50
91.6788031
51
181.813939
0
ARC
8
DEFAULT_255_2_778
10
9.375889
20
89.7982798
40
0.1950756
50
358.2051219
51
88.3021655
0
ARC
8
DEFAULT_255_2_778
10
9.3758891
20
89.7860596
40
0.1950754
50
271.6978133
51
1.7949071
0
ARC
8
DEFAULT_255_2_778
10
9.3873819
20
89.7859969
40
0.1950108
50
178.186061
51
268.3211969
0
ARC
8
DEFAULT_255_2_778
10
9.5333727
20
89.7989309
40
0.4668529
50
145.043768
51
180.8298084
0
ARC
8
DEFAULT_255_2_778
10
9.3902029
20
89.9066132
40
0.287883
50
91.6987406
51
146.2830079
0
ARC
8
DEFAULT_255_2_778
10
9.3664457
20
89.8896621
40
0.3050877
50
23.4934874
51
87.1398977
0
ARC
8
DEFAULT_255_2_778
10
9.2119732
20
89.7957629
40
0.484809
50
359.5753549
51
26.3944218
0
ARC
8
DEFAULT_255_2_778
10
9.2302375
20
89.78542
40
0.4665802
50
325.0256173
51
0.8288991
0
ARC
8
DEFAULT_255_2_778
10
9.3731106
20
89.6778699
40
0.2879274
50
271.7032906
51
326.2656695
0
ARC
8
DEFAULT_255_2_778
10
9.3969078
20
89.6949987
40
0.3053095
50
203.3271307
51
267.1389871
0
ARC
8
DEFAULT_255_2_778
10
9.5516258
20
89.788593
40
0.4850703
50
179.5775117
51
206.2433806
0
ARC
8
DEFAULT_255_2_778
10
9.3711242
20
89.7732025
40
0.6700752
50
95.9615992
51
178.9168048
0
ARC
8
DEFAULT_255_2_778
10
9.3941457
20
89.7051302
40
0.7403396
50
89.982733
51
97.186551
0
ARC
8
DEFAULT_255_2_778
10
9.3986015
20
89.7353279
40
0.7101545
50
48.1622127
51
90.3414937
0
ARC
8
DEFAULT_255_2_778
10
9.4447028
20
89.7843697
40
0.6428678
50
0.1336951
51
48.3079447
0
ARC
8
DEFAULT_255_2_778
10
9.4177539
20
89.7984035
40
0.6699322
50
275.9543621
51
358.9279918
0
ARC
8
DEFAULT_255_2_778
10
9.3945956
20
89.8672114
40
0.7409416
50
269.9824665
51
277.1836307
0
ARC
8
DEFAULT_255_2_778
10
9.3901051
20
89.8367743
40
0.7105173
50
228.7495498
51
270.3438303
0
ARC
8
DEFAULT_255_2_778
10
9.3444767
20
89.7873952
40
0.6433097
50
180.1358579
51
228.9051204
0
LINE
8
DEFAULT_255_2_778
10
11.1149688
20
90.1318698
11
11.1149688
21
89.5035698
0
ARC
8
DEFAULT_255_2_778
10
10.4507178
20
90.6967512
40
1.3656176
50
292.8223416
51
299.1049387
0
ARC
8
DEFAULT_255_2_778
10
10.7172229
20
90.0550623
40
0.6708024
50
282.4794629
51
293.1002978
0
ARC
8
DEFAULT_255_2_778
10
10.7905801
20
89.7295416
40
0.3371233
50
270.5838487
51
282.2615078
0
ARC
8
DEFAULT_255_2_778
10
10.7886817
20
89.562928
40
0.1705756
50
241.3798642
51
271.7918735
0
ARC
8
DEFAULT_255_2_778
10
10.7725697
20
89.526112
40
0.1305871
50
222.8095502
51
239.8477433
0
ARC
8
DEFAULT_255_2_778
10
10.8632448
20
89.6506648
40
0.2833162
50
195.5923976
51
228.8379937
0
ARC
8
DEFAULT_255_2_778
10
11.2482514
20
89.7744125
40
0.6875956
50
182.8988217
51
196.901328
0
ARC
8
DEFAULT_255_2_778
10
11.7546763
20
89.8165595
40
1.1956176
50
179.9089191
51
183.6886871
0
ARC
8
DEFAULT_255_2_778
10
12.1230229
20
89.8169544
40
1.5639636
50
177.2544012
51
179.9448392
0
LINE
8
DEFAULT_255_2_778
10
10.5608547
20
89.8918705
11
10.5608688
21
89.8921698
0
ARC
8
DEFAULT_255_2_778
10
11.0254754
20
89.8272208
40
0.4691244
50
149.0121274
51
172.0420019
0
ARC
8
DEFAULT_255_2_778
10
10.8596413
20
89.9176494
40
0.280511
50
88.5440138
51
147.4067729
0
ARC
8
DEFAULT_255_2_778
10
10.7906193
20
89.3674864
40
0.8340669
50
72.0203436
51
84.7616527
0
ARC
8
DEFAULT_255_2_778
10
10.9080282
20
89.7455191
40
0.4382821
50
61.8252032
51
71.3646611
0
ARC
8
DEFAULT_255_2_778
10
10.4986962
20
90.4159032
40
1.2918982
50
287.0682731
51
298.4915226
0
ARC
8
DEFAULT_255_2_778
10
10.6577818
20
89.8929772
40
0.7453122
50
270.6811176
51
287.1763457
0
ARC
8
DEFAULT_255_2_778
10
10.6665525
20
89.7269494
40
0.5792318
50
267.7358327
51
270.0088232
0
ARC
8
DEFAULT_255_2_778
10
10.6470952
20
89.5673768
40
0.4192211
50
203.9093897
51
269.5317059
0
ARC
8
DEFAULT_255_2_778
10
11.1145726
20
89.8267122
40
0.9528801
50
192.6009015
51
206.7737237
0
ARC
8
DEFAULT_255_2_778
10
11.5163822
20
89.9350427
40
1.3687639
50
192.6165694
51
193.3570279
0
ARC
8
DEFAULT_255_2_778
10
11.2164444
20
89.8292151
40
1.05363
50
182.6356817
51
190.5628607
0
ARC
8
DEFAULT_255_2_778
10
11.0629576
20
89.8196692
40
0.89987
50
180.0135228
51
182.4779265
0
ARC
8
DEFAULT_255_2_778
10
10.8371185
20
89.8355664
40
0.6742234
50
136.7456723
51
181.3691273
0
ARC
8
DEFAULT_255_2_778
10
10.687757
20
89.9243873
40
0.5059802
50
89.2314975
51
132.4774114
0
ARC
8
DEFAULT_255_2_778
10
10.6944571
20
89.8136601
40
0.6166618
50
87.8056342
51
89.9919799
0
ARC
8
DEFAULT_255_2_778
10
10.7056164
20
89.2719717
40
1.157965
50
70.3175508
51
89.3838437
0
ARC
8
DEFAULT_255_2_778
10
10.6142508
20
88.9644874
40
1.4783609
50
70.2024224
51
70.9971735
0
ARC
8
DEFAULT_255_2_778
10
6.8356463
20
90.4828908
40
0.4410946
50
358.399361
51
20.0218069
0
ARC
8
DEFAULT_255_2_778
10
7.0501301
20
90.5589859
40
0.2135292
50
20.5419455
51
86.7410997
0
ARC
8
DEFAULT_255_2_778
10
6.965547
20
90.5189555
40
0.314717
50
287.8983612
51
351.2113386
0
ARC
8
DEFAULT_255_2_778
10
7.0636919
20
90.4677198
40
0.618465
50
4.9299985
51
29.9140029
0
ARC
8
DEFAULT_255_2_778
10
7.1679648
20
90.5085178
40
0.5080106
50
31.7908677
51
73.6304902
0
ARC
8
DEFAULT_255_2_778
10
7.032524
20
90.1264821
40
0.9130031
50
72.2320975
51
84.9703096
0
ARC
8
DEFAULT_255_2_778
10
6.9980565
20
90.8912673
40
0.9427779
50
276.9765222
51
292.3131775
0
ARC
8
DEFAULT_255_2_778
10
7.177357
20
90.4837302
40
0.4978062
50
291.0302401
51
353.4987619
0
ARC
8
DEFAULT_255_2_778
10
6.907836
20
90.5390679
40
0.7722473
50
351.6832812
51
358.6496898
0
LINE
8
DEFAULT_255_2_778
10
9.1924688
20
89.7921698
11
9.1924688
21
89.7921698
0
LINE
8
DEFAULT_255_2_778
10
9.0665688
20
89.7921698
11
9.0665688
21
89.7921698
0
LINE
8
DEFAULT_255_2_778
10
8.7011688
20
89.7858698
11
8.7011688
21
89.7858698
0
LINE
8
DEFAULT_255_2_778
10
11.1149688
20
90.1318698
11
11.1149688
21
90.1318698
0
LINE
8
DEFAULT_255_2_778
10
11.1149688
20
90.3552698
11
11.1149688
21
91.1076698
0
LINE
8
DEFAULT_255_2_778
10
11.1149688
20
91.1076698
11
11.4787688
21
91.1489698
0
LINE
8
DEFAULT_255_2_778
10
11.4787688
20
91.1489698
11
11.4787688
21
89.1812698
0
LINE
8
DEFAULT_255_2_778
10
11.4787688
20
89.1812698
11
11.1231688
21
89.1812698
0
LINE
8
DEFAULT_255_2_778
10
11.1231688
20
89.1812698
11
11.1149688
21
89.2804698
0
LINE
8
DEFAULT_255_2_778
10
11.1149688
20
90.3554698
11
11.1149688
21
90.3552698
0
LINE
8
DEFAULT_255_2_778
10
7.0622688
20
90.7721698
11
6.7977688
21
90.7721698
0
LINE
8
DEFAULT_255_2_778
10
6.7977688
20
90.7721698
11
6.7977688
21
90.2194698
0
LINE
8
DEFAULT_255_2_778
10
6.7977688
20
90.2194698
11
7.0622688
21
90.2194698
0
LINE
8
DEFAULT_255_2_778
10
7.2765688
20
90.4708698
11
7.2765688
21
90.4705698
0
LINE
8
DEFAULT_255_2_778
10
7.1125688
20
91.0359698
11
6.4066688
21
91.0359698
0
LINE
8
DEFAULT_255_2_778
10
6.4066688
20
91.0359698
11
6.4066688
21
89.1764698
0
LINE
8
DEFAULT_255_2_778
10
6.4066688
20
89.1764698
11
6.7974688
21
89.1764698
0
LINE
8
DEFAULT_255_2_778
10
6.7974688
20
89.1764698
11
6.7974688
21
89.9554698
0
LINE
8
DEFAULT_255_2_778
10
6.7974688
20
89.9554698
11
7.1125688
21
89.9554698
0
LINE
8
DEFAULT_255_2_778
10
7.6798688
20
90.5208698
11
7.6798688
21
90.5208698
0
ARC
8
DEFAULT_255_2_778
10
19.7177453
20
90.4059946
40
0.1240871
50
90.4970902
51
180.7468723
0
ARC
8
DEFAULT_255_2_778
10
19.7156718
20
90.405974
40
0.1241071
50
359.2627624
51
89.5397352
0
ARC
8
DEFAULT_255_2_778
10
19.7156079
20
90.4028429
40
0.1241704
50
270.4895344
51
0.7079223
0
ARC
8
DEFAULT_255_2_778
10
19.7178097
20
90.4028225
40
0.1241507
50
179.2825375
51
269.4734631
0
LINE
8
DEFAULT_255_2_778
10
19.5936688
20
90.4043771
11
19.5936688
21
90.4043771
0
ARC
8
DEFAULT_255_2_778
10
19.7159701
20
90.4046527
40
0.1600856
50
89.815832
51
180.0770398
0
ARC
8
DEFAULT_255_2_778
10
19.7169993
20
90.4046527
40
0.1600856
50
359.9229602
51
90.184168
0
ARC
8
DEFAULT_255_2_778
10
19.7169781
20
90.4041436
40
0.1601069
50
269.8234249
51
0.1051606
0
ARC
8
DEFAULT_255_2_778
10
19.7159913
20
90.4041437
40
0.160107
50
179.8948697
51
270.1765625
0
LINE
8
DEFAULT_255_2_778
10
19.5558847
20
90.4044375
11
19.5558847
21
90.4044375
0
ARC
8
DEFAULT_255_2_778
10
19.7173671
20
90.3617427
40
0.0239886
50
28.4465281
51
103.4267637
0
ARC
8
DEFAULT_255_2_778
10
19.6923938
20
90.1494539
40
0.2364193
50
85.2923939
51
90.3233848
0
ARC
8
DEFAULT_255_2_778
10
19.7079096
20
89.7497579
40
0.7359887
50
91.4445043
51
94.5082143
0
ARC
8
DEFAULT_255_2_778
10
19.7011498
20
89.9751119
40
0.510537
50
90.0204411
51
91.3236595
0
ARC
8
DEFAULT_255_2_778
10
19.7067649
20
90.2507213
40
0.234999
50
77.9191012
51
91.4136047
0
ARC
8
DEFAULT_255_2_778
10
19.7539008
20
90.4469788
40
0.0335995
50
19.4828986
51
86.5059996
0
ARC
8
DEFAULT_255_2_778
10
19.7648421
20
90.454593
40
0.0210433
50
359.8753665
51
9.8287108
0
ARC
8
DEFAULT_255_2_778
10
19.7362646
20
90.4594595
40
0.0498633
50
318.6549341
51
354.3463421
0
ARC
8
DEFAULT_255_2_778
10
19.6181615
20
90.5471364
40
0.1968255
50
312.3913188
51
322.2071703
0
ARC
8
DEFAULT_255_2_778
10
19.7323609
20
90.3589103
40
0.0466808
50
7.8211356
51
66.6544263
0
ARC
8
DEFAULT_255_2_778
10
19.5988118
20
90.3310625
40
0.1830194
50
4.3516874
51
10.7699648
0
ARC
8
DEFAULT_255_2_778
10
19.8039496
20
90.3412232
40
0.0229506
50
170.6553415
51
230.4661874
0
ARC
8
DEFAULT_255_2_778
10
19.7917715
20
90.3316986
40
0.0085297
50
253.4430888
51
270.5900942
0
ARC
8
DEFAULT_255_2_778
10
19.7115374
20
90.4280403
40
0.034132
50
13.2604458
51
106.205442
0
ARC
8
DEFAULT_255_2_778
10
19.6946119
20
90.2820217
40
0.1789476
50
87.6300226
51
90.0488299
0
ARC
8
DEFAULT_255_2_778
10
19.7044442
20
90.4798065
40
0.0666888
50
261.3891358
51
304.5653386
0
ARC
8
DEFAULT_255_2_778
10
19.7331798
20
90.4325271
40
0.0118802
50
319.9940947
51
0.6866831
0
LINE
8
DEFAULT_255_2_778
10
19.7921594
20
90.3229694
11
19.7511594
21
90.3229694
0
LINE
8
DEFAULT_255_2_778
10
19.7511594
20
90.3229694
11
19.7384594
21
90.3731694
0
LINE
8
DEFAULT_255_2_778
10
19.6910594
20
90.3858694
11
19.6910594
21
90.3231694
0
LINE
8
DEFAULT_255_2_778
10
19.6910594
20
90.3231694
11
19.6532594
21
90.3231694
0
LINE
8
DEFAULT_255_2_778
10
19.6532594
20
90.3231694
11
19.6500594
21
90.4834694
0
LINE
8
DEFAULT_255_2_778
10
19.7918594
20
90.3231694
11
19.7921594
21
90.3229694
0
LINE
8
DEFAULT_255_2_778
10
19.6944594
20
90.4609694
11
19.6944594
21
90.4138694
0
ARC
8
DEFAULT_255_2_778
10
22.0516426
20
89.0389609
40
0.1859656
50
91.2045372
51
181.4098501
0
ARC
8
DEFAULT_255_2_778
10
22.04384
20
89.0388785
40
0.1860476
50
358.6161552
51
88.8008978
0
ARC
8
DEFAULT_255_2_778
10
22.0437755
20
89.0299541
40
0.1861106
50
271.2185606
51
1.3643499
0
ARC
8
DEFAULT_255_2_778
10
22.0517085
20
89.0295751
40
0.1857322
50
178.57764
51
268.7736356
0
ARC
8
DEFAULT_255_2_778
10
22.9491426
20
89.0511609
40
0.1859656
50
91.2045372
51
181.4098501
0
ARC
8
DEFAULT_255_2_778
10
22.9413241
20
89.0511609
40
0.1859656
50
358.5901499
51
88.7954628
0
ARC
8
DEFAULT_255_2_778
10
22.9413241
20
89.0420099
40
0.1859656
50
271.2045372
51
1.4098501
0
ARC
8
DEFAULT_255_2_778
10
22.9491047
20
89.0417712
40
0.1857262
50
178.6072549
51
268.8056271
0
ARC
8
DEFAULT_255_2_778
10
22.5004267
20
89.0388785
40
0.1860476
50
91.1991022
51
181.3838448
0
ARC
8
DEFAULT_255_2_778
10
22.4926241
20
89.0389609
40
0.1859656
50
358.5901499
51
88.7954628
0
ARC
8
DEFAULT_255_2_778
10
22.4925595
20
89.0298716
40
0.1860286
50
271.2240081
51
1.3903789
0
ARC
8
DEFAULT_255_2_778
10
22.5004923
20
89.0296574
40
0.1858142
50
178.6036506
51
268.7791685
0
LINE
8
DEFAULT_255_2_778
10
21.8660334
20
89.0341854
11
21.8657334
21
89.0343854
0
LINE
8
DEFAULT_255_2_778
10
22.7634334
20
89.0462854
11
22.7632334
21
89.0465854
0
LINE
8
DEFAULT_255_2_778
10
22.3147334
20
89.0341854
11
22.3144334
21
89.0343854
0
ARC
8
DEFAULT_255_2_778
10
12.2412908
20
89.7996179
40
0.3756367
50
270.2518229
51
277.9224239
0
ARC
8
DEFAULT_255_2_778
10
12.2267567
20
89.5871058
40
0.163922
50
191.9135594
51
275.6664103
0
ARC
8
DEFAULT_255_2_778
10
12.2912552
20
89.7146972
40
0.6680449
50
207.8643513
51
221.7718618
0
ARC
8
DEFAULT_255_2_778
10
12.0737789
20
89.5082613
40
0.3684417
50
220.3588923
51
270.0277924
0
ARC
8
DEFAULT_255_2_778
10
12.0683238
20
89.6403085
40
0.5005206
50
270.6449322
51
287.6494066
0
ARC
8
DEFAULT_255_2_778
10
11.977822
20
89.9362608
40
0.8099892
50
287.4026496
51
297.6988649
0
ARC
8
DEFAULT_255_2_778
10
11.7698217
20
90.3394576
40
1.2636684
50
297.5514274
51
304.3018591
0
ARC
8
DEFAULT_255_2_778
10
12.3708589
20
89.5638997
40
0.1058286
50
290.4109967
51
338.4144294
0
ARC
8
DEFAULT_255_2_778
10
12.1869241
20
89.9330041
40
0.5177505
50
282.5203845
51
295.2483499
0
LINE
8
DEFAULT_255_2_778
10
12.0663656
20
89.5532664
11
12.0599656
21
90.4012664
0
LINE
8
DEFAULT_255_2_778
10
12.0599656
20
90.4012664
11
11.7006656
21
90.4012664
0
LINE
8
DEFAULT_255_2_778
10
11.7006656
20
90.4012664
11
11.7006656
21
89.4024664
0
LINE
8
DEFAULT_255_2_778
10
12.4819656
20
89.2955664
11
12.4946656
21
89.1825664
0
LINE
8
DEFAULT_255_2_778
10
12.4946656
20
89.1825664
11
12.8349656
21
89.1825664
0
LINE
8
DEFAULT_255_2_778
10
12.8349656
20
89.1825664
11
12.8349656
21
90.4139664
0
LINE
8
DEFAULT_255_2_778
10
12.8349656
20
90.4139664
11
12.4692656
21
90.4139664
0
LINE
8
DEFAULT_255_2_778
10
12.4692656
20
90.4139664
11
12.4692656
21
89.5217664
0
LINE
8
DEFAULT_255_1_388
10
7.8465094
20
86.5263317
11
7.5365868
21
86.5263317
0
LINE
8
DEFAULT_255_1_388
10
7.5365868
20
86.5263317
11
7.5365868
21
86.0113
0
LINE
8
DEFAULT_255_1_388
10
7.5365868
20
86.0113
11
7.3631024
21
86.0113
0
LINE
8
DEFAULT_255_1_388
10
7.3631024
20
86.0113
11
7.3631024
21
87.3268898
0
LINE
8
DEFAULT_255_1_388
10
7.3631024
20
87.3268898
11
7.8483165
21
87.3268898
0
LINE
8
DEFAULT_255_1_388
10
7.5365868
20
87.1841267
11
7.5365868
21
86.6681914
0
LINE
8
DEFAULT_255_1_388
10
7.5365868
20
86.6681914
11
7.8483165
21
86.6681914
0
LINE
8
DEFAULT_255_1_388
10
7.8582557
20
87.1841267
11
7.5365868
21
87.1841267
0
ARC
8
DEFAULT_255_1_388
10
7.8530538
20
86.6452334
40
0.6816729
50
78.8380084
51
90.398184
0
ARC
8
DEFAULT_255_1_388
10
7.8998569
20
86.8725796
40
0.449571
50
58.9633273
51
79.0810717
0
ARC
8
DEFAULT_255_1_388
10
7.9337953
20
86.9355823
40
0.3781049
50
48.0194715
51
58.4475592
0
ARC
8
DEFAULT_255_1_388
10
7.9437773
20
86.9451818
40
0.3642936
50
3.3374546
51
48.1766642
0
ARC
8
DEFAULT_255_1_388
10
7.805258
20
86.9252581
40
0.5038766
50
359.9483251
51
4.6822857
0
ARC
8
DEFAULT_255_1_388
10
7.8192503
20
86.9204779
40
0.4899031
50
346.1879032
51
0.5059221
0
ARC
8
DEFAULT_255_1_388
10
7.9721295
20
86.8807763
40
0.3319729
50
310.8832219
51
346.5426612
0
ARC
8
DEFAULT_255_1_388
10
7.9374143
20
86.9276853
40
0.3901853
50
286.6925305
51
310.228778
0
ARC
8
DEFAULT_255_1_388
10
7.8733873
20
87.1290585
40
0.6014737
50
274.6848219
51
287.0247342
0
ARC
8
DEFAULT_255_1_388
10
7.8480422
20
87.3775088
40
0.8511785
50
269.8968222
51
275.0192639
0
ARC
8
DEFAULT_255_1_388
10
7.8511415
20
87.1437144
40
0.4755314
50
269.6596206
51
279.4150542
0
ARC
8
DEFAULT_255_1_388
10
7.8800873
20
86.9759945
40
0.3053379
50
279.2050006
51
294.9901776
0
ARC
8
DEFAULT_255_1_388
10
7.9127508
20
86.9031353
40
0.2255036
50
295.2886769
51
311.2912669
0
ARC
8
DEFAULT_255_1_388
10
7.9207249
20
86.8912938
40
0.2113522
50
311.7853512
51
347.2860549
0
ARC
8
DEFAULT_255_1_388
10
7.810041
20
86.919743
40
0.3256011
50
346.6891629
51
0.1057086
0
ARC
8
DEFAULT_255_1_388
10
7.717787
20
86.9230247
40
0.417863
50
359.63239
51
359.9961329
0
ARC
8
DEFAULT_255_1_388
10
7.8342475
20
86.9257987
40
0.3014155
50
359.4673371
51
15.5931159
0
ARC
8
DEFAULT_255_1_388
10
7.9045538
20
86.9447937
40
0.2285918
50
15.7441779
51
46.620186
0
ARC
8
DEFAULT_255_1_388
10
7.8879298
20
86.9256361
40
0.2539359
50
46.8628482
51
75.6676625
0
ARC
8
DEFAULT_255_1_388
10
7.8548354
20
86.8065243
40
0.3775415
50
75.2763152
51
88.2916439
0
ARC
8
DEFAULT_255_1_388
10
7.8482354
20
86.7063097
40
0.4779221
50
87.8589087
51
88.7986197
0
LINE
8
DEFAULT_255_1_388
10
8.9768685
20
86.9943781
11
8.9768685
21
86.838965
0
LINE
8
DEFAULT_255_1_388
10
8.6714637
20
86.7052375
11
8.6714637
21
86.0113
0
LINE
8
DEFAULT_255_1_388
10
8.6714637
20
86.0113
11
8.5043043
21
86.0113
0
LINE
8
DEFAULT_255_1_388
10
8.5043043
20
86.0113
11
8.5043043
21
86.9889567
0
LINE
8
DEFAULT_255_1_388
10
8.5043043
20
86.9889567
11
8.6669459
21
86.9889567
0
LINE
8
DEFAULT_255_1_388
10
8.6669459
20
86.9889567
11
8.6696566
21
86.8760112
0
ARC
8
DEFAULT_255_1_388
10
8.9018845
20
86.3823068
40
0.4627735
50
80.6751522
51
86.893806
0
ARC
8
DEFAULT_255_1_388
10
8.8950675
20
86.2731103
40
0.5721798
50
86.8046851
51
90.0423898
0
ARC
8
DEFAULT_255_1_388
10
8.8909094
20
86.5498197
40
0.2954939
50
89.2758283
51
106.6212906
0
ARC
8
DEFAULT_255_1_388
10
8.8679119
20
86.6334009
40
0.2088351
50
107.1347109
51
157.6456887
0
ARC
8
DEFAULT_255_1_388
10
8.9447181
20
86.5906908
40
0.296292
50
155.6557383
51
157.256838
0
ARC
8
DEFAULT_255_1_388
10
8.9226795
20
86.7217472
40
0.296341
50
127.8167201
51
148.6300223
0
ARC
8
DEFAULT_255_1_388
10
8.8941543
20
86.7510066
40
0.2557782
50
91.3329934
51
126.7875218
0
ARC
8
DEFAULT_255_1_388
10
8.902693
20
86.6706718
40
0.3363561
50
89.9858247
51
92.4688453
0
ARC
8
DEFAULT_255_1_388
10
8.9036423
20
86.7015114
40
0.3055179
50
85.3587643
51
90.1624243
0
ARC
8
DEFAULT_255_1_388
10
8.9131488
20
86.8144458
40
0.1921848
50
78.4019195
51
85.4592653
0
ARC
8
DEFAULT_255_1_388
10
8.9294549
20
86.8922142
40
0.1127267
50
67.7849217
51
78.573798
0
ARC
8
DEFAULT_255_1_388
10
8.9416183
20
86.9237374
40
0.0789473
50
63.4805074
51
67.3074739
0
LINE
8
DEFAULT_255_1_388
10
9.0681285
20
86.4974177
11
9.0681285
21
86.509164
0
LINE
8
DEFAULT_255_1_388
10
9.9581395
20
86.5010319
11
9.9581395
21
86.4892856
0
ARC
8
DEFAULT_255_1_388
10
9.696573
20
86.512804
40
0.628455
50
166.3005265
51
180.3318609
0
ARC
8
DEFAULT_255_1_388
10
9.5995079
20
86.5345267
40
0.52901
50
153.8608648
51
166.0965672
0
ARC
8
DEFAULT_255_1_388
10
9.5246245
20
86.5746652
40
0.4441126
50
135.1317053
51
154.2534962
0
ARC
8
DEFAULT_255_1_388
10
9.4932896
20
86.6023431
40
0.4023863
50
121.7042632
51
134.7771455
0
ARC
8
DEFAULT_255_1_388
10
9.5008328
20
86.5878469
40
0.4186852
50
93.4001111
51
121.5399523
0
ARC
8
DEFAULT_255_1_388
10
9.5115162
20
86.4948759
40
0.5121521
50
89.9706387
51
93.9763381
0
ARC
8
DEFAULT_255_1_388
10
9.5168147
20
86.5388563
40
0.4681988
50
71.3321659
51
90.6162917
0
ARC
8
DEFAULT_255_1_388
10
9.535118
20
86.6066003
40
0.3981841
50
41.1813875
51
70.7072086
0
ARC
8
DEFAULT_255_1_388
10
9.4813897
20
86.557813
40
0.4707474
50
12.1971434
51
41.3446641
0
ARC
8
DEFAULT_255_1_388
10
9.264716
20
86.5062328
40
0.6934429
50
359.5702713
51
12.5803533
0
ARC
8
DEFAULT_255_1_388
10
9.3179476
20
86.4857207
40
0.6402018
50
347.0196754
51
0.3190452
0
ARC
8
DEFAULT_255_1_388
10
9.425753
20
86.4625189
40
0.5299421
50
334.350439
51
346.8460534
0
ARC
8
DEFAULT_255_1_388
10
9.5208776
20
86.4131244
40
0.4228234
50
310.4228125
51
334.8045131
0
ARC
8
DEFAULT_255_1_388
10
9.5300754
20
86.4059301
40
0.4113892
50
301.8488154
51
310.0972985
0
ARC
8
DEFAULT_255_1_388
10
9.5264495
20
86.4144573
40
0.4205483
50
274.3078723
51
301.6554173
0
ARC
8
DEFAULT_255_1_388
10
9.513995
20
86.5131943
40
0.5199658
50
269.954904
51
274.859116
0
ARC
8
DEFAULT_255_1_388
10
9.5084774
20
86.4568239
40
0.4636233
50
250.8887647
51
270.6313164
0
ARC
8
DEFAULT_255_1_388
10
9.4915935
20
86.3939405
40
0.398705
50
221.1701369
51
250.2227012
0
ARC
8
DEFAULT_255_1_388
10
9.54606
20
86.4435716
40
0.4723796
50
191.6263861
51
221.3526879
0
ARC
8
DEFAULT_255_1_388
10
9.7584446
20
86.4927203
40
0.6903321
50
179.6101251
51
192.0694841
0
ARC
8
DEFAULT_255_1_388
10
9.8060793
20
86.4856681
40
0.5698993
50
179.636304
51
190.6161344
0
ARC
8
DEFAULT_255_1_388
10
9.6213125
20
86.4496635
40
0.3816643
50
190.4136062
51
208.7168709
0
ARC
8
DEFAULT_255_1_388
10
9.5639159
20
86.4211905
40
0.3176572
50
209.187109
51
217.4221816
0
ARC
8
DEFAULT_255_1_388
10
9.504363
20
86.3687729
40
0.2385702
50
216.1156863
51
265.2575395
0
ARC
8
DEFAULT_255_1_388
10
9.5132666
20
86.4332608
40
0.3035941
50
264.5891546
51
270.0602378
0
ARC
8
DEFAULT_255_1_388
10
9.5169863
20
86.3905539
40
0.2609091
50
269.2532353
51
291.8793864
0
ARC
8
DEFAULT_255_1_388
10
9.5202742
20
86.3705359
40
0.241148
50
292.9269367
51
323.1777736
0
ARC
8
DEFAULT_255_1_388
10
9.4732027
20
86.4118762
40
0.3036446
50
322.25666
51
323.087958
0
ARC
8
DEFAULT_255_1_388
10
9.4429285
20
86.4301332
40
0.3388345
50
323.6941379
51
343.8493587
0
ARC
8
DEFAULT_255_1_388
10
9.2653721
20
86.4841698
40
0.5244204
50
343.5746655
51
355.008149
0
ARC
8
DEFAULT_255_1_388
10
9.0395413
20
86.5075797
40
0.7514406
50
354.728272
51
0.1208026
0
ARC
8
DEFAULT_255_1_388
10
9.2384438
20
86.5127947
40
0.5525482
50
359.6235211
51
11.2016685
0
ARC
8
DEFAULT_255_1_388
10
9.4110265
20
86.5483284
40
0.3763527
50
10.9991302
51
30.8317616
0
ARC
8
DEFAULT_255_1_388
10
9.4555569
20
86.5717988
40
0.3260975
50
31.3007463
51
37.395541
0
ARC
8
DEFAULT_255_1_388
10
9.5114288
20
86.6189773
40
0.253082
50
36.5918894
51
62.2439906
0
ARC
8
DEFAULT_255_1_388
10
9.516658
20
86.6186378
40
0.2509927
50
63.3364883
51
89.7193846
0
ARC
8
DEFAULT_255_1_388
10
9.5118033
20
86.5538375
40
0.3158485
50
88.8962924
51
90.004475
0
ARC
8
DEFAULT_255_1_388
10
9.5082461
20
86.6191071
40
0.250604
50
89.1923115
51
114.7099029
0
ARC
8
DEFAULT_255_1_388
10
9.5114802
20
86.6233675
40
0.2481307
50
115.7996284
51
142.2901353
0
ARC
8
DEFAULT_255_1_388
10
9.5583073
20
86.5814752
40
0.310833
50
141.4607507
51
142.383894
0
ARC
8
DEFAULT_255_1_388
10
9.5730925
20
86.5746449
40
0.3267335
50
143.0176473
51
163.2340089
0
ARC
8
DEFAULT_255_1_388
10
9.7506213
20
86.5184553
40
0.5129308
50
162.9446504
51
174.3733893
0
ARC
8
DEFAULT_255_1_388
10
9.9920186
20
86.4913483
40
0.75583
50
174.1225809
51
180.1563667
0
LINE
8
DEFAULT_255_1_388
10
10.1271061
20
86.4956105
11
10.1271061
21
86.5082604
0
LINE
8
DEFAULT_255_1_388
10
10.784901
20
86.8895646
11
10.784901
21
87.399175
0
LINE
8
DEFAULT_255_1_388
10
10.784901
20
87.399175
11
10.9520604
21
87.399175
0
LINE
8
DEFAULT_255_1_388
10
10.9520604
20
87.399175
11
10.9520604
21
86.0113
0
LINE
8
DEFAULT_255_1_388
10
10.9520604
20
86.0113
11
10.7984544
21
86.0113
0
LINE
8
DEFAULT_255_1_388
10
10.7984544
20
86.0113
11
10.7903224
21
86.1161135
0
LINE
8
DEFAULT_255_1_388
10
10.784901
20
86.2778515
11
10.784901
21
86.726923
0
ARC
8
DEFAULT_255_1_388
10
10.9005754
20
86.5132084
40
0.7734851
50
169.1662656
51
180.3665225
0
ARC
8
DEFAULT_255_1_388
10
10.6534663
20
86.5624773
40
0.5215235
50
150.2837807
51
169.3798657
0
ARC
8
DEFAULT_255_1_388
10
10.5822114
20
86.5989124
40
0.4415937
50
142.1063912
51
149.8065902
0
ARC
8
DEFAULT_255_1_388
10
10.5178326
20
86.6549913
40
0.3563766
50
118.4282495
51
142.8642233
0
ARC
8
DEFAULT_255_1_388
10
10.5067338
20
86.6620109
40
0.3449797
50
89.9199141
51
117.3621403
0
ARC
8
DEFAULT_255_1_388
10
10.512919
20
86.5745171
40
0.4325108
50
89.9988001
51
90.7555106
0
ARC
8
DEFAULT_255_1_388
10
10.5171268
20
86.6032362
40
0.4038136
50
72.8979482
51
90.595751
0
ARC
8
DEFAULT_255_1_388
10
10.5393948
20
86.6836099
40
0.3204539
50
39.9932308
51
72.4773248
0
ARC
8
DEFAULT_255_1_388
10
10.5361039
20
86.3222007
40
0.3272598
50
275.0849466
51
320.9693562
0
ARC
8
DEFAULT_255_1_388
10
10.5119955
20
86.4647895
40
0.4715615
50
269.8937433
51
276.4672347
0
ARC
8
DEFAULT_255_1_388
10
10.5043495
20
86.322215
40
0.3290559
50
222.0839188
51
271.1791339
0
ARC
8
DEFAULT_255_1_388
10
10.5731004
20
86.3925998
40
0.4272982
50
217.5168262
51
222.9097935
0
ARC
8
DEFAULT_255_1_388
10
10.6285877
20
86.4307851
40
0.4945763
50
193.0962732
51
217.1109075
0
ARC
8
DEFAULT_255_1_388
10
10.8487607
20
86.4857252
40
0.7214806
50
181.1071959
51
193.3839643
0
ARC
8
DEFAULT_255_1_388
10
11.0371983
20
86.4954904
40
0.9100921
50
179.9924355
51
181.4926257
0
ARC
8
DEFAULT_255_1_388
10
10.944334
20
86.4857904
40
0.650078
50
179.6919448
51
188.655086
0
ARC
8
DEFAULT_255_1_388
10
10.7171397
20
86.4500086
40
0.420088
50
188.4934981
51
202.2188222
0
ARC
8
DEFAULT_255_1_388
10
10.6083204
20
86.4068888
40
0.3030458
50
202.4516374
51
215.9308342
0
ARC
8
DEFAULT_255_1_388
10
10.5416628
20
86.353769
40
0.2179351
50
214.9061987
51
264.2076983
0
ARC
8
DEFAULT_255_1_388
10
10.5522166
20
86.4209867
40
0.2858989
50
263.4629438
51
270.0938577
0
ARC
8
DEFAULT_255_1_388
10
10.55671
20
86.410673
40
0.2756141
50
269.1632216
51
291.0932257
0
ARC
8
DEFAULT_255_1_388
10
10.5659005
20
86.3733218
40
0.2375078
50
292.2675188
51
328.1937653
0
ARC
8
DEFAULT_255_1_388
10
10.4881663
20
86.4294245
40
0.3332054
50
327.040169
51
332.941918
0
ARC
8
DEFAULT_255_1_388
10
10.5345876
20
86.5956122
40
0.2826647
50
27.6808655
51
48.7895461
0
ARC
8
DEFAULT_255_1_388
10
10.5664512
20
86.6249738
40
0.2396281
50
49.8958562
51
87.0102063
0
ARC
8
DEFAULT_255_1_388
10
10.5547356
20
86.5363941
40
0.3287745
50
85.7763593
51
90.0424518
0
ARC
8
DEFAULT_255_1_388
10
10.5514423
20
86.6105766
40
0.25461
50
89.3136862
51
109.426258
0
ARC
8
DEFAULT_255_1_388
10
10.5430845
20
86.644891
40
0.2194978
50
110.3479382
51
145.1577921
0
ARC
8
DEFAULT_255_1_388
10
10.6166325
20
86.591319
40
0.3104736
50
144.7981654
51
162.8715843
0
ARC
8
DEFAULT_255_1_388
10
10.8072925
20
86.5300138
40
0.5107383
50
162.598526
51
173.3417416
0
ARC
8
DEFAULT_255_1_388
10
11.1074298
20
86.4927767
40
0.8131718
50
173.1877249
51
180.2459848
0
LINE
8
DEFAULT_255_1_388
10
11.8185787
20
86.0113
11
11.8149645
21
86.1079814
0
LINE
8
DEFAULT_255_1_388
10
11.2077691
20
86.3528474
11
11.2077691
21
86.9889567
0
LINE
8
DEFAULT_255_1_388
10
11.2077691
20
86.9889567
11
11.3749286
21
86.9889567
0
LINE
8
DEFAULT_255_1_388
10
11.3749286
20
86.9889567
11
11.3749286
21
86.3573652
0
LINE
8
DEFAULT_255_1_388
10
11.8104466
20
86.2778515
11
11.8104466
21
86.9889567
0
LINE
8
DEFAULT_255_1_388
10
11.8104466
20
86.9889567
11
11.9776061
21
86.9889567
0
LINE
8
DEFAULT_255_1_388
10
11.9776061
20
86.9889567
11
11.9776061
21
86.0113
0
LINE
8
DEFAULT_255_1_388
10
11.9776061
20
86.0113
11
11.8185787
21
86.0113
0
ARC
8
DEFAULT_255_1_388
10
11.5769683
20
86.3124675
40
0.3137782
50
282.5436457
51
319.3308483
0
ARC
8
DEFAULT_255_1_388
10
11.5334109
20
86.4819138
40
0.4886732
50
269.8919644
51
283.213949
0
ARC
8
DEFAULT_255_1_388
10
11.5285078
20
86.6223412
40
0.6291125
50
270.0024363
51
270.3626317
0
ARC
8
DEFAULT_255_1_388
10
11.5251056
20
86.4222026
40
0.4289875
50
257.7354503
51
270.4579702
0
ARC
8
DEFAULT_255_1_388
10
11.4916594
20
86.2760679
40
0.2790881
50
233.3385202
51
258.072161
0
ARC
8
DEFAULT_255_1_388
10
11.4765459
20
86.2513828
40
0.250276
50
221.9625878
51
232.7397557
0
ARC
8
DEFAULT_255_1_388
10
11.5080422
20
86.2755961
40
0.2899023
50
197.9449652
51
221.3587453
0
ARC
8
DEFAULT_255_1_388
10
11.6649927
20
86.3292197
40
0.4557469
50
185.8086112
51
198.2791204
0
ARC
8
DEFAULT_255_1_388
10
11.8778675
20
86.3545327
40
0.6701004
50
180.1441004
51
186.1197471
0
ARC
8
DEFAULT_255_1_388
10
11.7764353
20
86.3533589
40
0.4015267
50
179.428312
51
191.0738067
0
ARC
8
DEFAULT_255_1_388
10
11.5870535
20
86.314262
40
0.2081712
50
190.5250706
51
212.6989599
0
ARC
8
DEFAULT_255_1_388
10
11.5348303
20
86.2854416
40
0.1487075
50
214.2246262
51
264.4398306
0
ARC
8
DEFAULT_255_1_388
10
11.5547816
20
86.3877845
40
0.2526976
50
262.1851951
51
270.1949702
0
ARC
8
DEFAULT_255_1_388
10
11.559492
20
86.531346
40
0.3962764
50
269.4432626
51
282.9581304
0
ARC
8
DEFAULT_255_1_388
10
11.597372
20
86.3772077
40
0.2375807
50
282.3910141
51
311.9723859
0
ARC
8
DEFAULT_255_1_388
10
11.5982253
20
86.3690255
40
0.2309774
50
313.1724921
51
336.7508062
0
LINE
8
DEFAULT_255_1_388
10
12.8540636
20
86.3194155
11
13.0121874
21
86.3194155
0
LINE
8
DEFAULT_255_1_388
10
12.1881366
20
86.4910927
11
12.1881366
21
86.5191032
0
LINE
8
DEFAULT_255_1_388
10
13.0121874
20
86.6528308
11
12.8540636
21
86.6528308
0
LINE
8
DEFAULT_255_1_388
10
12.355296
20
86.5127783
11
12.355296
21
86.4811535
0
ARC
8
DEFAULT_255_1_388
10
12.6277193
20
86.3704109
40
0.2407783
50
269.0327343
51
309.2224588
0
ARC
8
DEFAULT_255_1_388
10
12.6513196
20
86.346219
40
0.207135
50
308.3965377
51
329.6987678
0
ARC
8
DEFAULT_255_1_388
10
12.6668255
20
86.3344899
40
0.1878439
50
330.4013397
51
355.3970937
0
ARC
8
DEFAULT_255_1_388
10
12.7182239
20
86.3364312
40
0.2944555
50
329.2357424
51
356.6872018
0
ARC
8
DEFAULT_255_1_388
10
12.6564134
20
86.3691153
40
0.3643032
50
324.8702872
51
329.7911998
0
ARC
8
DEFAULT_255_1_388
10
12.6475416
20
86.3767113
40
0.3759315
50
298.8769973
51
324.7015261
0
ARC
8
DEFAULT_255_1_388
10
12.610196
20
86.436229
40
0.4461015
50
296.902888
51
299.3854973
0
ARC
8
DEFAULT_255_1_388
10
12.6247957
20
86.4038595
40
0.4106323
50
269.8407861
51
297.1298875
0
ARC
8
DEFAULT_255_1_388
10
12.6187953
20
86.4756354
40
0.4824312
50
253.3156606
51
270.5771301
0
ARC
8
DEFAULT_255_1_388
10
12.5910131
20
86.3750943
40
0.3781531
50
221.1002518
51
252.9743523
0
ARC
8
DEFAULT_255_1_388
10
12.6427601
20
86.4195131
40
0.4463481
50
194.5394284
51
221.0302764
0
ARC
8
DEFAULT_255_1_388
10
12.8507422
20
86.4774897
40
0.6622359
50
182.0498004
51
194.8774376
0
ARC
8
DEFAULT_255_1_388
10
13.0500511
20
86.4907778
40
0.8619146
50
179.9790673
51
182.4586753
0
ARC
8
DEFAULT_255_1_388
10
12.8543825
20
86.5224412
40
0.6662543
50
168.615001
51
180.2870547
0
ARC
8
DEFAULT_255_1_388
10
12.7191734
20
86.5489636
40
0.5284705
50
154.9162417
51
168.5402053
0
ARC
8
DEFAULT_255_1_388
10
12.615501
20
86.6001942
40
0.4128641
50
133.5745308
51
155.2559538
0
ARC
8
DEFAULT_255_1_388
10
12.5971853
20
86.6158116
40
0.3889328
50
122.0165845
51
133.2056002
0
ARC
8
DEFAULT_255_1_388
10
12.6012177
20
86.6058977
40
0.3994808
50
97.8732516
51
121.753124
0
ARC
8
DEFAULT_255_1_388
10
12.6213635
20
86.486959
40
0.5200708
50
89.8471322
51
98.2768545
0
ARC
8
DEFAULT_255_1_388
10
12.6268483
20
86.5555809
40
0.4514657
50
73.3760755
51
90.5199878
0
ARC
8
DEFAULT_255_1_388
10
12.6489399
20
86.636855
40
0.3672743
50
47.7085939
51
73.0510707
0
ARC
8
DEFAULT_255_1_388
10
12.6635502
20
86.6495231
40
0.3480795
50
3.7442743
51
48.0844373
0
ARC
8
DEFAULT_255_1_388
10
12.5523496
20
86.6317946
40
0.4603187
50
2.6192831
51
5.0424684
0
ARC
8
DEFAULT_255_1_388
10
12.6038967
20
86.6362986
40
0.2507126
50
3.78087
51
23.9354314
0
ARC
8
DEFAULT_255_1_388
10
12.6296226
20
86.6453644
40
0.2235311
50
24.4867863
51
46.9439952
0
ARC
8
DEFAULT_255_1_388
10
12.6297172
20
86.6479874
40
0.2215567
50
46.4987715
51
89.3298168
0
ARC
8
DEFAULT_255_1_388
10
12.622783
20
86.5813742
40
0.2883121
50
88.1066411
51
90.0063536
0
ARC
8
DEFAULT_255_1_388
10
12.6196806
20
86.5871548
40
0.2825481
50
89.3773571
51
107.2070287
0
ARC
8
DEFAULT_255_1_388
10
12.6036075
20
86.6453667
40
0.2221946
50
107.688418
51
143.3582986
0
ARC
8
DEFAULT_255_1_388
10
12.6674369
20
86.5974064
40
0.3020337
50
143.2845866
51
162.9352432
0
ARC
8
DEFAULT_255_1_388
10
12.8368385
20
86.5430401
40
0.4799362
50
162.6652705
51
174.0802646
0
ARC
8
DEFAULT_255_1_388
10
13.0778866
20
86.5150287
40
0.7225942
50
173.8422673
51
180.1784414
0
ARC
8
DEFAULT_255_1_388
10
13.0162536
20
86.4777276
40
0.6609665
50
179.7030218
51
188.2277356
0
ARC
8
DEFAULT_255_1_388
10
12.7798144
20
86.4423143
40
0.4218948
50
188.0630838
51
201.115837
0
ARC
8
DEFAULT_255_1_388
10
12.6563029
20
86.395173
40
0.2896941
50
201.2186162
51
216.9761863
0
ARC
8
DEFAULT_255_1_388
10
12.6055186
20
86.3571225
40
0.2262366
50
217.0136373
51
265.2055518
0
ARC
8
DEFAULT_255_1_388
10
12.6230523
20
86.4608503
40
0.3311837
50
263.6824874
51
270.1042034
0
LINE
8
DEFAULT_255_1_388
10
13.259764
20
87.2256906
11
13.4269234
21
87.2256906
0
LINE
8
DEFAULT_255_1_388
10
13.4269234
20
87.2256906
11
13.4269234
21
86.9889567
0
LINE
8
DEFAULT_255_1_388
10
13.4269234
20
86.9889567
11
13.6094435
21
86.9889567
0
LINE
8
DEFAULT_255_1_388
10
13.6094435
20
86.9889567
11
13.6094435
21
86.859747
0
LINE
8
DEFAULT_255_1_388
10
13.6094435
20
86.859747
11
13.4269234
21
86.859747
0
LINE
8
DEFAULT_255_1_388
10
13.4269234
20
86.859747
11
13.4269234
21
86.2534553
0
LINE
8
DEFAULT_255_1_388
10
13.6139613
20
86.1468347
11
13.6139613
21
86.0113
0
LINE
8
DEFAULT_255_1_388
10
13.259764
20
86.2534553
11
13.259764
21
86.859747
0
LINE
8
DEFAULT_255_1_388
10
13.259764
20
86.859747
11
13.0817618
21
86.859747
0
LINE
8
DEFAULT_255_1_388
10
13.0817618
20
86.859747
11
13.0817618
21
86.9889567
0
LINE
8
DEFAULT_255_1_388
10
13.0817618
20
86.9889567
11
13.259764
21
86.9889567
0
LINE
8
DEFAULT_255_1_388
10
13.259764
20
86.9889567
11
13.259764
21
87.2256906
0
ARC
8
DEFAULT_255_1_388
10
13.6527742
20
86.2522842
40
0.2258538
50
179.7029045
51
187.9180047
0
ARC
8
DEFAULT_255_1_388
10
13.5688316
20
86.2402019
40
0.1410477
50
187.7540838
51
200.2454047
0
ARC
8
DEFAULT_255_1_388
10
13.5215221
20
86.2225591
40
0.0905561
50
200.1304287
51
219.1733455
0
ARC
8
DEFAULT_255_1_388
10
13.5062388
20
86.2121695
40
0.0721626
50
220.4434631
51
249.6169985
0
ARC
8
DEFAULT_255_1_388
10
13.5236614
20
86.2559919
40
0.1193141
50
249.1038184
51
262.7745376
0
ARC
8
DEFAULT_255_1_388
10
13.5335796
20
86.3267481
40
0.1907583
50
262.4921618
51
270.2607019
0
ARC
8
DEFAULT_255_1_388
10
13.5332878
20
86.3509817
40
0.2149929
50
270.309081
51
275.6615459
0
ARC
8
DEFAULT_255_1_388
10
13.5172286
20
86.5198342
40
0.3846066
50
275.5607354
51
279.087751
0
ARC
8
DEFAULT_255_1_388
10
13.4800218
20
86.7559428
40
0.6236283
50
279.0369545
51
281.5000133
0
ARC
8
DEFAULT_255_1_388
10
13.4409486
20
86.9536499
40
0.825157
50
281.4217093
51
282.1031556
0
ARC
8
DEFAULT_255_1_388
10
13.4785461
20
86.4993229
40
0.5064619
50
275.2597791
51
285.5081125
0
ARC
8
DEFAULT_255_1_388
10
13.4854475
20
86.4367452
40
0.4435166
50
270.0268175
51
275.1130565
0
ARC
8
DEFAULT_255_1_388
10
13.4831927
20
86.2874367
40
0.2942182
50
257.3572424
51
270.4795428
0
ARC
8
DEFAULT_255_1_388
10
13.4592197
20
86.1863952
40
0.1903838
50
230.8036715
51
257.7414447
0
ARC
8
DEFAULT_255_1_388
10
13.4515693
20
86.1740723
40
0.1760087
50
219.9745381
51
230.1985446
0
ARC
8
DEFAULT_255_1_388
10
13.488898
20
86.2026116
40
0.2229598
50
196.5081334
51
219.4319996
0
ARC
8
DEFAULT_255_1_388
10
13.6031592
20
86.2384617
40
0.3427033
50
184.6408645
51
196.8266009
0
ARC
8
DEFAULT_255_1_388
10
13.7432497
20
86.252601
40
0.4834863
50
179.8987586
51
184.9677262
0
LINE
8
DEFAULT_255_1_388
10
13.9862298
20
86.9889567
11
13.9862298
21
86.0113
0
LINE
8
DEFAULT_255_1_388
10
13.9862298
20
86.0113
11
13.8190704
21
86.0113
0
LINE
8
DEFAULT_255_1_388
10
13.8190704
20
86.0113
11
13.8190704
21
86.9889567
0
LINE
8
DEFAULT_255_1_388
10
13.8190704
20
86.9889567
11
13.9862298
21
86.9889567
0
ARC
8
DEFAULT_255_1_388
10
13.9156066
20
87.2493428
40
0.1100948
50
161.4148232
51
180.5532607
0
ARC
8
DEFAULT_255_1_388
10
13.9016376
20
87.2531875
40
0.0956324
50
138.1830164
51
160.9307633
0
ARC
8
DEFAULT_255_1_388
10
13.8892563
20
87.2639313
40
0.0792417
50
104.6371663
51
138.0036136
0
ARC
8
DEFAULT_255_1_388
10
13.9013102
20
87.2226963
40
0.1221906
50
92.0601206
51
105.2198859
0
ARC
8
DEFAULT_255_1_388
10
13.9039466
20
87.1838583
40
0.161103
50
89.9790681
51
92.5006086
0
ARC
8
DEFAULT_255_1_388
10
13.9050642
20
87.2094998
40
0.1354654
50
78.0234649
51
90.4478111
0
ARC
8
DEFAULT_255_1_388
10
13.9154227
20
87.2560203
40
0.0878096
50
55.0521508
51
78.336297
0
ARC
8
DEFAULT_255_1_388
10
13.9210761
20
87.2655168
40
0.0767913
50
42.0506198
51
54.4508489
0
ARC
8
DEFAULT_255_1_388
10
13.9058794
20
87.2515821
40
0.0974091
50
1.7493657
51
42.1498724
0
ARC
8
DEFAULT_255_1_388
10
13.87727
20
87.2483166
40
0.1261276
50
359.9832635
51
2.8353994
0
ARC
8
DEFAULT_255_1_388
10
13.8959109
20
87.2472412
40
0.1074916
50
342.1062453
51
0.5535864
0
ARC
8
DEFAULT_255_1_388
10
13.9119534
20
87.2428197
40
0.0908695
50
316.7110111
51
341.6513114
0
ARC
8
DEFAULT_255_1_388
10
13.9194966
20
87.2360607
40
0.0807447
50
285.4398289
51
316.5320129
0
ARC
8
DEFAULT_255_1_388
10
13.9071136
20
87.2772023
40
0.1237022
50
272.3543902
51
285.8951677
0
ARC
8
DEFAULT_255_1_388
10
13.9040846
20
87.3187742
40
0.1653687
50
269.9725761
51
272.8112722
0
ARC
8
DEFAULT_255_1_388
10
13.9029898
20
87.2936727
40
0.1402709
50
258.8433431
51
270.4148607
0
ARC
8
DEFAULT_255_1_388
10
13.8928678
20
87.2446739
40
0.0902407
50
238.54281
51
259.1289544
0
ARC
8
DEFAULT_255_1_388
10
13.8852
20
87.2307694
40
0.0743817
50
222.5056676
51
237.9918132
0
ARC
8
DEFAULT_255_1_388
10
13.8995593
20
87.2438295
40
0.0937918
50
184.1070774
51
222.4604165
0
ARC
8
DEFAULT_255_1_388
10
13.9298007
20
87.2481538
40
0.1242838
50
179.9419581
51
185.0970785
0
LINE
8
DEFAULT_255_1_388
10
14.3277772
20
86.9889567
11
14.5762574
21
86.2380947
0
LINE
8
DEFAULT_255_1_388
10
14.5762574
20
86.2380947
11
14.8184127
21
86.9889567
0
LINE
8
DEFAULT_255_1_388
10
14.8184127
20
86.9889567
11
14.9891864
21
86.9889567
0
LINE
8
DEFAULT_255_1_388
10
14.9891864
20
86.9889567
11
14.6386034
21
86.0113
0
LINE
8
DEFAULT_255_1_388
10
14.6386034
20
86.0113
11
14.5112008
21
86.0113
0
LINE
8
DEFAULT_255_1_388
10
14.5112008
20
86.0113
11
14.1570035
21
86.9889567
0
LINE
8
DEFAULT_255_1_388
10
14.1570035
20
86.9889567
11
14.3277772
21
86.9889567
0
LINE
8
DEFAULT_255_1_388
10
15.3316373
20
86.9889567
11
15.3316373
21
86.0113
0
LINE
8
DEFAULT_255_1_388
10
15.3316373
20
86.0113
11
15.1644779
21
86.0113
0
LINE
8
DEFAULT_255_1_388
10
15.1644779
20
86.0113
11
15.1644779
21
86.9889567
0
LINE
8
DEFAULT_255_1_388
10
15.1644779
20
86.9889567
11
15.3316373
21
86.9889567
0
ARC
8
DEFAULT_255_1_388
10
15.2610141
20
87.2493428
40
0.1100948
50
161.4148232
51
180.5532607
0
ARC
8
DEFAULT_255_1_388
10
15.2470451
20
87.2531875
40
0.0956324
50
138.1830164
51
160.9307633
0
ARC
8
DEFAULT_255_1_388
10
15.2346638
20
87.2639313
40
0.0792417
50
104.6371663
51
138.0036136
0
ARC
8
DEFAULT_255_1_388
10
15.2467177
20
87.2226963
40
0.1221906
50
92.0601206
51
105.2198859
0
ARC
8
DEFAULT_255_1_388
10
15.2493541
20
87.1838583
40
0.161103
50
89.9790681
51
92.5006086
0
ARC
8
DEFAULT_255_1_388
10
15.2504717
20
87.2094998
40
0.1354654
50
78.0234649
51
90.4478111
0
ARC
8
DEFAULT_255_1_388
10
15.2608301
20
87.2560203
40
0.0878096
50
55.0521508
51
78.336297
0
ARC
8
DEFAULT_255_1_388
10
15.2664836
20
87.2655168
40
0.0767913
50
42.0506198
51
54.4508489
0
ARC
8
DEFAULT_255_1_388
10
15.2512869
20
87.2515821
40
0.0974091
50
1.7493657
51
42.1498724
0
ARC
8
DEFAULT_255_1_388
10
15.2226774
20
87.2483166
40
0.1261276
50
359.9832635
51
2.8353994
0
ARC
8
DEFAULT_255_1_388
10
15.2413184
20
87.2472412
40
0.1074916
50
342.1062453
51
0.5535864
0
ARC
8
DEFAULT_255_1_388
10
15.2573608
20
87.2428197
40
0.0908695
50
316.7110111
51
341.6513114
0
ARC
8
DEFAULT_255_1_388
10
15.264904
20
87.2360607
40
0.0807447
50
285.4398289
51
316.5320129
0
ARC
8
DEFAULT_255_1_388
10
15.2525211
20
87.2772023
40
0.1237022
50
272.3543902
51
285.8951677
0
ARC
8
DEFAULT_255_1_388
10
15.2494921
20
87.3187742
40
0.1653687
50
269.9725761
51
272.8112722
0
ARC
8
DEFAULT_255_1_388
10
15.2483973
20
87.2936727
40
0.1402709
50
258.8433431
51
270.4148607
0
ARC
8
DEFAULT_255_1_388
10
15.2382753
20
87.2446739
40
0.0902407
50
238.54281
51
259.1289544
0
ARC
8
DEFAULT_255_1_388
10
15.2306074
20
87.2307694
40
0.0743817
50
222.5056676
51
237.9918132
0
ARC
8
DEFAULT_255_1_388
10
15.2449668
20
87.2438295
40
0.0937918
50
184.1070774
51
222.4604165
0
ARC
8
DEFAULT_255_1_388
10
15.2752081
20
87.2481538
40
0.1242838
50
179.9419581
51
185.0970785
0
LINE
8
DEFAULT_255_1_388
10
15.6587276
20
87.2256906
11
15.8258871
21
87.2256906
0
LINE
8
DEFAULT_255_1_388
10
15.8258871
20
87.2256906
11
15.8258871
21
86.9889567
0
LINE
8
DEFAULT_255_1_388
10
15.8258871
20
86.9889567
11
16.0084071
21
86.9889567
0
LINE
8
DEFAULT_255_1_388
10
16.0084071
20
86.9889567
11
16.0084071
21
86.859747
0
LINE
8
DEFAULT_255_1_388
10
16.0084071
20
86.859747
11
15.8258871
21
86.859747
0
LINE
8
DEFAULT_255_1_388
10
15.8258871
20
86.859747
11
15.8258871
21
86.2534553
0
LINE
8
DEFAULT_255_1_388
10
16.0129249
20
86.1468347
11
16.0129249
21
86.0113
0
LINE
8
DEFAULT_255_1_388
10
15.6587276
20
86.2534553
11
15.6587276
21
86.859747
0
LINE
8
DEFAULT_255_1_388
10
15.6587276
20
86.859747
11
15.4807254
21
86.859747
0
LINE
8
DEFAULT_255_1_388
10
15.4807254
20
86.859747
11
15.4807254
21
86.9889567
0
LINE
8
DEFAULT_255_1_388
10
15.4807254
20
86.9889567
11
15.6587276
21
86.9889567
0
LINE
8
DEFAULT_255_1_388
10
15.6587276
20
86.9889567
11
15.6587276
21
87.2256906
0
ARC
8
DEFAULT_255_1_388
10
16.0517378
20
86.2522842
40
0.2258538
50
179.7029045
51
187.9180047
0
ARC
8
DEFAULT_255_1_388
10
15.9677952
20
86.2402019
40
0.1410477
50
187.7540838
51
200.2454047
0
ARC
8
DEFAULT_255_1_388
10
15.9204858
20
86.2225591
40
0.0905561
50
200.1304287
51
219.1733455
0
ARC
8
DEFAULT_255_1_388
10
15.9052024
20
86.2121695
40
0.0721626
50
220.4434631
51
249.6169985
0
ARC
8
DEFAULT_255_1_388
10
15.9226251
20
86.2559919
40
0.1193141
50
249.1038184
51
262.7745376
0
ARC
8
DEFAULT_255_1_388
10
15.9325433
20
86.3267481
40
0.1907583
50
262.4921618
51
270.2607019
0
ARC
8
DEFAULT_255_1_388
10
15.9322515
20
86.3509817
40
0.2149929
50
270.309081
51
275.6615459
0
ARC
8
DEFAULT_255_1_388
10
15.9161922
20
86.5198342
40
0.3846066
50
275.5607354
51
279.087751
0
ARC
8
DEFAULT_255_1_388
10
15.8789854
20
86.7559428
40
0.6236283
50
279.0369545
51
281.5000133
0
ARC
8
DEFAULT_255_1_388
10
15.8399122
20
86.9536499
40
0.825157
50
281.4217093
51
282.1031556
0
ARC
8
DEFAULT_255_1_388
10
15.8775098
20
86.4993229
40
0.5064619
50
275.2597791
51
285.5081125
0
ARC
8
DEFAULT_255_1_388
10
15.8844112
20
86.4367452
40
0.4435166
50
270.0268175
51
275.1130565
0
ARC
8
DEFAULT_255_1_388
10
15.8821563
20
86.2874367
40
0.2942182
50
257.3572424
51
270.4795428
0
ARC
8
DEFAULT_255_1_388
10
15.8581833
20
86.1863952
40
0.1903838
50
230.8036715
51
257.7414447
0
ARC
8
DEFAULT_255_1_388
10
15.8505329
20
86.1740723
40
0.1760087
50
219.9745381
51
230.1985446
0
ARC
8
DEFAULT_255_1_388
10
15.8878617
20
86.2026116
40
0.2229598
50
196.5081334
51
219.4319996
0
ARC
8
DEFAULT_255_1_388
10
16.0021228
20
86.2384617
40
0.3427033
50
184.6408645
51
196.8266009
0
ARC
8
DEFAULT_255_1_388
10
16.1422134
20
86.252601
40
0.4834863
50
179.8987586
51
184.9677262
0
LINE
8
DEFAULT_255_1_388
10
16.2794764
20
86.9889567
11
16.5234388
21
86.256166
0
LINE
8
DEFAULT_255_1_388
10
16.5234388
20
86.256166
11
16.7511371
21
86.9889567
0
LINE
8
DEFAULT_255_1_388
10
16.7511371
20
86.9889567
11
16.9300428
21
86.9889567
0
LINE
8
DEFAULT_255_1_388
10
16.9300428
20
86.9889567
11
16.5369923
21
85.8604047
0
LINE
8
DEFAULT_255_1_388
10
16.2469481
20
85.6164423
11
16.2153233
21
85.619153
0
LINE
8
DEFAULT_255_1_388
10
16.2153233
20
85.619153
11
16.1529774
21
85.6308994
0
LINE
8
DEFAULT_255_1_388
10
16.1529774
20
85.6308994
11
16.1529774
21
85.766434
0
LINE
8
DEFAULT_255_1_388
10
16.1529774
20
85.766434
11
16.1981556
21
85.7628198
0
LINE
8
DEFAULT_255_1_388
10
16.4086861
20
85.9227507
11
16.4457323
21
86.0221428
0
LINE
8
DEFAULT_255_1_388
10
16.4457323
20
86.0221428
11
16.0969564
21
86.9889567
0
LINE
8
DEFAULT_255_1_388
10
16.0969564
20
86.9889567
11
16.2794764
21
86.9889567
0
ARC
8
DEFAULT_255_1_388
10
16.0155998
20
86.0499303
40
0.5547703
50
327.7224407
51
340.0238521
0
ARC
8
DEFAULT_255_1_388
10
16.2127157
20
85.9226231
40
0.3201385
50
305.2165641
51
328.1467003
0
ARC
8
DEFAULT_255_1_388
10
16.2515379
20
85.8766258
40
0.260224
50
268.9893726
51
304.0733864
0
ARC
8
DEFAULT_255_1_388
10
16.1998137
20
86.1042952
40
0.3414794
50
269.7217889
51
278.0406077
0
ARC
8
DEFAULT_255_1_388
10
16.217339
20
85.9850724
40
0.2209783
50
277.8651481
51
290.8634591
0
ARC
8
DEFAULT_255_1_388
10
16.2407371
20
85.9225914
40
0.1542617
50
291.0076566
51
305.5961613
0
ARC
8
DEFAULT_255_1_388
10
16.2386246
20
85.9208164
40
0.1540723
50
306.6192176
51
324.1022951
0
ARC
8
DEFAULT_255_1_388
10
16.1545896
20
85.9831842
40
0.2587177
50
323.8256989
51
334.2991437
0
ARC
8
DEFAULT_255_1_388
10
16.0146584
20
86.0519118
40
0.4146127
50
334.1272297
51
340.8153479
0
ARC
8
DEFAULT_255_1_388
10
15.9087103
20
86.0910101
40
0.5275293
50
340.5860638
51
341.400105
0
LINE
8
DEFAULT_255_1_388
10
17.6113304
20
87.3332148
11
17.6113304
21
86.0113
0
LINE
8
DEFAULT_255_1_388
10
17.6113304
20
86.0113
11
17.4432674
21
86.0113
0
LINE
8
DEFAULT_255_1_388
10
17.4432674
20
86.0113
11
17.4432674
21
87.125395
0
LINE
8
DEFAULT_255_1_388
10
17.4432674
20
87.125395
11
17.1062379
21
87.0016066
0
LINE
8
DEFAULT_255_1_388
10
17.1062379
20
87.0016066
11
17.1062379
21
87.1534055
0
LINE
8
DEFAULT_255_1_388
10
17.1062379
20
87.1534055
11
17.5851271
21
87.3332148
0
LINE
8
DEFAULT_255_1_388
10
17.5851271
20
87.3332148
11
17.6113304
21
87.3332148
0
LINE
8
DEFAULT_255_1_388
10
18.9260167
20
86.789269
11
18.9260167
21
86.5724135
0
LINE
8
DEFAULT_255_1_388
10
18.095641
20
86.5498244
11
18.095641
21
86.7730048
0
LINE
8
DEFAULT_255_1_388
10
18.7588573
20
86.5272353
11
18.7588573
21
86.8010153
0
LINE
8
DEFAULT_255_1_388
10
18.2628004
20
86.8136652
11
18.2628004
21
86.5462102
0
ARC
8
DEFAULT_255_1_388
10
17.5482501
20
86.5669118
40
1.3777776
50
353.8440855
51
0.2287917
0
ARC
8
DEFAULT_255_1_388
10
18.0701518
20
86.5086414
40
0.852639
50
344.4934746
51
353.9763743
0
ARC
8
DEFAULT_255_1_388
10
18.4068326
20
86.4129191
40
0.5026273
50
329.2803599
51
344.7473406
0
ARC
8
DEFAULT_255_1_388
10
18.5183821
20
86.3517038
40
0.3754848
50
324.9361395
51
328.6153007
0
ARC
8
DEFAULT_255_1_388
10
18.5609471
20
86.3219586
40
0.3235566
50
280.5801797
51
324.9173226
0
ARC
8
DEFAULT_255_1_388
10
18.51581
20
86.5099236
40
0.5167077
50
269.5979457
51
281.6732777
0
ARC
8
DEFAULT_255_1_388
10
18.5077003
20
86.4964113
40
0.5032026
50
256.6228565
51
270.5105488
0
ARC
8
DEFAULT_255_1_388
10
18.4624746
20
86.3222345
40
0.3233092
50
215.8618351
51
257.2787793
0
ARC
8
DEFAULT_255_1_388
10
18.5773453
20
86.3993106
40
0.4615831
50
197.9695203
51
215.2622745
0
ARC
8
DEFAULT_255_1_388
10
18.8569129
20
86.4936641
40
0.7566307
50
187.8816486
51
198.2346584
0
ARC
8
DEFAULT_255_1_388
10
19.3022367
20
86.5579453
40
1.2065653
50
180.8977266
51
188.0054894
0
ARC
8
DEFAULT_255_1_388
10
19.6072581
20
86.56944
40
1.5117443
50
180.7434591
51
181.152202
0
ARC
8
DEFAULT_255_1_388
10
19.4397576
20
86.7784371
40
1.3441277
50
173.7674302
51
180.2315596
0
ARC
8
DEFAULT_255_1_388
10
18.9315445
20
86.8358779
40
0.8326847
50
164.3058537
51
173.9000553
0
ARC
8
DEFAULT_255_1_388
10
18.6039445
20
86.9302652
40
0.4917711
50
148.7922028
51
164.5682288
0
ARC
8
DEFAULT_255_1_388
10
18.4970183
20
86.9899457
40
0.3694204
50
144.5883979
51
148.1161588
0
ARC
8
DEFAULT_255_1_388
10
18.4582928
20
87.0169667
40
0.322202
50
101.6440149
51
144.5142619
0
ARC
8
DEFAULT_255_1_388
10
18.506112
20
86.8269337
40
0.5180451
50
89.528284
51
102.5820197
0
ARC
8
DEFAULT_255_1_388
10
18.5150112
20
86.8225376
40
0.5224441
50
77.0437914
51
90.508231
0
ARC
8
DEFAULT_255_1_388
10
18.5602366
20
87.0073272
40
0.3322297
50
48.2777708
51
77.4996087
0
ARC
8
DEFAULT_255_1_388
10
18.5684106
20
87.0218557
40
0.315966
50
36.3141586
51
47.6307332
0
ARC
8
DEFAULT_255_1_388
10
18.4706828
20
86.9560159
40
0.4337313
50
18.2931065
51
35.6770203
0
ARC
8
DEFAULT_255_1_388
10
18.1845669
20
86.8578107
40
0.7362203
50
8.0246996
51
18.5605636
0
ARC
8
DEFAULT_255_1_388
10
17.7162024
20
86.7886432
40
1.2096583
50
1.127539
51
8.1718423
0
ARC
8
DEFAULT_255_1_388
10
17.3513158
20
86.7743374
40
1.5747719
50
0.5432713
51
1.38669
0
ARC
8
DEFAULT_255_1_388
10
17.5570537
20
86.8050163
40
1.2018103
50
359.8092569
51
4.9408001
0
ARC
8
DEFAULT_255_1_388
10
18.0307118
20
86.84729
40
0.7262727
50
4.8364937
51
12.2906017
0
ARC
8
DEFAULT_255_1_388
10
18.3406583
20
86.9163485
40
0.4087324
50
12.0806994
51
23.8171225
0
ARC
8
DEFAULT_255_1_388
10
18.4726979
20
86.9722508
40
0.2653719
50
24.2874621
51
31.3934353
0
ARC
8
DEFAULT_255_1_388
10
18.5317415
20
87.0108822
40
0.1948607
50
30.7407708
51
82.4658033
0
ARC
8
DEFAULT_255_1_388
10
18.5115075
20
86.9115017
40
0.2961198
50
81.1057101
51
90.2187368
0
ARC
8
DEFAULT_255_1_388
10
18.5074887
20
86.9405421
40
0.2670929
50
89.380395
51
105.6763916
0
ARC
8
DEFAULT_255_1_388
10
18.4868609
20
87.015532
40
0.1893189
50
105.7980655
51
149.7387869
0
ARC
8
DEFAULT_255_1_388
10
18.6065749
20
86.9435719
40
0.3289892
50
149.4208441
51
163.628295
0
ARC
8
DEFAULT_255_1_388
10
18.8417979
20
86.8718345
40
0.5749004
50
163.3764549
51
172.141138
0
ARC
8
DEFAULT_255_1_388
10
19.21307
20
86.8186582
40
0.9499585
50
172.0258462
51
178.0705453
0
ARC
8
DEFAULT_255_1_388
10
19.5552253
20
86.8024682
40
1.2924734
50
177.8639301
51
179.5036263
0
ARC
8
DEFAULT_255_1_388
10
19.4333272
20
86.5421151
40
1.170534
50
179.7995545
51
185.246089
0
ARC
8
DEFAULT_255_1_388
10
18.9784865
20
86.4990404
40
0.7136613
50
185.1411911
51
193.0082205
0
ARC
8
DEFAULT_255_1_388
10
18.6811126
20
86.4287441
40
0.4080987
50
192.7897338
51
205.2507384
0
ARC
8
DEFAULT_255_1_388
10
18.5633336
20
86.3761538
40
0.2791522
50
205.8001921
51
211.2545876
0
ARC
8
DEFAULT_255_1_388
10
18.5044875
20
86.3367132
40
0.2084074
50
210.3789935
51
238.4007996
0
ARC
8
DEFAULT_255_1_388
10
18.5022961
20
86.3419786
40
0.2117943
50
239.6521916
51
265.9793852
0
ARC
8
DEFAULT_255_1_388
10
18.511881
20
86.4176358
40
0.2879689
50
265.1324455
51
270.0603288
0
ARC
8
DEFAULT_255_1_388
10
18.5151187
20
86.3811418
40
0.2514919
50
269.3314378
51
287.2180039
0
ARC
8
DEFAULT_255_1_388
10
18.5306269
20
86.3245291
40
0.1928357
50
287.7957942
51
329.0808983
0
ARC
8
DEFAULT_255_1_388
10
18.4229026
20
86.3917651
40
0.319808
50
328.6635261
51
343.3325043
0
ARC
8
DEFAULT_255_1_388
10
18.1784485
20
86.4679195
40
0.5758408
50
343.0498092
51
351.9392499
0
ARC
8
DEFAULT_255_1_388
10
17.7883806
20
86.5254205
40
0.9701202
50
351.8071632
51
357.7957897
0
ARC
8
DEFAULT_255_1_388
10
17.4249283
20
86.5442724
40
1.3340376
50
357.5870923
51
359.2682493
0
LINE
8
DEFAULT_255_1_388
10
19.9651158
20
86.789269
11
19.9651158
21
86.5724135
0
LINE
8
DEFAULT_255_1_388
10
19.1347401
20
86.5498244
11
19.1347401
21
86.7730048
0
LINE
8
DEFAULT_255_1_388
10
19.7979564
20
86.5272353
11
19.7979564
21
86.8010153
0
LINE
8
DEFAULT_255_1_388
10
19.3018995
20
86.8136652
11
19.3018995
21
86.5462102
0
ARC
8
DEFAULT_255_1_388
10
18.5873492
20
86.5669118
40
1.3777776
50
353.8440855
51
0.2287917
0
ARC
8
DEFAULT_255_1_388
10
19.109251
20
86.5086414
40
0.852639
50
344.4934746
51
353.9763743
0
ARC
8
DEFAULT_255_1_388
10
19.4459317
20
86.4129191
40
0.5026273
50
329.2803599
51
344.7473406
0
ARC
8
DEFAULT_255_1_388
10
19.5574812
20
86.3517038
40
0.3754848
50
324.9361395
51
328.6153007
0
ARC
8
DEFAULT_255_1_388
10
19.6000462
20
86.3219586
40
0.3235566
50
280.5801797
51
324.9173226
0
ARC
8
DEFAULT_255_1_388
10
19.5549091
20
86.5099236
40
0.5167077
50
269.5979457
51
281.6732777
0
ARC
8
DEFAULT_255_1_388
10
19.5467994
20
86.4964113
40
0.5032026
50
256.6228565
51
270.5105488
0
ARC
8
DEFAULT_255_1_388
10
19.5015737
20
86.3222345
40
0.3233092
50
215.8618351
51
257.2787793
0
ARC
8
DEFAULT_255_1_388
10
19.6164444
20
86.3993106
40
0.4615831
50
197.9695203
51
215.2622745
0
ARC
8
DEFAULT_255_1_388
10
19.896012
20
86.4936641
40
0.7566307
50
187.8816486
51
198.2346584
0
ARC
8
DEFAULT_255_1_388
10
20.3413358
20
86.5579453
40
1.2065653
50
180.8977266
51
188.0054894
0
ARC
8
DEFAULT_255_1_388
10
20.6463572
20
86.56944
40
1.5117443
50
180.7434591
51
181.152202
0
ARC
8
DEFAULT_255_1_388
10
20.4788568
20
86.7784371
40
1.3441277
50
173.7674302
51
180.2315596
0
ARC
8
DEFAULT_255_1_388
10
19.9706437
20
86.8358779
40
0.8326847
50
164.3058537
51
173.9000553
0
ARC
8
DEFAULT_255_1_388
10
19.6430437
20
86.9302652
40
0.4917711
50
148.7922028
51
164.5682288
0
ARC
8
DEFAULT_255_1_388
10
19.5361174
20
86.9899457
40
0.3694204
50
144.5883979
51
148.1161588
0
ARC
8
DEFAULT_255_1_388
10
19.4973919
20
87.0169667
40
0.322202
50
101.6440149
51
144.5142619
0
ARC
8
DEFAULT_255_1_388
10
19.5452112
20
86.8269337
40
0.5180451
50
89.528284
51
102.5820197
0
ARC
8
DEFAULT_255_1_388
10
19.5541103
20
86.8225376
40
0.5224441
50
77.0437914
51
90.508231
0
ARC
8
DEFAULT_255_1_388
10
19.5993357
20
87.0073272
40
0.3322297
50
48.2777708
51
77.4996087
0
ARC
8
DEFAULT_255_1_388
10
19.6075097
20
87.0218557
40
0.315966
50
36.3141586
51
47.6307332
0
ARC
8
DEFAULT_255_1_388
10
19.5097819
20
86.9560159
40
0.4337313
50
18.2931065
51
35.6770203
0
ARC
8
DEFAULT_255_1_388
10
19.223666
20
86.8578107
40
0.7362203
50
8.0246996
51
18.5605636
0
ARC
8
DEFAULT_255_1_388
10
18.7553016
20
86.7886432
40
1.2096583
50
1.127539
51
8.1718423
0
ARC
8
DEFAULT_255_1_388
10
18.3904149
20
86.7743374
40
1.5747719
50
0.5432713
51
1.38669
0
ARC
8
DEFAULT_255_1_388
10
18.5961528
20
86.8050163
40
1.2018103
50
359.8092569
51
4.9408001
0
ARC
8
DEFAULT_255_1_388
10
19.0698109
20
86.84729
40
0.7262727
50
4.8364937
51
12.2906017
0
ARC
8
DEFAULT_255_1_388
10
19.3797574
20
86.9163485
40
0.4087324
50
12.0806994
51
23.8171225
0
ARC
8
DEFAULT_255_1_388
10
19.511797
20
86.9722508
40
0.2653719
50
24.2874621
51
31.3934353
0
ARC
8
DEFAULT_255_1_388
10
19.5708406
20
87.0108822
40
0.1948607
50
30.7407708
51
82.4658033
0
ARC
8
DEFAULT_255_1_388
10
19.5506067
20
86.9115017
40
0.2961198
50
81.1057101
51
90.2187368
0
ARC
8
DEFAULT_255_1_388
10
19.5465878
20
86.9405421
40
0.2670929
50
89.380395
51
105.6763916
0
ARC
8
DEFAULT_255_1_388
10
19.52596
20
87.015532
40
0.1893189
50
105.7980655
51
149.7387869
0
ARC
8
DEFAULT_255_1_388
10
19.645674
20
86.9435719
40
0.3289892
50
149.4208441
51
163.628295
0
ARC
8
DEFAULT_255_1_388
10
19.880897
20
86.8718345
40
0.5749004
50
163.3764549
51
172.141138
0
ARC
8
DEFAULT_255_1_388
10
20.2521692
20
86.8186582
40
0.9499585
50
172.0258462
51
178.0705453
0
ARC
8
DEFAULT_255_1_388
10
20.5943244
20
86.8024682
40
1.2924734
50
177.8639301
51
179.5036263
0
ARC
8
DEFAULT_255_1_388
10
20.4724263
20
86.5421151
40
1.170534
50
179.7995545
51
185.246089
0
ARC
8
DEFAULT_255_1_388
10
20.0175856
20
86.4990404
40
0.7136613
50
185.1411911
51
193.0082205
0
ARC
8
DEFAULT_255_1_388
10
19.7202117
20
86.4287441
40
0.4080987
50
192.7897338
51
205.2507384
0
ARC
8
DEFAULT_255_1_388
10
19.6024327
20
86.3761538
40
0.2791522
50
205.8001921
51
211.2545876
0
ARC
8
DEFAULT_255_1_388
10
19.5435866
20
86.3367132
40
0.2084074
50
210.3789935
51
238.4007996
0
ARC
8
DEFAULT_255_1_388
10
19.5413952
20
86.3419786
40
0.2117943
50
239.6521916
51
265.9793852
0
ARC
8
DEFAULT_255_1_388
10
19.5509801
20
86.4176358
40
0.2879689
50
265.1324455
51
270.0603288
0
ARC
8
DEFAULT_255_1_388
10
19.5542178
20
86.3811418
40
0.2514919
50
269.3314378
51
287.2180039
0
ARC
8
DEFAULT_255_1_388
10
19.569726
20
86.3245291
40
0.1928357
50
287.7957942
51
329.0808983
0
ARC
8
DEFAULT_255_1_388
10
19.4620017
20
86.3917651
40
0.319808
50
328.6635261
51
343.3325043
0
ARC
8
DEFAULT_255_1_388
10
19.2175476
20
86.4679195
40
0.5758408
50
343.0498092
51
351.9392499
0
ARC
8
DEFAULT_255_1_388
10
18.8274797
20
86.5254205
40
0.9701202
50
351.8071632
51
357.7957897
0
ARC
8
DEFAULT_255_1_388
10
18.4640274
20
86.5442724
40
1.3340376
50
357.5870923
51
359.2682493
0
LINE
8
DEFAULT_255_1_388
10
21.0042149
20
86.789269
11
21.0042149
21
86.5724135
0
LINE
8
DEFAULT_255_1_388
10
20.1738392
20
86.5498244
11
20.1738392
21
86.7730048
0
LINE
8
DEFAULT_255_1_388
10
20.8370555
20
86.5272353
11
20.8370555
21
86.8010153
0
LINE
8
DEFAULT_255_1_388
10
20.3409986
20
86.8136652
11
20.3409986
21
86.5462102
0
ARC
8
DEFAULT_255_1_388
10
19.6264483
20
86.5669118
40
1.3777776
50
353.8440855
51
0.2287917
0
ARC
8
DEFAULT_255_1_388
10
20.1483501
20
86.5086414
40
0.852639
50
344.4934746
51
353.9763743
0
ARC
8
DEFAULT_255_1_388
10
20.4850308
20
86.4129191
40
0.5026273
50
329.2803599
51
344.7473406
0
ARC
8
DEFAULT_255_1_388
10
20.5965804
20
86.3517038
40
0.3754848
50
324.9361395
51
328.6153007
0
ARC
8
DEFAULT_255_1_388
10
20.6391453
20
86.3219586
40
0.3235566
50
280.5801797
51
324.9173226
0
ARC
8
DEFAULT_255_1_388
10
20.5940082
20
86.5099236
40
0.5167077
50
269.5979457
51
281.6732777
0
ARC
8
DEFAULT_255_1_388
10
20.5858986
20
86.4964113
40
0.5032026
50
256.6228565
51
270.5105488
0
ARC
8
DEFAULT_255_1_388
10
20.5406728
20
86.3222345
40
0.3233092
50
215.8618351
51
257.2787793
0
ARC
8
DEFAULT_255_1_388
10
20.6555435
20
86.3993106
40
0.4615831
50
197.9695203
51
215.2622745
0
ARC
8
DEFAULT_255_1_388
10
20.9351111
20
86.4936641
40
0.7566307
50
187.8816486
51
198.2346584
0
ARC
8
DEFAULT_255_1_388
10
21.3804349
20
86.5579453
40
1.2065653
50
180.8977266
51
188.0054894
0
ARC
8
DEFAULT_255_1_388
10
21.6854563
20
86.56944
40
1.5117443
50
180.7434591
51
181.152202
0
ARC
8
DEFAULT_255_1_388
10
21.5179559
20
86.7784371
40
1.3441277
50
173.7674302
51
180.2315596
0
ARC
8
DEFAULT_255_1_388
10
21.0097428
20
86.8358779
40
0.8326847
50
164.3058537
51
173.9000553
0
ARC
8
DEFAULT_255_1_388
10
20.6821428
20
86.9302652
40
0.4917711
50
148.7922028
51
164.5682288
0
ARC
8
DEFAULT_255_1_388
10
20.5752165
20
86.9899457
40
0.3694204
50
144.5883979
51
148.1161588
0
ARC
8
DEFAULT_255_1_388
10
20.5364911
20
87.0169667
40
0.322202
50
101.6440149
51
144.5142619
0
ARC
8
DEFAULT_255_1_388
10
20.5843103
20
86.8269337
40
0.5180451
50
89.528284
51
102.5820197
0
ARC
8
DEFAULT_255_1_388
10
20.5932095
20
86.8225376
40
0.5224441
50
77.0437914
51
90.508231
0
ARC
8
DEFAULT_255_1_388
10
20.6384348
20
87.0073272
40
0.3322297
50
48.2777708
51
77.4996087
0
ARC
8
DEFAULT_255_1_388
10
20.6466088
20
87.0218557
40
0.315966
50
36.3141586
51
47.6307332
0
ARC
8
DEFAULT_255_1_388
10
20.5488811
20
86.9560159
40
0.4337313
50
18.2931065
51
35.6770203
0
ARC
8
DEFAULT_255_1_388
10
20.2627651
20
86.8578107
40
0.7362203
50
8.0246996
51
18.5605636
0
ARC
8
DEFAULT_255_1_388
10
19.7944007
20
86.7886432
40
1.2096583
50
1.127539
51
8.1718423
0
ARC
8
DEFAULT_255_1_388
10
19.429514
20
86.7743374
40
1.5747719
50
0.5432713
51
1.38669
0
ARC
8
DEFAULT_255_1_388
10
19.6352519
20
86.8050163
40
1.2018103
50
359.8092569
51
4.9408001
0
ARC
8
DEFAULT_255_1_388
10
20.10891
20
86.84729
40
0.7262727
50
4.8364937
51
12.2906017
0
ARC
8
DEFAULT_255_1_388
10
20.4188565
20
86.9163485
40
0.4087324
50
12.0806994
51
23.8171225
0
ARC
8
DEFAULT_255_1_388
10
20.5508961
20
86.9722508
40
0.2653719
50
24.2874621
51
31.3934353
0
ARC
8
DEFAULT_255_1_388
10
20.6099397
20
87.0108822
40
0.1948607
50
30.7407708
51
82.4658033
0
ARC
8
DEFAULT_255_1_388
10
20.5897058
20
86.9115017
40
0.2961198
50
81.1057101
51
90.2187368
0
ARC
8
DEFAULT_255_1_388
10
20.585687
20
86.9405421
40
0.2670929
50
89.380395
51
105.6763916
0
ARC
8
DEFAULT_255_1_388
10
20.5650592
20
87.015532
40
0.1893189
50
105.7980655
51
149.7387869
0
ARC
8
DEFAULT_255_1_388
10
20.6847732
20
86.9435719
40
0.3289892
50
149.4208441
51
163.628295
0
ARC
8
DEFAULT_255_1_388
10
20.9199961
20
86.8718345
40
0.5749004
50
163.3764549
51
172.141138
0
ARC
8
DEFAULT_255_1_388
10
21.2912683
20
86.8186582
40
0.9499585
50
172.0258462
51
178.0705453
0
ARC
8
DEFAULT_255_1_388
10
21.6334236
20
86.8024682
40
1.2924734
50
177.8639301
51
179.5036263
0
ARC
8
DEFAULT_255_1_388
10
21.5115254
20
86.5421151
40
1.170534
50
179.7995545
51
185.246089
0
ARC
8
DEFAULT_255_1_388
10
21.0566847
20
86.4990404
40
0.7136613
50
185.1411911
51
193.0082205
0
ARC
8
DEFAULT_255_1_388
10
20.7593108
20
86.4287441
40
0.4080987
50
192.7897338
51
205.2507384
0
ARC
8
DEFAULT_255_1_388
10
20.6415318
20
86.3761538
40
0.2791522
50
205.8001921
51
211.2545876
0
ARC
8
DEFAULT_255_1_388
10
20.5826857
20
86.3367132
40
0.2084074
50
210.3789935
51
238.4007996
0
ARC
8
DEFAULT_255_1_388
10
20.5804943
20
86.3419786
40
0.2117943
50
239.6521916
51
265.9793852
0
ARC
8
DEFAULT_255_1_388
10
20.5900792
20
86.4176358
40
0.2879689
50
265.1324455
51
270.0603288
0
ARC
8
DEFAULT_255_1_388
10
20.5933169
20
86.3811418
40
0.2514919
50
269.3314378
51
287.2180039
0
ARC
8
DEFAULT_255_1_388
10
20.6088251
20
86.3245291
40
0.1928357
50
287.7957942
51
329.0808983
0
ARC
8
DEFAULT_255_1_388
10
20.5011008
20
86.3917651
40
0.319808
50
328.6635261
51
343.3325043
0
ARC
8
DEFAULT_255_1_388
10
20.2566467
20
86.4679195
40
0.5758408
50
343.0498092
51
351.9392499
0
ARC
8
DEFAULT_255_1_388
10
19.8665789
20
86.5254205
40
0.9701202
50
351.8071632
51
357.7957897
0
ARC
8
DEFAULT_255_1_388
10
19.5031266
20
86.5442724
40
1.3340376
50
357.5870923
51
359.2682493
0
LINE
8
DEFAULT_255_1_388
10
4.8798318
20
84.1633382
11
4.8798318
21
84.0269
0
LINE
8
DEFAULT_255_1_388
10
4.8798318
20
84.0269
11
4.0178313
21
84.0269
0
LINE
8
DEFAULT_255_1_388
10
4.0178313
20
84.0269
11
4.0178313
21
84.1470741
0
LINE
8
DEFAULT_255_1_388
10
4.0178313
20
84.1470741
11
4.4732278
21
84.6530702
0
LINE
8
DEFAULT_255_1_388
10
4.1596909
20
84.9548607
11
3.9925315
21
84.9548607
0
LINE
8
DEFAULT_255_1_388
10
4.5717163
20
84.545546
11
4.2193262
21
84.1633382
0
LINE
8
DEFAULT_255_1_388
10
4.2193262
20
84.1633382
11
4.8798318
21
84.1633382
0
ARC
8
DEFAULT_255_1_388
10
2.9556337
20
85.9950983
40
2.0258655
50
318.5132526
51
320.7829045
0
ARC
8
DEFAULT_255_1_388
10
3.5504294
20
85.5109929
40
1.2589638
50
320.7372878
51
323.9739031
0
ARC
8
DEFAULT_255_1_388
10
3.9913226
20
85.1915554
40
0.7145141
50
323.8962701
51
328.64194
0
ARC
8
DEFAULT_255_1_388
10
4.2215484
20
85.0495545
40
0.4440242
50
328.8294576
51
331.7891185
0
ARC
8
DEFAULT_255_1_388
10
4.3337804
20
84.9916374
40
0.3177517
50
331.4254512
51
352.9365785
0
ARC
8
DEFAULT_255_1_388
10
4.3490804
20
84.988205
40
0.3021496
50
353.2257659
51
0.0166158
0
ARC
8
DEFAULT_255_1_388
10
4.3727564
20
84.9907894
40
0.2784847
50
359.486299
51
15.9343185
0
ARC
8
DEFAULT_255_1_388
10
4.4297831
20
85.0061269
40
0.2194403
50
16.1712913
51
43.5286088
0
ARC
8
DEFAULT_255_1_388
10
4.4384776
20
85.0148191
40
0.2071504
50
43.4417391
51
83.1661095
0
ARC
8
DEFAULT_255_1_388
10
4.4233937
20
84.9319316
40
0.2912888
50
82.160179
51
90.1505708
0
ARC
8
DEFAULT_255_1_388
10
4.4198418
20
84.8715279
40
0.3517025
50
89.5460741
51
102.5418361
0
ARC
8
DEFAULT_255_1_388
10
4.3925138
20
84.9874933
40
0.2325748
50
102.1738499
51
129.206123
0
ARC
8
DEFAULT_255_1_388
10
4.3836592
20
85.0014664
40
0.2161591
50
129.72865
51
135.753947
0
ARC
8
DEFAULT_255_1_388
10
4.3973074
20
84.9905728
40
0.2335433
50
136.1757367
51
166.3673339
0
ARC
8
DEFAULT_255_1_388
10
4.5105762
20
84.9602148
40
0.3507873
50
165.9090694
51
178.8684636
0
ARC
8
DEFAULT_255_1_388
10
4.6081534
20
84.9549263
40
0.4484624
50
178.4391136
51
180.0083808
0
ARC
8
DEFAULT_255_1_388
10
4.4502235
20
84.9593197
40
0.4577138
50
163.2878482
51
180.5581842
0
ARC
8
DEFAULT_255_1_388
10
4.3600276
20
84.9841393
40
0.3641968
50
133.4540601
51
162.947111
0
ARC
8
DEFAULT_255_1_388
10
4.3801158
20
84.9627789
40
0.3935189
50
100.7869829
51
133.4382499
0
ARC
8
DEFAULT_255_1_388
10
4.4192403
20
84.7885399
40
0.5720313
50
89.660664
51
101.3702276
0
ARC
8
DEFAULT_255_1_388
10
4.4267012
20
84.7954263
40
0.5651495
50
78.2172678
51
90.412935
0
ARC
8
DEFAULT_255_1_388
10
4.4666478
20
84.9781511
40
0.378122
50
55.9269121
51
78.4888449
0
ARC
8
DEFAULT_255_1_388
10
4.4887193
20
85.0162187
40
0.3342379
50
47.929771
51
55.4049217
0
ARC
8
DEFAULT_255_1_388
10
4.5001723
20
85.0278618
40
0.3179217
50
4.334829
51
48.0560205
0
ARC
8
DEFAULT_255_1_388
10
4.3769525
20
85.0087487
40
0.442341
50
359.9251713
51
5.5971671
0
ARC
8
DEFAULT_255_1_388
10
4.425168
20
85.0150728
40
0.3941854
50
337.8914027
51
358.9967534
0
ARC
8
DEFAULT_255_1_388
10
4.119925
20
85.1328295
40
0.7213271
50
326.9132501
51
338.3508308
0
ARC
8
DEFAULT_255_1_388
10
3.6715362
20
85.4202105
40
1.2538973
50
319.6471833
51
327.0959558
0
ARC
8
DEFAULT_255_1_388
10
3.240202
20
85.776005
40
1.8129975
50
317.2588228
51
319.9045804
0
LINE
8
DEFAULT_255_1_388
10
5.7626143
20
85.3424898
11
5.7626143
21
84.468743
0
LINE
8
DEFAULT_255_1_388
10
5.7626143
20
84.468743
11
5.9451343
21
84.468743
0
LINE
8
DEFAULT_255_1_388
10
5.9451343
20
84.468743
11
5.9451343
21
84.3323048
0
LINE
8
DEFAULT_255_1_388
10
5.9451343
20
84.3323048
11
5.7626143
21
84.3323048
0
LINE
8
DEFAULT_255_1_388
10
5.7626143
20
84.3323048
11
5.7626143
21
84.0269
0
LINE
8
DEFAULT_255_1_388
10
5.7626143
20
84.0269
11
5.5945513
21
84.0269
0
LINE
8
DEFAULT_255_1_388
10
5.5945513
20
84.0269
11
5.5945513
21
84.3323048
0
LINE
8
DEFAULT_255_1_388
10
5.5945513
20
84.3323048
11
4.995488
21
84.3323048
0
LINE
8
DEFAULT_255_1_388
10
4.995488
20
84.3323048
11
4.995488
21
84.4307933
0
LINE
8
DEFAULT_255_1_388
10
4.995488
20
84.4307933
11
5.5846121
21
85.3424898
0
LINE
8
DEFAULT_255_1_388
10
5.5846121
20
85.3424898
11
5.7626143
21
85.3424898
0
LINE
8
DEFAULT_255_1_388
10
5.5746729
20
85.0777455
11
5.1852366
21
84.468743
0
LINE
8
DEFAULT_255_1_388
10
5.1852366
20
84.468743
11
5.5945513
21
84.468743
0
LINE
8
DEFAULT_255_1_388
10
5.5945513
20
84.468743
11
5.5945513
21
85.113888
0
LINE
8
DEFAULT_255_1_388
10
5.5945513
20
85.113888
11
5.5746729
21
85.0777455
0
LINE
8
DEFAULT_255_1_388
10
6.200843
20
85.3424898
11
6.5749187
21
84.2573089
0
LINE
8
DEFAULT_255_1_388
10
6.5749187
20
84.2573089
11
6.9508015
21
85.3424898
0
LINE
8
DEFAULT_255_1_388
10
6.9508015
20
85.3424898
11
7.14055
21
85.3424898
0
LINE
8
DEFAULT_255_1_388
10
7.14055
20
85.3424898
11
6.6526252
21
84.0269
0
LINE
8
DEFAULT_255_1_388
10
6.6526252
20
84.0269
11
6.4990193
21
84.0269
0
LINE
8
DEFAULT_255_1_388
10
6.4990193
20
84.0269
11
6.011998
21
85.3424898
0
LINE
8
DEFAULT_255_1_388
10
6.011998
20
85.3424898
11
6.200843
21
85.3424898
0
LINE
8
DEFAULT_255_1_388
10
4.8675322
20
4.6519
11
4.5820058
21
5.1840995
0
LINE
8
DEFAULT_255_1_388
10
4.5820058
20
5.1840995
11
4.2729868
21
5.1840995
0
LINE
8
DEFAULT_255_1_388
10
4.2729868
20
5.1840995
11
4.2729868
21
4.6519
0
LINE
8
DEFAULT_255_1_388
10
4.2729868
20
4.6519
11
4.0985988
21
4.6519
0
LINE
8
DEFAULT_255_1_388
10
4.0985988
20
4.6519
11
4.0985988
21
5.9674898
0
LINE
8
DEFAULT_255_1_388
10
4.0985988
20
5.9674898
11
4.5341169
21
5.9674898
0
LINE
8
DEFAULT_255_1_388
10
4.7446474
20
5.2211456
11
5.0536665
21
4.6627428
0
LINE
8
DEFAULT_255_1_388
10
5.0536665
20
4.6627428
11
5.0536665
21
4.6519
0
LINE
8
DEFAULT_255_1_388
10
5.0536665
20
4.6519
11
4.8675322
21
4.6519
0
LINE
8
DEFAULT_255_1_388
10
4.2729868
20
5.8247267
11
4.2729868
21
5.3259591
0
LINE
8
DEFAULT_255_1_388
10
4.2729868
20
5.3259591
11
4.5395383
21
5.3259591
0
LINE
8
DEFAULT_255_1_388
10
4.5386347
20
5.8247267
11
4.2729868
21
5.8247267
0
ARC
8
DEFAULT_255_1_388
10
4.5388015
20
5.1843346
40
0.7831693
50
80.6535681
51
90.3427203
0
ARC
8
DEFAULT_255_1_388
10
4.5859925
20
5.4613722
40
0.5021479
50
65.6987674
51
80.8330164
0
ARC
8
DEFAULT_255_1_388
10
4.6397219
20
5.5845479
40
0.3677787
50
50.0019152
51
65.4304412
0
ARC
8
DEFAULT_255_1_388
10
4.6643035
20
5.6177603
40
0.3265454
50
11.6284215
51
49.5603681
0
ARC
8
DEFAULT_255_1_388
10
4.4915521
20
5.5755524
40
0.5043009
50
359.5655533
51
12.3693319
0
ARC
8
DEFAULT_255_1_388
10
4.6126858
20
5.5685038
40
0.3831661
50
341.998418
51
0.4822212
0
ARC
8
DEFAULT_255_1_388
10
4.6571044
20
5.5564479
40
0.3372036
50
323.8610842
51
341.6141514
0
ARC
8
DEFAULT_255_1_388
10
4.623159
20
5.5826615
40
0.3800784
50
296.7019299
51
323.6876213
0
ARC
8
DEFAULT_255_1_388
10
4.5735548
20
5.6713532
40
0.4816219
50
290.808313
51
297.2325929
0
ARC
8
DEFAULT_255_1_388
10
4.5424342
20
5.7302377
40
0.404289
50
269.5895908
51
281.8058892
0
ARC
8
DEFAULT_255_1_388
10
4.5706608
20
5.601136
40
0.2721459
50
281.5499321
51
303.9358954
0
ARC
8
DEFAULT_255_1_388
10
4.5861143
20
5.5743588
40
0.2413121
50
304.4410786
51
311.211123
0
ARC
8
DEFAULT_255_1_388
10
4.6009548
20
5.5587152
40
0.2197678
50
310.9874923
51
356.2715203
0
ARC
8
DEFAULT_255_1_388
10
4.5159294
20
5.5713992
40
0.3055212
50
354.9346315
51
0.0617816
0
ARC
8
DEFAULT_255_1_388
10
4.4948135
20
5.5744427
40
0.3266482
50
359.5239293
51
12.8808621
0
ARC
8
DEFAULT_255_1_388
10
4.6047898
20
5.6013638
40
0.2134449
50
12.417206
51
43.1023141
0
ARC
8
DEFAULT_255_1_388
10
4.6117228
20
5.6055253
40
0.2055463
50
43.575886
51
48.2047245
0
ARC
8
DEFAULT_255_1_388
10
4.5926489
20
5.5806151
40
0.2368418
50
48.7809155
51
72.6968768
0
ARC
8
DEFAULT_255_1_388
10
4.5527853
20
5.4596385
40
0.364206
50
72.3699892
51
84.8793749
0
ARC
8
DEFAULT_255_1_388
10
4.5361859
20
5.3086651
40
0.5160674
50
84.5398226
51
89.7281165
0
LINE
8
DEFAULT_255_1_388
10
5.2388972
20
5.9674898
11
5.4629812
21
5.9674898
0
LINE
8
DEFAULT_255_1_388
10
5.4629812
20
5.9674898
11
5.8930778
21
4.8940553
0
LINE
8
DEFAULT_255_1_388
10
5.8930778
20
4.8940553
11
6.3231745
21
5.9674898
0
LINE
8
DEFAULT_255_1_388
10
6.3231745
20
5.9674898
11
6.5481621
21
5.9674898
0
LINE
8
DEFAULT_255_1_388
10
6.5481621
20
5.9674898
11
6.5481621
21
4.6519
0
LINE
8
DEFAULT_255_1_388
10
6.5481621
20
4.6519
11
6.3746777
21
4.6519
0
LINE
8
DEFAULT_255_1_388
10
6.3746777
20
4.6519
11
6.3746777
21
5.164221
0
LINE
8
DEFAULT_255_1_388
10
6.3746777
20
5.164221
11
6.3909418
21
5.7172025
0
LINE
8
DEFAULT_255_1_388
10
6.3909418
20
5.7172025
11
5.959038
21
4.6519
0
LINE
8
DEFAULT_255_1_388
10
5.959038
20
4.6519
11
5.8262141
21
4.6519
0
LINE
8
DEFAULT_255_1_388
10
5.8262141
20
4.6519
11
5.3952138
21
5.7144918
0
LINE
8
DEFAULT_255_1_388
10
5.3952138
20
5.7144918
11
5.4123815
21
5.164221
0
LINE
8
DEFAULT_255_1_388
10
5.4123815
20
5.164221
11
5.4123815
21
4.6519
0
LINE
8
DEFAULT_255_1_388
10
5.4123815
20
4.6519
11
5.2388972
21
4.6519
0
LINE
8
DEFAULT_255_1_388
10
5.2388972
20
4.6519
11
5.2388972
21
5.9674898
0
LINE
8
DEFAULT_255_1_388
10
7.7372529
20
5.9674898
11
7.7372529
21
5.8247267
0
LINE
8
DEFAULT_255_1_388
10
7.7372529
20
5.8247267
11
7.3143847
21
5.8247267
0
LINE
8
DEFAULT_255_1_388
10
7.3143847
20
5.8247267
11
7.3143847
21
4.6519
0
LINE
8
DEFAULT_255_1_388
10
7.3143847
20
4.6519
11
7.1418039
21
4.6519
0
LINE
8
DEFAULT_255_1_388
10
7.1418039
20
4.6519
11
7.1418039
21
5.8247267
0
LINE
8
DEFAULT_255_1_388
10
7.1418039
20
5.8247267
11
6.7198393
21
5.8247267
0
LINE
8
DEFAULT_255_1_388
10
6.7198393
20
5.8247267
11
6.7198393
21
5.9674898
0
LINE
8
DEFAULT_255_1_388
10
6.7198393
20
5.9674898
11
7.7372529
21
5.9674898
0
LINE
8
DEFAULT_255_1_388
10
4.7349359
20
13.3393585
11
4.7349359
21
13.1974989
0
LINE
8
DEFAULT_255_1_388
10
4.7349359
20
13.1974989
11
4.1647868
21
13.1974989
0
LINE
8
DEFAULT_255_1_388
10
4.1647868
20
13.1974989
11
4.1647868
21
12.7312596
0
LINE
8
DEFAULT_255_1_388
10
4.1647868
20
12.7312596
11
4.8270995
21
12.7312596
0
LINE
8
DEFAULT_255_1_388
10
4.8270995
20
12.7312596
11
4.8270995
21
12.5894
0
LINE
8
DEFAULT_255_1_388
10
4.8270995
20
12.5894
11
3.9913024
21
12.5894
0
LINE
8
DEFAULT_255_1_388
10
3.9913024
20
12.5894
11
3.9913024
21
13.9049898
0
LINE
8
DEFAULT_255_1_388
10
3.9913024
20
13.9049898
11
4.8180639
21
13.9049898
0
LINE
8
DEFAULT_255_1_388
10
4.8180639
20
13.9049898
11
4.8180639
21
13.7622267
0
LINE
8
DEFAULT_255_1_388
10
4.8180639
20
13.7622267
11
4.1647868
21
13.7622267
0
LINE
8
DEFAULT_255_1_388
10
4.1647868
20
13.7622267
11
4.1647868
21
13.3393585
0
LINE
8
DEFAULT_255_1_388
10
4.1647868
20
13.3393585
11
4.7349359
21
13.3393585
0
LINE
8
DEFAULT_255_1_388
10
5.9701085
20
13.9049898
11
5.9701085
21
13.7622267
0
LINE
8
DEFAULT_255_1_388
10
5.9701085
20
13.7622267
11
5.5472404
21
13.7622267
0
LINE
8
DEFAULT_255_1_388
10
5.5472404
20
13.7622267
11
5.5472404
21
12.5894
0
LINE
8
DEFAULT_255_1_388
10
5.5472404
20
12.5894
11
5.3746596
21
12.5894
0
LINE
8
DEFAULT_255_1_388
10
5.3746596
20
12.5894
11
5.3746596
21
13.7622267
0
LINE
8
DEFAULT_255_1_388
10
5.3746596
20
13.7622267
11
4.952695
21
13.7622267
0
LINE
8
DEFAULT_255_1_388
10
4.952695
20
13.7622267
11
4.952695
21
13.9049898
0
LINE
8
DEFAULT_255_1_388
10
4.952695
20
13.9049898
11
5.9701085
21
13.9049898
0
LINE
8
DEFAULT_255_1_388
10
7.1763671
20
13.9049898
11
7.1763671
21
12.5894
0
LINE
8
DEFAULT_255_1_388
10
7.1763671
20
12.5894
11
7.0019792
21
12.5894
0
LINE
8
DEFAULT_255_1_388
10
7.0019792
20
12.5894
11
7.0019792
21
13.1974989
0
LINE
8
DEFAULT_255_1_388
10
7.0019792
20
13.1974989
11
6.3387628
21
13.1974989
0
LINE
8
DEFAULT_255_1_388
10
6.3387628
20
13.1974989
11
6.3387628
21
12.5894
0
LINE
8
DEFAULT_255_1_388
10
6.3387628
20
12.5894
11
6.1652785
21
12.5894
0
LINE
8
DEFAULT_255_1_388
10
6.1652785
20
12.5894
11
6.1652785
21
13.9049898
0
LINE
8
DEFAULT_255_1_388
10
6.1652785
20
13.9049898
11
6.3387628
21
13.9049898
0
LINE
8
DEFAULT_255_1_388
10
6.3387628
20
13.9049898
11
6.3387628
21
13.3393585
0
LINE
8
DEFAULT_255_1_388
10
6.3387628
20
13.3393585
11
7.0019792
21
13.3393585
0
LINE
8
DEFAULT_255_1_388
10
7.0019792
20
13.3393585
11
7.0019792
21
13.9049898
0
LINE
8
DEFAULT_255_1_388
10
7.0019792
20
13.9049898
11
7.1763671
21
13.9049898
0
LINE
8
DEFAULT_255_1_388
10
4.8390322
20
20.5269
11
4.5535058
21
21.0590995
0
LINE
8
DEFAULT_255_1_388
10
4.5535058
20
21.0590995
11
4.2444868
21
21.0590995
0
LINE
8
DEFAULT_255_1_388
10
4.2444868
20
21.0590995
11
4.2444868
21
20.5269
0
LINE
8
DEFAULT_255_1_388
10
4.2444868
20
20.5269
11
4.0700988
21
20.5269
0
LINE
8
DEFAULT_255_1_388
10
4.0700988
20
20.5269
11
4.0700988
21
21.8424898
0
LINE
8
DEFAULT_255_1_388
10
4.0700988
20
21.8424898
11
4.5056169
21
21.8424898
0
LINE
8
DEFAULT_255_1_388
10
4.7161474
20
21.0961456
11
5.0251665
21
20.5377428
0
LINE
8
DEFAULT_255_1_388
10
5.0251665
20
20.5377428
11
5.0251665
21
20.5269
0
LINE
8
DEFAULT_255_1_388
10
5.0251665
20
20.5269
11
4.8390322
21
20.5269
0
LINE
8
DEFAULT_255_1_388
10
4.2444868
20
21.6997267
11
4.2444868
21
21.2009591
0
LINE
8
DEFAULT_255_1_388
10
4.2444868
20
21.2009591
11
4.5110383
21
21.2009591
0
LINE
8
DEFAULT_255_1_388
10
4.5101347
20
21.6997267
11
4.2444868
21
21.6997267
0
ARC
8
DEFAULT_255_1_388
10
4.5103015
20
21.0593346
40
0.7831693
50
80.6535681
51
90.3427203
0
ARC
8
DEFAULT_255_1_388
10
4.5574925
20
21.3363722
40
0.5021479
50
65.6987674
51
80.8330164
0
ARC
8
DEFAULT_255_1_388
10
4.6112219
20
21.4595479
40
0.3677787
50
50.0019152
51
65.4304412
0
ARC
8
DEFAULT_255_1_388
10
4.6358035
20
21.4927603
40
0.3265454
50
11.6284215
51
49.5603681
0
ARC
8
DEFAULT_255_1_388
10
4.4630521
20
21.4505524
40
0.5043009
50
359.5655533
51
12.3693319
0
ARC
8
DEFAULT_255_1_388
10
4.5841858
20
21.4435038
40
0.3831661
50
341.998418
51
0.4822212
0
ARC
8
DEFAULT_255_1_388
10
4.6286044
20
21.4314479
40
0.3372036
50
323.8610842
51
341.6141514
0
ARC
8
DEFAULT_255_1_388
10
4.594659
20
21.4576615
40
0.3800784
50
296.7019299
51
323.6876213
0
ARC
8
DEFAULT_255_1_388
10
4.5450548
20
21.5463532
40
0.4816219
50
290.808313
51
297.2325929
0
ARC
8
DEFAULT_255_1_388
10
4.5139342
20
21.6052377
40
0.404289
50
269.5895908
51
281.8058892
0
ARC
8
DEFAULT_255_1_388
10
4.5421608
20
21.476136
40
0.2721459
50
281.5499321
51
303.9358954
0
ARC
8
DEFAULT_255_1_388
10
4.5576143
20
21.4493588
40
0.2413121
50
304.4410786
51
311.211123
0
ARC
8
DEFAULT_255_1_388
10
4.5724548
20
21.4337152
40
0.2197678
50
310.9874923
51
356.2715203
0
ARC
8
DEFAULT_255_1_388
10
4.4874294
20
21.4463992
40
0.3055212
50
354.9346315
51
0.0617816
0
ARC
8
DEFAULT_255_1_388
10
4.4663135
20
21.4494427
40
0.3266482
50
359.5239293
51
12.8808621
0
ARC
8
DEFAULT_255_1_388
10
4.5762898
20
21.4763638
40
0.2134449
50
12.417206
51
43.1023141
0
ARC
8
DEFAULT_255_1_388
10
4.5832228
20
21.4805253
40
0.2055463
50
43.575886
51
48.2047245
0
ARC
8
DEFAULT_255_1_388
10
4.5641489
20
21.4556151
40
0.2368418
50
48.7809155
51
72.6968768
0
ARC
8
DEFAULT_255_1_388
10
4.5242853
20
21.3346385
40
0.364206
50
72.3699892
51
84.8793749
0
ARC
8
DEFAULT_255_1_388
10
4.5076859
20
21.1836651
40
0.5160674
50
84.5398226
51
89.7281165
0
LINE
8
DEFAULT_255_1_388
10
5.3224392
20
21.8424898
11
5.6395903
21
21.3383009
0
LINE
8
DEFAULT_255_1_388
10
5.6395903
20
21.3383009
11
5.9549343
21
21.8424898
0
LINE
8
DEFAULT_255_1_388
10
5.9549343
20
21.8424898
11
6.1591398
21
21.8424898
0
LINE
8
DEFAULT_255_1_388
10
6.1591398
20
21.8424898
11
5.7435002
21
21.1901163
0
LINE
8
DEFAULT_255_1_388
10
5.7435002
20
21.1901163
11
6.1690791
21
20.5269
0
LINE
8
DEFAULT_255_1_388
10
6.1690791
20
20.5269
11
5.9630664
21
20.5269
0
LINE
8
DEFAULT_255_1_388
10
5.9630664
20
20.5269
11
5.6395903
21
21.0401246
0
LINE
8
DEFAULT_255_1_388
10
5.6395903
20
21.0401246
11
5.3143071
21
20.5269
0
LINE
8
DEFAULT_255_1_388
10
5.3143071
20
20.5269
11
5.1091979
21
20.5269
0
LINE
8
DEFAULT_255_1_388
10
5.1091979
20
20.5269
11
5.5356804
21
21.1901163
0
LINE
8
DEFAULT_255_1_388
10
5.5356804
20
21.1901163
11
5.1191372
21
21.8424898
0
LINE
8
DEFAULT_255_1_388
10
5.1191372
20
21.8424898
11
5.3224392
21
21.8424898
0
LINE
8
DEFAULT_255_1_388
10
5.1111882
20
29.7799898
11
5.1111882
21
29.6372267
0
LINE
8
DEFAULT_255_1_388
10
5.1111882
20
29.6372267
11
4.6883201
21
29.6372267
0
LINE
8
DEFAULT_255_1_388
10
4.6883201
20
29.6372267
11
4.6883201
21
28.4644
0
LINE
8
DEFAULT_255_1_388
10
4.6883201
20
28.4644
11
4.5157393
21
28.4644
0
LINE
8
DEFAULT_255_1_388
10
4.5157393
20
28.4644
11
4.5157393
21
29.6372267
0
LINE
8
DEFAULT_255_1_388
10
4.5157393
20
29.6372267
11
4.0937747
21
29.6372267
0
LINE
8
DEFAULT_255_1_388
10
4.0937747
20
29.6372267
11
4.0937747
21
29.7799898
0
LINE
8
DEFAULT_255_1_388
10
4.0937747
20
29.7799898
11
5.1111882
21
29.7799898
0
LINE
8
DEFAULT_255_1_388
10
5.4184001
20
29.7799898
11
5.7355513
21
29.2758009
0
LINE
8
DEFAULT_255_1_388
10
5.7355513
20
29.2758009
11
6.0508953
21
29.7799898
0
LINE
8
DEFAULT_255_1_388
10
6.0508953
20
29.7799898
11
6.2551008
21
29.7799898
0
LINE
8
DEFAULT_255_1_388
10
6.2551008
20
29.7799898
11
5.8394612
21
29.1276163
0
LINE
8
DEFAULT_255_1_388
10
5.8394612
20
29.1276163
11
6.26504
21
28.4644
0
LINE
8
DEFAULT_255_1_388
10
6.26504
20
28.4644
11
6.0590273
21
28.4644
0
LINE
8
DEFAULT_255_1_388
10
6.0590273
20
28.4644
11
5.7355513
21
28.9776246
0
LINE
8
DEFAULT_255_1_388
10
5.7355513
20
28.9776246
11
5.4102681
21
28.4644
0
LINE
8
DEFAULT_255_1_388
10
5.4102681
20
28.4644
11
5.2051589
21
28.4644
0
LINE
8
DEFAULT_255_1_388
10
5.2051589
20
28.4644
11
5.6316414
21
29.1276163
0
LINE
8
DEFAULT_255_1_388
10
5.6316414
20
29.1276163
11
5.2150981
21
29.7799898
0
LINE
8
DEFAULT_255_1_388
10
5.2150981
20
29.7799898
11
5.4184001
21
29.7799898
0
LINE
8
DEFAULT_255_1_388
10
4.8706322
20
36.4019
11
4.5851058
21
36.9340995
0
LINE
8
DEFAULT_255_1_388
10
4.5851058
20
36.9340995
11
4.2760868
21
36.9340995
0
LINE
8
DEFAULT_255_1_388
10
4.2760868
20
36.9340995
11
4.2760868
21
36.4019
0
LINE
8
DEFAULT_255_1_388
10
4.2760868
20
36.4019
11
4.1016988
21
36.4019
0
LINE
8
DEFAULT_255_1_388
10
4.1016988
20
36.4019
11
4.1016988
21
37.7174898
0
LINE
8
DEFAULT_255_1_388
10
4.1016988
20
37.7174898
11
4.5372169
21
37.7174898
0
LINE
8
DEFAULT_255_1_388
10
4.7477474
20
36.9711456
11
5.0567665
21
36.4127428
0
LINE
8
DEFAULT_255_1_388
10
5.0567665
20
36.4127428
11
5.0567665
21
36.4019
0
LINE
8
DEFAULT_255_1_388
10
5.0567665
20
36.4019
11
4.8706322
21
36.4019
0
LINE
8
DEFAULT_255_1_388
10
4.2760868
20
37.5747267
11
4.2760868
21
37.0759591
0
LINE
8
DEFAULT_255_1_388
10
4.2760868
20
37.0759591
11
4.5426383
21
37.0759591
0
LINE
8
DEFAULT_255_1_388
10
4.5417347
20
37.5747267
11
4.2760868
21
37.5747267
0
ARC
8
DEFAULT_255_1_388
10
4.5419015
20
36.9343346
40
0.7831693
50
80.6535681
51
90.3427203
0
ARC
8
DEFAULT_255_1_388
10
4.5890925
20
37.2113722
40
0.5021479
50
65.6987674
51
80.8330164
0
ARC
8
DEFAULT_255_1_388
10
4.6428219
20
37.3345479
40
0.3677787
50
50.0019152
51
65.4304412
0
ARC
8
DEFAULT_255_1_388
10
4.6674035
20
37.3677603
40
0.3265454
50
11.6284215
51
49.5603681
0
ARC
8
DEFAULT_255_1_388
10
4.4946521
20
37.3255524
40
0.5043009
50
359.5655533
51
12.3693319
0
ARC
8
DEFAULT_255_1_388
10
4.6157858
20
37.3185038
40
0.3831661
50
341.998418
51
0.4822212
0
ARC
8
DEFAULT_255_1_388
10
4.6602044
20
37.3064479
40
0.3372036
50
323.8610842
51
341.6141514
0
ARC
8
DEFAULT_255_1_388
10
4.626259
20
37.3326615
40
0.3800784
50
296.7019299
51
323.6876213
0
ARC
8
DEFAULT_255_1_388
10
4.5766548
20
37.4213532
40
0.4816219
50
290.808313
51
297.2325929
0
ARC
8
DEFAULT_255_1_388
10
4.5455342
20
37.4802377
40
0.404289
50
269.5895908
51
281.8058892
0
ARC
8
DEFAULT_255_1_388
10
4.5737608
20
37.351136
40
0.2721459
50
281.5499321
51
303.9358954
0
ARC
8
DEFAULT_255_1_388
10
4.5892143
20
37.3243588
40
0.2413121
50
304.4410786
51
311.211123
0
ARC
8
DEFAULT_255_1_388
10
4.6040548
20
37.3087152
40
0.2197678
50
310.9874923
51
356.2715203
0
ARC
8
DEFAULT_255_1_388
10
4.5190294
20
37.3213992
40
0.3055212
50
354.9346315
51
0.0617816
0
ARC
8
DEFAULT_255_1_388
10
4.4979135
20
37.3244427
40
0.3266482
50
359.5239293
51
12.8808621
0
ARC
8
DEFAULT_255_1_388
10
4.6078898
20
37.3513638
40
0.2134449
50
12.417206
51
43.1023141
0
ARC
8
DEFAULT_255_1_388
10
4.6148228
20
37.3555253
40
0.2055463
50
43.575886
51
48.2047245
0
ARC
8
DEFAULT_255_1_388
10
4.5957489
20
37.3306151
40
0.2368418
50
48.7809155
51
72.6968768
0
ARC
8
DEFAULT_255_1_388
10
4.5558853
20
37.2096385
40
0.364206
50
72.3699892
51
84.8793749
0
ARC
8
DEFAULT_255_1_388
10
4.5392859
20
37.0586651
40
0.5160674
50
84.5398226
51
89.7281165
0
LINE
8
DEFAULT_255_1_388
10
6.0786979
20
37.7174898
11
6.0786979
21
37.5747267
0
LINE
8
DEFAULT_255_1_388
10
6.0786979
20
37.5747267
11
5.6558297
21
37.5747267
0
LINE
8
DEFAULT_255_1_388
10
5.6558297
20
37.5747267
11
5.6558297
21
36.4019
0
LINE
8
DEFAULT_255_1_388
10
5.6558297
20
36.4019
11
5.4832489
21
36.4019
0
LINE
8
DEFAULT_255_1_388
10
5.4832489
20
36.4019
11
5.4832489
21
37.5747267
0
LINE
8
DEFAULT_255_1_388
10
5.4832489
20
37.5747267
11
5.0612843
21
37.5747267
0
LINE
8
DEFAULT_255_1_388
10
5.0612843
20
37.5747267
11
5.0612843
21
37.7174898
0
LINE
8
DEFAULT_255_1_388
10
5.0612843
20
37.7174898
11
6.0786979
21
37.7174898
0
LINE
8
DEFAULT_255_1_388
10
7.132254
20
37.3370892
11
6.9578661
21
37.3370892
0
LINE
8
DEFAULT_255_1_388
10
6.1789935
20
36.7832042
11
6.3533814
21
36.7832042
0
ARC
8
DEFAULT_255_1_388
10
7.0319388
20
38.3434821
40
1.4087688
50
248.9196578
51
254.1442424
0
ARC
8
DEFAULT_255_1_388
10
6.8429268
20
37.8568805
40
0.8867498
50
241.6337352
51
249.0064643
0
ARC
8
DEFAULT_255_1_388
10
6.6709581
20
37.5417764
40
0.5277799
50
230.4982261
51
241.8087583
0
ARC
8
DEFAULT_255_1_388
10
6.5827352
20
37.4293686
40
0.3849419
50
227.4062979
51
229.9877433
0
ARC
8
DEFAULT_255_1_388
10
6.5278699
20
37.3758155
40
0.3084129
50
200.6782127
51
228.1765252
0
ARC
8
DEFAULT_255_1_388
10
6.5360068
20
37.3741277
40
0.315461
50
179.506278
51
199.8695278
0
ARC
8
DEFAULT_255_1_388
10
6.5349656
20
37.3824671
40
0.3144584
50
132.4834401
51
181.0242352
0
ARC
8
DEFAULT_255_1_388
10
6.6018861
20
37.3192788
40
0.4063094
50
129.2526113
51
133.4249077
0
ARC
8
DEFAULT_255_1_388
10
6.6184453
20
37.2944619
40
0.436014
50
101.9878945
51
128.8741833
0
ARC
8
DEFAULT_255_1_388
10
6.6632869
20
37.100836
40
0.6347415
50
89.5906376
51
102.3170567
0
ARC
8
DEFAULT_255_1_388
10
6.671218
20
37.1366586
40
0.5989122
50
77.2359491
51
90.3248968
0
ARC
8
DEFAULT_255_1_388
10
6.6945111
20
37.2454554
40
0.4876594
50
63.8379856
51
77.0808925
0
ARC
8
DEFAULT_255_1_388
10
6.7257645
20
37.3036882
40
0.4216191
50
45.9863127
51
64.1608798
0
ARC
8
DEFAULT_255_1_388
10
6.7551038
20
37.337199
40
0.3771394
50
32.2747934
51
45.6544796
0
ARC
8
DEFAULT_255_1_388
10
6.7625845
20
37.3393426
40
0.3696765
50
359.6507495
51
32.6129943
0
ARC
8
DEFAULT_255_1_388
10
6.6565027
20
37.3398788
40
0.3013762
50
359.469654
51
14.983205
0
ARC
8
DEFAULT_255_1_388
10
6.735828
20
37.3611288
40
0.2192542
50
14.9781954
51
48.2004799
0
ARC
8
DEFAULT_255_1_388
10
6.7173391
20
37.3378937
40
0.2489048
50
48.5926661
51
74.1242559
0
ARC
8
DEFAULT_255_1_388
10
6.6798193
20
37.2140607
40
0.3782845
50
73.7889321
51
86.6653996
0
ARC
8
DEFAULT_255_1_388
10
6.6683008
20
37.0782955
40
0.5145025
50
86.2642725
51
90.0533288
0
ARC
8
DEFAULT_255_1_388
10
6.66511
20
37.1227376
40
0.4700681
50
89.669455
51
99.2313411
0
ARC
8
DEFAULT_255_1_388
10
6.637826
20
37.2852401
40
0.3052945
50
99.0695987
51
113.7659242
0
ARC
8
DEFAULT_255_1_388
10
6.6070254
20
37.3578772
40
0.226407
50
114.0402885
51
127.9848946
0
ARC
8
DEFAULT_255_1_388
10
6.5799731
20
37.3911884
40
0.1835045
50
127.7287217
51
176.7106493
0
ARC
8
DEFAULT_255_1_388
10
6.6563396
20
37.379821
40
0.2604907
50
175.1780759
51
180.0581213
0
ARC
8
DEFAULT_255_1_388
10
6.5614739
20
37.3784411
40
0.1656287
50
179.6140658
51
228.124674
0
ARC
8
DEFAULT_255_1_388
10
6.6112097
20
37.424494
40
0.2332038
50
226.5785315
51
230.8792476
0
ARC
8
DEFAULT_255_1_388
10
6.6641583
20
37.4947908
40
0.3211664
50
231.4636401
51
241.9261664
0
ARC
8
DEFAULT_255_1_388
10
6.7988367
20
37.7426349
40
0.6032345
50
241.7177136
51
248.3259138
0
ARC
8
DEFAULT_255_1_388
10
6.9546962
20
38.1287771
40
1.0196417
50
248.2007377
51
252.4527713
0
ARC
8
DEFAULT_255_1_388
10
7.0900488
20
38.5472092
40
1.4594143
50
252.3388938
51
254.347037
0
ARC
8
DEFAULT_255_1_388
10
6.2415789
20
35.5124095
40
1.6917621
50
71.0197462
51
74.4085467
0
ARC
8
DEFAULT_255_1_388
10
6.4322877
20
36.0629144
40
1.1091618
50
66.1845203
51
71.086519
0
ARC
8
DEFAULT_255_1_388
10
6.6073425
20
36.4570439
40
0.6779073
50
59.3537334
51
66.269255
0
ARC
8
DEFAULT_255_1_388
10
6.7073151
20
36.6261777
40
0.4814366
50
49.1021732
51
59.3294421
0
ARC
8
DEFAULT_255_1_388
10
6.799414
20
36.7311575
40
0.3417875
50
32.7924183
51
49.2503526
0
ARC
8
DEFAULT_255_1_388
10
6.8343754
20
36.7561311
40
0.2988789
50
31.121225
51
32.3977355
0
ARC
8
DEFAULT_255_1_388
10
6.8255932
20
36.7528728
40
0.3080861
50
8.1116803
51
30.7958224
0
ARC
8
DEFAULT_255_1_388
10
6.7344277
20
36.7373437
40
0.4005385
50
359.8390945
51
8.4707348
0
ARC
8
DEFAULT_255_1_388
10
6.8048325
20
36.7318751
40
0.3301608
50
337.4732479
51
0.7538283
0
ARC
8
DEFAULT_255_1_388
10
6.824935
20
36.7296554
40
0.3107929
50
307.5917028
51
336.4313755
0
ARC
8
DEFAULT_255_1_388
10
6.7738408
20
36.7864509
40
0.3870096
50
307.6560665
51
308.4561779
0
ARC
8
DEFAULT_255_1_388
10
6.7472624
20
36.8272832
40
0.435591
50
284.3733666
51
307.1426212
0
ARC
8
DEFAULT_255_1_388
10
6.6915519
20
37.0322391
40
0.6479685
50
272.4384566
51
284.6464689
0
ARC
8
DEFAULT_255_1_388
10
6.6772904
20
37.2346434
40
0.8508149
50
269.9708517
51
272.8180721
0
ARC
8
DEFAULT_255_1_388
10
6.6724586
20
37.0054283
40
0.6216151
50
248.2707343
51
270.4054609
0
ARC
8
DEFAULT_255_1_388
10
6.6663458
20
36.9839673
40
0.5994203
50
246.1380358
51
248.054058
0
ARC
8
DEFAULT_255_1_388
10
6.61926
20
36.8850705
40
0.4899388
50
233.1671897
51
246.4951656
0
ARC
8
DEFAULT_255_1_388
10
6.5569235
20
36.8009137
40
0.3852115
50
215.3403381
51
233.084328
0
ARC
8
DEFAULT_255_1_388
10
6.52626
20
36.7786093
40
0.3472969
50
179.2419235
51
215.2648426
0
ARC
8
DEFAULT_255_1_388
10
6.612615
20
36.7801979
40
0.259251
50
179.3355796
51
199.1045873
0
ARC
8
DEFAULT_255_1_388
10
6.5752292
20
36.7704223
40
0.2207454
50
199.8830064
51
232.7061328
0
ARC
8
DEFAULT_255_1_388
10
6.6283567
20
36.8372456
40
0.306101
50
232.3736206
51
255.5136621
0
ARC
8
DEFAULT_255_1_388
10
6.6667072
20
36.9772177
40
0.4512213
50
255.2447928
51
267.5318292
0
ARC
8
DEFAULT_255_1_388
10
6.6765539
20
37.1158709
40
0.5901825
50
267.1564563
51
270.0294721
0
ARC
8
DEFAULT_255_1_388
10
6.6796865
20
37.0659623
40
0.5402814
50
269.6999944
51
278.1662446
0
ARC
8
DEFAULT_255_1_388
10
6.7084892
20
36.8712974
40
0.3435003
50
278.0229022
51
290.6255326
0
ARC
8
DEFAULT_255_1_388
10
6.7476059
20
36.7669547
40
0.2320666
50
290.6616368
51
307.0374127
0
ARC
8
DEFAULT_255_1_388
10
6.7813959
20
36.725504
40
0.1786372
50
306.3942078
51
355.303191
0
ARC
8
DEFAULT_255_1_388
10
6.7238252
20
36.7341186
40
0.2367516
50
354.3662092
51
0.0709489
0
ARC
8
DEFAULT_255_1_388
10
6.7398121
20
36.7366561
40
0.2207761
50
359.4175379
51
16.1975911
0
ARC
8
DEFAULT_255_1_388
10
6.7910238
20
36.7506954
40
0.1676828
50
16.4721294
51
52.6261798
0
ARC
8
DEFAULT_255_1_388
10
6.6986746
20
36.6287606
40
0.3206412
50
52.7381828
51
62.4979144
0
ARC
8
DEFAULT_255_1_388
10
6.5428498
20
36.3355236
40
0.6527035
50
62.2517425
51
68.1219454
0
ARC
8
DEFAULT_255_1_388
10
6.3493987
20
35.8600951
40
1.1659797
50
68.006043
51
71.8055127
0
ARC
8
DEFAULT_255_1_388
10
6.1473894
20
35.2542723
40
1.8045908
50
71.718361
51
73.9260743
0
LINE
8
DEFAULT_255_1_388
10
4.9909342
20
44.9944842
11
4.9909342
21
44.5119808
0
LINE
8
DEFAULT_255_1_388
10
3.9771349
20
44.9339454
11
3.9771349
21
45.0486981
0
LINE
8
DEFAULT_255_1_388
10
4.9909342
20
45.2691678
11
4.8174498
21
45.2691678
0
LINE
8
DEFAULT_255_1_388
10
4.1515228
20
45.0532159
11
4.1515228
21
44.9456917
0
LINE
8
DEFAULT_255_1_388
10
4.8183534
20
44.5580626
11
4.8183534
21
44.8535282
0
LINE
8
DEFAULT_255_1_388
10
4.8183534
20
44.8535282
11
4.5138521
21
44.8535282
0
LINE
8
DEFAULT_255_1_388
10
4.5138521
20
44.8535282
11
4.5138521
21
44.9944842
0
LINE
8
DEFAULT_255_1_388
10
4.5138521
20
44.9944842
11
4.9909342
21
44.9944842
0
ARC
8
DEFAULT_255_1_388
10
4.6723942
20
44.7362284
40
0.3895571
50
295.8437277
51
324.8549962
0
ARC
8
DEFAULT_255_1_388
10
4.6256325
20
44.8208619
40
0.4861381
50
291.5691164
51
296.4556269
0
ARC
8
DEFAULT_255_1_388
10
4.5681327
20
44.9744801
40
0.6501442
50
278.6622213
51
291.3047061
0
ARC
8
DEFAULT_255_1_388
10
4.5299359
20
45.2161557
40
0.8948168
50
270.0200506
51
278.7494673
0
ARC
8
DEFAULT_255_1_388
10
4.5255563
20
45.4007453
40
1.0794166
50
270.0022372
51
270.2490917
0
ARC
8
DEFAULT_255_1_388
10
4.5213456
20
44.9048827
40
0.5835695
50
253.5785313
51
270.4175629
0
ARC
8
DEFAULT_255_1_388
10
4.5018452
20
44.8293625
40
0.5056241
50
238.8203954
51
253.2788387
0
ARC
8
DEFAULT_255_1_388
10
4.4996367
20
44.8236224
40
0.4995712
50
206.7883476
51
238.696262
0
ARC
8
DEFAULT_255_1_388
10
4.5871763
20
44.8760847
40
0.6014056
50
206.1137778
51
207.4912776
0
ARC
8
DEFAULT_255_1_388
10
4.6538599
20
44.9044284
40
0.6737692
50
188.6922336
51
205.782076
0
ARC
8
DEFAULT_255_1_388
10
4.8626958
20
44.9399455
40
0.8855812
50
180.3881972
51
188.9218085
0
ARC
8
DEFAULT_255_1_388
10
5.0008116
20
45.0550622
40
1.0236965
50
170.2024645
51
180.3561986
0
ARC
8
DEFAULT_255_1_388
10
4.6449266
20
45.1187101
40
0.6621746
50
154.2856519
51
170.3893388
0
ARC
8
DEFAULT_255_1_388
10
4.500723
20
45.1847192
40
0.5036209
50
139.8400879
51
153.9334639
0
ARC
8
DEFAULT_255_1_388
10
4.4603133
20
45.2170716
40
0.4518751
50
98.4190017
51
139.6707015
0
ARC
8
DEFAULT_255_1_388
10
4.5030101
20
45.0094755
40
0.6635912
50
89.7660128
51
99.4415389
0
ARC
8
DEFAULT_255_1_388
10
4.5103497
20
45.0168517
40
0.6562258
50
78.0552044
51
90.4042252
0
ARC
8
DEFAULT_255_1_388
10
4.5558561
20
45.2214661
40
0.4466287
50
54.6380186
51
78.3338577
0
ARC
8
DEFAULT_255_1_388
10
4.5772859
20
45.2575444
40
0.4048184
50
50.0313964
51
54.1562739
0
ARC
8
DEFAULT_255_1_388
10
4.5651753
20
45.2466798
40
0.4209308
50
18.1092229
51
49.7179911
0
ARC
8
DEFAULT_255_1_388
10
4.4012833
20
45.1866399
40
0.5953982
50
7.967396
51
18.698492
0
ARC
8
DEFAULT_255_1_388
10
4.4182094
20
45.2005236
40
0.4050986
50
9.7558763
51
27.3214087
0
ARC
8
DEFAULT_255_1_388
10
4.5450559
20
45.2639087
40
0.2633168
50
27.736147
51
84.5257861
0
ARC
8
DEFAULT_255_1_388
10
4.5081968
20
45.0789988
40
0.4513019
50
82.1064239
51
90.1997295
0
ARC
8
DEFAULT_255_1_388
10
4.5025985
20
45.1361501
40
0.3941684
50
89.4148952
51
105.5824837
0
ARC
8
DEFAULT_255_1_388
10
4.4736865
20
45.2414043
40
0.2850167
50
105.6678541
51
144.2649156
0
ARC
8
DEFAULT_255_1_388
10
4.5741758
20
45.1699024
40
0.4083468
50
144.3560675
51
162.8564185
0
ARC
8
DEFAULT_255_1_388
10
4.80862
20
45.0946083
40
0.6545749
50
162.6076338
51
173.6779811
0
ARC
8
DEFAULT_255_1_388
10
5.1530315
20
45.0527422
40
1.0015089
50
173.4670996
51
179.9729015
0
ARC
8
DEFAULT_255_1_388
10
4.9383186
20
44.9409636
40
0.78681
50
179.6556955
51
190.007958
0
ARC
8
DEFAULT_255_1_388
10
4.6777468
20
44.893166
40
0.5218997
50
189.8117884
51
206.6795375
0
ARC
8
DEFAULT_255_1_388
10
4.5826914
20
44.8488514
40
0.4170788
50
207.1031171
51
217.7074698
0
ARC
8
DEFAULT_255_1_388
10
4.5113344
20
44.7867596
40
0.3226945
50
216.7345117
51
265.6812141
0
ARC
8
DEFAULT_255_1_388
10
4.5260486
20
44.888503
40
0.4253149
50
264.7367524
51
270.0610826
0
ARC
8
DEFAULT_255_1_388
10
4.5286672
20
45.2080173
40
0.7448321
50
269.8334494
51
276.0538364
0
ARC
8
DEFAULT_255_1_388
10
4.5519534
20
44.9940924
40
0.5296446
50
275.9894423
51
284.4615914
0
ARC
8
DEFAULT_255_1_388
10
4.5741047
20
44.900857
40
0.4338353
50
284.7038488
51
286.4938196
0
ARC
8
DEFAULT_255_1_388
10
4.6200196
20
44.7529371
40
0.2789738
50
286.0770429
51
304.2629628
0
ARC
8
DEFAULT_255_1_388
10
4.6350354
20
44.728368
40
0.2502188
50
304.5886247
51
317.1074126
0
LINE
8
DEFAULT_255_1_388
10
4.5831713
20
52.9039737
11
4.5831713
21
52.7675355
0
LINE
8
DEFAULT_255_1_388
10
4.5831713
20
52.7675355
11
4.1422319
21
52.7675355
0
LINE
8
DEFAULT_255_1_388
10
4.1422319
20
52.7675355
11
4.1422319
21
52.9039737
0
LINE
8
DEFAULT_255_1_388
10
4.1422319
20
52.9039737
11
4.5831713
21
52.9039737
0
LINE
8
DEFAULT_255_1_388
10
4.4454882
20
61.3040987
11
4.4454882
21
60.9200838
0
LINE
8
DEFAULT_255_1_388
10
4.4454882
20
60.9200838
11
4.8123354
21
60.9200838
0
LINE
8
DEFAULT_255_1_388
10
4.8123354
20
60.9200838
11
4.8123354
21
60.7619601
0
LINE
8
DEFAULT_255_1_388
10
4.8123354
20
60.7619601
11
4.4454882
21
60.7619601
0
LINE
8
DEFAULT_255_1_388
10
4.4454882
20
60.7619601
11
4.4454882
21
60.3463204
0
LINE
8
DEFAULT_255_1_388
10
4.4454882
20
60.3463204
11
4.2774252
21
60.3463204
0
LINE
8
DEFAULT_255_1_388
10
4.2774252
20
60.3463204
11
4.2774252
21
60.7619601
0
LINE
8
DEFAULT_255_1_388
10
4.2774252
20
60.7619601
11
3.910578
21
60.7619601
0
LINE
8
DEFAULT_255_1_388
10
3.910578
20
60.7619601
11
3.910578
21
60.9200838
0
LINE
8
DEFAULT_255_1_388
10
3.910578
20
60.9200838
11
4.2774252
21
60.9200838
0
LINE
8
DEFAULT_255_1_388
10
4.2774252
20
60.9200838
11
4.2774252
21
61.3040987
0
LINE
8
DEFAULT_255_1_388
10
4.2774252
20
61.3040987
11
4.4454882
21
61.3040987
0
LINE
8
DEFAULT_255_1_388
10
5.1394882
20
69.4674898
11
5.1394882
21
69.3247267
0
LINE
8
DEFAULT_255_1_388
10
5.1394882
20
69.3247267
11
4.7166201
21
69.3247267
0
LINE
8
DEFAULT_255_1_388
10
4.7166201
20
69.3247267
11
4.7166201
21
68.1519
0
LINE
8
DEFAULT_255_1_388
10
4.7166201
20
68.1519
11
4.5440393
21
68.1519
0
LINE
8
DEFAULT_255_1_388
10
4.5440393
20
68.1519
11
4.5440393
21
69.3247267
0
LINE
8
DEFAULT_255_1_388
10
4.5440393
20
69.3247267
11
4.1220747
21
69.3247267
0
LINE
8
DEFAULT_255_1_388
10
4.1220747
20
69.3247267
11
4.1220747
21
69.4674898
0
LINE
8
DEFAULT_255_1_388
10
4.1220747
20
69.4674898
11
5.1394882
21
69.4674898
0
LINE
8
DEFAULT_255_1_388
10
4.827768
20
77.4049898
11
5.002156
21
77.4049898
0
LINE
8
DEFAULT_255_1_388
10
5.002156
20
77.4049898
11
5.002156
21
76.510461
0
LINE
8
DEFAULT_255_1_388
10
4.5702521
20
76.0731358
11
4.5241704
21
76.0713287
0
LINE
8
DEFAULT_255_1_388
10
4.049799
20
76.5086539
11
4.049799
21
77.4049898
0
LINE
8
DEFAULT_255_1_388
10
4.049799
20
77.4049898
11
4.2214763
21
77.4049898
0
LINE
8
DEFAULT_255_1_388
10
4.2214763
20
77.4049898
11
4.2214763
21
76.5140753
0
LINE
8
DEFAULT_255_1_388
10
4.827768
20
76.5131717
11
4.827768
21
77.4049898
0
ARC
8
DEFAULT_255_1_388
10
4.5124358
20
76.508227
40
0.4897252
50
343.0897723
51
0.2613727
0
ARC
8
DEFAULT_255_1_388
10
4.6056329
20
76.482227
40
0.3930016
50
315.3344451
51
342.7642569
0
ARC
8
DEFAULT_255_1_388
10
4.5804825
20
76.5083085
40
0.4292244
50
284.6605441
51
315.2183439
0
ARC
8
DEFAULT_255_1_388
10
4.5292605
20
76.6822508
40
0.6104926
50
273.8500371
51
285.1796441
0
ARC
8
DEFAULT_255_1_388
10
4.5193669
20
76.7206762
40
0.6493653
50
257.6315393
51
270.4238259
0
ARC
8
DEFAULT_255_1_388
10
4.4715753
20
76.5157915
40
0.4390079
50
230.6086859
51
257.9965362
0
ARC
8
DEFAULT_255_1_388
10
4.4569811
20
76.4928643
40
0.4120404
50
227.745033
51
230.1538266
0
ARC
8
DEFAULT_255_1_388
10
4.441634
20
76.4744253
40
0.3880742
50
189.2524335
51
227.5915299
0
ARC
8
DEFAULT_255_1_388
10
4.6128211
20
76.5112735
40
0.5630282
50
180.2665782
51
190.1525221
0
ARC
8
DEFAULT_255_1_388
10
4.6377939
20
76.5109254
40
0.4163296
50
179.566507
51
191.9954402
0
ARC
8
DEFAULT_255_1_388
10
4.4996628
20
76.4801151
40
0.274815
50
191.6974619
51
215.1403758
0
ARC
8
DEFAULT_255_1_388
10
4.472902
20
76.4641689
40
0.2437647
50
215.6958251
51
224.8509274
0
ARC
8
DEFAULT_255_1_388
10
4.4791496
20
76.4731016
40
0.2545012
50
225.2846515
51
255.0110023
0
ARC
8
DEFAULT_255_1_388
10
4.5155943
20
76.5984017
40
0.384974
50
254.5945979
51
267.9129427
0
ARC
8
DEFAULT_255_1_388
10
4.5239636
20
76.7201444
40
0.506956
50
267.4687563
51
270.0233681
0
ARC
8
DEFAULT_255_1_388
10
4.5273631
20
76.6541288
40
0.440952
50
269.5851384
51
281.1845308
0
ARC
8
DEFAULT_255_1_388
10
4.5587235
20
76.5019469
40
0.2855802
50
280.9345159
51
300.9740496
0
ARC
8
DEFAULT_255_1_388
10
4.5826415
20
76.4579128
40
0.2355257
50
301.4982546
51
315.1468616
0
ARC
8
DEFAULT_255_1_388
10
4.5663912
20
76.4712488
40
0.2564594
50
315.5952932
51
345.6679188
0
ARC
8
DEFAULT_255_1_388
10
4.4404469
20
76.5063235
40
0.3871766
50
345.2525685
51
358.6303941
0
ARC
8
DEFAULT_255_1_388
10
4.3260859
20
76.5130695
40
0.5016822
50
358.1723541
51
0.0116795
0
LINE
8
DEFAULT_255_1_388
10
6.1487792
20
77.0245892
11
5.9743913
21
77.0245892
0
LINE
8
DEFAULT_255_1_388
10
5.1955188
20
76.4707042
11
5.3699067
21
76.4707042
0
ARC
8
DEFAULT_255_1_388
10
6.048464
20
78.0309821
40
1.4087688
50
248.9196578
51
254.1442424
0
ARC
8
DEFAULT_255_1_388
10
5.859452
20
77.5443805
40
0.8867498
50
241.6337352
51
249.0064643
0
ARC
8
DEFAULT_255_1_388
10
5.6874833
20
77.2292764
40
0.5277799
50
230.4982261
51
241.8087583
0
ARC
8
DEFAULT_255_1_388
10
5.5992605
20
77.1168686
40
0.3849419
50
227.4062979
51
229.9877433
0
ARC
8
DEFAULT_255_1_388
10
5.5443951
20
77.0633155
40
0.3084129
50
200.6782127
51
228.1765252
0
ARC
8
DEFAULT_255_1_388
10
5.552532
20
77.0616277
40
0.315461
50
179.506278
51
199.8695278
0
ARC
8
DEFAULT_255_1_388
10
5.5514909
20
77.0699671
40
0.3144584
50
132.4834401
51
181.0242352
0
ARC
8
DEFAULT_255_1_388
10
5.6184113
20
77.0067788
40
0.4063094
50
129.2526113
51
133.4249077
0
ARC
8
DEFAULT_255_1_388
10
5.6349706
20
76.9819619
40
0.436014
50
101.9878945
51
128.8741833
0
ARC
8
DEFAULT_255_1_388
10
5.6798121
20
76.788336
40
0.6347415
50
89.5906376
51
102.3170567
0
ARC
8
DEFAULT_255_1_388
10
5.6877432
20
76.8241586
40
0.5989122
50
77.2359491
51
90.3248968
0
ARC
8
DEFAULT_255_1_388
10
5.7110363
20
76.9329554
40
0.4876594
50
63.8379856
51
77.0808925
0
ARC
8
DEFAULT_255_1_388
10
5.7422897
20
76.9911882
40
0.4216191
50
45.9863127
51
64.1608798
0
ARC
8
DEFAULT_255_1_388
10
5.7716291
20
77.024699
40
0.3771394
50
32.2747934
51
45.6544796
0
ARC
8
DEFAULT_255_1_388
10
5.7791097
20
77.0268426
40
0.3696765
50
359.6507495
51
32.6129943
0
ARC
8
DEFAULT_255_1_388
10
5.673028
20
77.0273788
40
0.3013762
50
359.469654
51
14.983205
0
ARC
8
DEFAULT_255_1_388
10
5.7523532
20
77.0486288
40
0.2192542
50
14.9781954
51
48.2004799
0
ARC
8
DEFAULT_255_1_388
10
5.7338643
20
77.0253937
40
0.2489048
50
48.5926661
51
74.1242559
0
ARC
8
DEFAULT_255_1_388
10
5.6963445
20
76.9015607
40
0.3782845
50
73.7889321
51
86.6653996
0
ARC
8
DEFAULT_255_1_388
10
5.684826
20
76.7657955
40
0.5145025
50
86.2642725
51
90.0533288
0
ARC
8
DEFAULT_255_1_388
10
5.6816353
20
76.8102376
40
0.4700681
50
89.669455
51
99.2313411
0
ARC
8
DEFAULT_255_1_388
10
5.6543512
20
76.9727401
40
0.3052945
50
99.0695987
51
113.7659242
0
ARC
8
DEFAULT_255_1_388
10
5.6235507
20
77.0453772
40
0.226407
50
114.0402885
51
127.9848946
0
ARC
8
DEFAULT_255_1_388
10
5.5964983
20
77.0786884
40
0.1835045
50
127.7287217
51
176.7106493
0
ARC
8
DEFAULT_255_1_388
10
5.6728648
20
77.067321
40
0.2604907
50
175.1780759
51
180.0581213
0
ARC
8
DEFAULT_255_1_388
10
5.5779992
20
77.0659411
40
0.1656287
50
179.6140658
51
228.124674
0
ARC
8
DEFAULT_255_1_388
10
5.6277349
20
77.111994
40
0.2332038
50
226.5785315
51
230.8792476
0
ARC
8
DEFAULT_255_1_388
10
5.6806836
20
77.1822908
40
0.3211664
50
231.4636401
51
241.9261664
0
ARC
8
DEFAULT_255_1_388
10
5.8153619
20
77.4301349
40
0.6032345
50
241.7177136
51
248.3259138
0
ARC
8
DEFAULT_255_1_388
10
5.9712214
20
77.8162771
40
1.0196417
50
248.2007377
51
252.4527713
0
ARC
8
DEFAULT_255_1_388
10
6.106574
20
78.2347092
40
1.4594143
50
252.3388938
51
254.347037
0
ARC
8
DEFAULT_255_1_388
10
5.2581041
20
75.1999095
40
1.6917621
50
71.0197462
51
74.4085467
0
ARC
8
DEFAULT_255_1_388
10
5.4488129
20
75.7504144
40
1.1091618
50
66.1845203
51
71.086519
0
ARC
8
DEFAULT_255_1_388
10
5.6238678
20
76.1445439
40
0.6779073
50
59.3537334
51
66.269255
0
ARC
8
DEFAULT_255_1_388
10
5.7238404
20
76.3136777
40
0.4814366
50
49.1021732
51
59.3294421
0
ARC
8
DEFAULT_255_1_388
10
5.8159392
20
76.4186575
40
0.3417875
50
32.7924183
51
49.2503526
0
ARC
8
DEFAULT_255_1_388
10
5.8509006
20
76.4436311
40
0.2988789
50
31.121225
51
32.3977355
0
ARC
8
DEFAULT_255_1_388
10
5.8421184
20
76.4403728
40
0.3080861
50
8.1116803
51
30.7958224
0
ARC
8
DEFAULT_255_1_388
10
5.750953
20
76.4248437
40
0.4005385
50
359.8390945
51
8.4707348
0
ARC
8
DEFAULT_255_1_388
10
5.8213578
20
76.4193751
40
0.3301608
50
337.4732479
51
0.7538283
0
ARC
8
DEFAULT_255_1_388
10
5.8414603
20
76.4171554
40
0.3107929
50
307.5917028
51
336.4313755
0
ARC
8
DEFAULT_255_1_388
10
5.790366
20
76.4739509
40
0.3870096
50
307.6560665
51
308.4561779
0
ARC
8
DEFAULT_255_1_388
10
5.7637877
20
76.5147832
40
0.435591
50
284.3733666
51
307.1426212
0
ARC
8
DEFAULT_255_1_388
10
5.7080771
20
76.7197391
40
0.6479685
50
272.4384566
51
284.6464689
0
ARC
8
DEFAULT_255_1_388
10
5.6938156
20
76.9221434
40
0.8508149
50
269.9708517
51
272.8180721
0
ARC
8
DEFAULT_255_1_388
10
5.6889839
20
76.6929283
40
0.6216151
50
248.2707343
51
270.4054609
0
ARC
8
DEFAULT_255_1_388
10
5.682871
20
76.6714673
40
0.5994203
50
246.1380358
51
248.054058
0
ARC
8
DEFAULT_255_1_388
10
5.6357853
20
76.5725705
40
0.4899388
50
233.1671897
51
246.4951656
0
ARC
8
DEFAULT_255_1_388
10
5.5734488
20
76.4884137
40
0.3852115
50
215.3403381
51
233.084328
0
ARC
8
DEFAULT_255_1_388
10
5.5427852
20
76.4661093
40
0.3472969
50
179.2419235
51
215.2648426
0
ARC
8
DEFAULT_255_1_388
10
5.6291403
20
76.4676979
40
0.259251
50
179.3355796
51
199.1045873
0
ARC
8
DEFAULT_255_1_388
10
5.5917545
20
76.4579223
40
0.2207454
50
199.8830064
51
232.7061328
0
ARC
8
DEFAULT_255_1_388
10
5.6448819
20
76.5247456
40
0.306101
50
232.3736206
51
255.5136621
0
ARC
8
DEFAULT_255_1_388
10
5.6832325
20
76.6647177
40
0.4512213
50
255.2447928
51
267.5318292
0
ARC
8
DEFAULT_255_1_388
10
5.6930792
20
76.8033709
40
0.5901825
50
267.1564563
51
270.0294721
0
ARC
8
DEFAULT_255_1_388
10
5.6962117
20
76.7534623
40
0.5402814
50
269.6999944
51
278.1662446
0
ARC
8
DEFAULT_255_1_388
10
5.7250145
20
76.5587974
40
0.3435003
50
278.0229022
51
290.6255326
0
ARC
8
DEFAULT_255_1_388
10
5.7641311
20
76.4544547
40
0.2320666
50
290.6616368
51
307.0374127
0
ARC
8
DEFAULT_255_1_388
10
5.7979211
20
76.413004
40
0.1786372
50
306.3942078
51
355.303191
0
ARC
8
DEFAULT_255_1_388
10
5.7403504
20
76.4216186
40
0.2367516
50
354.3662092
51
0.0709489
0
ARC
8
DEFAULT_255_1_388
10
5.7563373
20
76.4241561
40
0.2207761
50
359.4175379
51
16.1975911
0
ARC
8
DEFAULT_255_1_388
10
5.8075491
20
76.4381954
40
0.1676828
50
16.4721294
51
52.6261798
0
ARC
8
DEFAULT_255_1_388
10
5.7151998
20
76.3162606
40
0.3206412
50
52.7381828
51
62.4979144
0
ARC
8
DEFAULT_255_1_388
10
5.5593751
20
76.0230236
40
0.6527035
50
62.2517425
51
68.1219454
0
ARC
8
DEFAULT_255_1_388
10
5.3659239
20
75.5475951
40
1.1659797
50
68.006043
51
71.8055127
0
ARC
8
DEFAULT_255_1_388
10
5.1639147
20
74.9417723
40
1.8045908
50
71.718361
51
73.9260743
0
LINE
8
DEFAULT_255_1_388
10
6.8300668
20
76.0894
11
6.3737668
21
76.0894
0
LINE
8
DEFAULT_255_1_388
10
6.3737668
20
76.0894
11
6.3737668
21
77.4049898
0
LINE
8
DEFAULT_255_1_388
10
6.3737668
20
77.4049898
11
6.8038635
21
77.4049898
0
LINE
8
DEFAULT_255_1_388
10
6.8363918
20
76.7047274
11
6.5472512
21
76.7047274
0
LINE
8
DEFAULT_255_1_388
10
6.5472512
20
76.7047274
11
6.5472512
21
76.2312596
0
LINE
8
DEFAULT_255_1_388
10
6.5472512
20
76.2312596
11
6.8336811
21
76.2312596
0
LINE
8
DEFAULT_255_1_388
10
6.5472512
20
77.2622267
11
6.5472512
21
76.8438763
0
LINE
8
DEFAULT_255_1_388
10
6.5472512
20
76.8438763
11
6.8092849
21
76.8438763
0
LINE
8
DEFAULT_255_1_388
10
6.8038635
20
77.2622267
11
6.5472512
21
77.2622267
0
ARC
8
DEFAULT_255_1_388
10
6.8081055
20
76.5761824
40
0.8288183
50
82.1256322
51
90.2932506
0
ARC
8
DEFAULT_255_1_388
10
6.851863
20
76.881959
40
0.5199321
50
69.9044202
51
82.2857574
0
ARC
8
DEFAULT_255_1_388
10
6.9160623
20
77.0554993
40
0.3348993
50
51.1840204
51
70.018125
0
ARC
8
DEFAULT_255_1_388
10
6.9447455
20
77.0971945
40
0.2844579
50
12.1018086
51
50.421322
0
ARC
8
DEFAULT_255_1_388
10
6.7890326
20
77.0580937
40
0.4449429
50
359.5252354
51
12.8212369
0
ARC
8
DEFAULT_255_1_388
10
6.9667756
20
77.0502943
40
0.2672162
50
323.4907456
51
0.8818258
0
ARC
8
DEFAULT_255_1_388
10
6.9197169
20
77.0866523
40
0.3266736
50
298.6824053
51
323.2758285
0
ARC
8
DEFAULT_255_1_388
10
6.8790461
20
77.1542509
40
0.4055105
50
293.1994739
51
299.139634
0
ARC
8
DEFAULT_255_1_388
10
6.954741
20
76.4696651
40
0.3229926
50
54.0009997
51
74.9168635
0
ARC
8
DEFAULT_255_1_388
10
6.9678337
20
76.4918511
40
0.2973581
50
36.3578854
51
53.5293172
0
ARC
8
DEFAULT_255_1_388
10
6.9535705
20
76.481685
40
0.3148715
50
4.8189348
51
36.3090187
0
ARC
8
DEFAULT_255_1_388
10
6.8658729
20
76.4693383
40
0.4033265
50
359.9373213
51
5.5201284
0
ARC
8
DEFAULT_255_1_388
10
6.8294059
20
76.4647733
40
0.4398126
50
344.7479357
51
0.5372278
0
ARC
8
DEFAULT_255_1_388
10
6.9408958
20
76.4347205
40
0.3243441
50
311.1785587
51
344.6887681
0
ARC
8
DEFAULT_255_1_388
10
6.9080501
20
76.4756084
40
0.3767511
50
286.0417804
51
310.8440924
0
ARC
8
DEFAULT_255_1_388
10
6.850991
20
76.6608885
40
0.5705957
50
274.1044074
51
286.4070149
0
ARC
8
DEFAULT_255_1_388
10
6.8311126
20
76.8726901
40
0.7832907
50
269.9235077
51
274.4458593
0
ARC
8
DEFAULT_255_1_388
10
6.8362844
20
76.6095462
40
0.3782955
50
269.6057074
51
281.3740795
0
ARC
8
DEFAULT_255_1_388
10
6.8622342
20
76.4865569
40
0.2526069
50
281.105298
51
302.5134029
0
ARC
8
DEFAULT_255_1_388
10
6.878773
20
76.4568944
40
0.2187131
50
303.0365425
51
311.8818034
0
ARC
8
DEFAULT_255_1_388
10
6.8867907
20
76.4473602
40
0.2062624
50
311.9916937
51
351.7143773
0
ARC
8
DEFAULT_255_1_388
10
6.7948932
20
76.4659271
40
0.2999202
50
350.7343295
51
0.2221526
0
ARC
8
DEFAULT_255_1_388
10
6.782802
20
76.472287
40
0.3120525
50
359.045729
51
17.2295312
0
ARC
8
DEFAULT_255_1_388
10
6.899705
20
76.5070155
40
0.1901144
50
17.6685208
51
78.9940245
0
ARC
8
DEFAULT_255_1_388
10
6.8415411
20
76.2982011
40
0.4065575
50
76.565218
51
90.7103392
0
LINE
8
DEFAULT_255_1_388
10
6.8365008
20
76.7047274
11
6.8363918
21
76.7047274
0
ARC
8
DEFAULT_255_1_388
10
6.8118237
20
77.2134949
40
0.3696273
50
269.6064514
51
281.4533785
0
ARC
8
DEFAULT_255_1_388
10
6.8368878
20
77.0952283
40
0.2487412
50
281.2044438
51
302.5143998
0
ARC
8
DEFAULT_255_1_388
10
6.8523132
20
77.0674576
40
0.2170405
50
303.0211308
51
309.8378766
0
ARC
8
DEFAULT_255_1_388
10
6.8729249
20
77.0443486
40
0.1860946
50
309.5229446
51
356.9509628
0
ARC
8
DEFAULT_255_1_388
10
6.7983375
20
77.0550831
40
0.2612347
50
355.4699226
51
0.0498632
0
ARC
8
DEFAULT_255_1_388
10
6.7669049
20
77.0575789
40
0.2926762
50
359.5558955
51
11.2092924
0
ARC
8
DEFAULT_255_1_388
10
6.8746016
20
77.0798667
40
0.1827036
50
10.9185717
51
31.322519
0
ARC
8
DEFAULT_255_1_388
10
6.9067564
20
77.0977571
40
0.1459418
50
31.8850633
51
52.1415586
0
ARC
8
DEFAULT_255_1_388
10
6.8758993
20
77.0541674
40
0.1993088
50
52.8283418
51
71.9850132
0
ARC
8
DEFAULT_255_1_388
10
6.8336154
20
76.9297158
40
0.3307407
50
71.686634
51
82.8453416
0
ARC
8
DEFAULT_255_1_388
10
6.8066801
20
76.7261892
40
0.536039
50
82.6981895
51
90.1730083
0
ARC
8
DEFAULT_255_1_388
10
6.8041633
20
76.8140836
40
0.4481429
50
89.8851568
51
90.0383283
0
LINE
8
DEFAULT_255_1_388
10
23.1203856
20
84.804869
11
23.1203856
21
84.5880135
0
LINE
8
DEFAULT_255_1_388
10
22.2900099
20
84.5654244
11
22.2900099
21
84.7886048
0
LINE
8
DEFAULT_255_1_388
10
22.9532262
20
84.5428353
11
22.9532262
21
84.8166153
0
LINE
8
DEFAULT_255_1_388
10
22.4571693
20
84.8292652
11
22.4571693
21
84.5618102
0
ARC
8
DEFAULT_255_1_388
10
21.742619
20
84.5825118
40
1.3777776
50
353.8440855
51
0.2287917
0
ARC
8
DEFAULT_255_1_388
10
22.2645208
20
84.5242414
40
0.852639
50
344.4934746
51
353.9763743
0
ARC
8
DEFAULT_255_1_388
10
22.6012015
20
84.4285191
40
0.5026273
50
329.2803599
51
344.7473406
0
ARC
8
DEFAULT_255_1_388
10
22.7127511
20
84.3673038
40
0.3754848
50
324.9361395
51
328.6153007
0
ARC
8
DEFAULT_255_1_388
10
22.7553161
20
84.3375586
40
0.3235566
50
280.5801797
51
324.9173226
0
ARC
8
DEFAULT_255_1_388
10
22.7101789
20
84.5255236
40
0.5167077
50
269.5979457
51
281.6732777
0
ARC
8
DEFAULT_255_1_388
10
22.7020693
20
84.5120113
40
0.5032026
50
256.6228565
51
270.5105488
0
ARC
8
DEFAULT_255_1_388
10
22.6568435
20
84.3378345
40
0.3233092
50
215.8618351
51
257.2787793
0
ARC
8
DEFAULT_255_1_388
10
22.7717142
20
84.4149106
40
0.4615831
50
197.9695203
51
215.2622745
0
ARC
8
DEFAULT_255_1_388
10
23.0512818
20
84.5092641
40
0.7566307
50
187.8816486
51
198.2346584
0
ARC
8
DEFAULT_255_1_388
10
23.4966056
20
84.5735453
40
1.2065653
50
180.8977266
51
188.0054894
0
ARC
8
DEFAULT_255_1_388
10
23.801627
20
84.58504
40
1.5117443
50
180.7434591
51
181.152202
0
ARC
8
DEFAULT_255_1_388
10
23.6341266
20
84.7940371
40
1.3441277
50
173.7674302
51
180.2315596
0
ARC
8
DEFAULT_255_1_388
10
23.1259135
20
84.8514779
40
0.8326847
50
164.3058537
51
173.9000553
0
ARC
8
DEFAULT_255_1_388
10
22.7983135
20
84.9458652
40
0.4917711
50
148.7922028
51
164.5682288
0
ARC
8
DEFAULT_255_1_388
10
22.6913872
20
85.0055457
40
0.3694204
50
144.5883979
51
148.1161588
0
ARC
8
DEFAULT_255_1_388
10
22.6526618
20
85.0325667
40
0.322202
50
101.6440149
51
144.5142619
0
ARC
8
DEFAULT_255_1_388
10
22.700481
20
84.8425337
40
0.5180451
50
89.528284
51
102.5820197
0
ARC
8
DEFAULT_255_1_388
10
22.7093802
20
84.8381376
40
0.5224441
50
77.0437914
51
90.508231
0
ARC
8
DEFAULT_255_1_388
10
22.7546055
20
85.0229272
40
0.3322297
50
48.2777708
51
77.4996087
0
ARC
8
DEFAULT_255_1_388
10
22.7627795
20
85.0374557
40
0.315966
50
36.3141586
51
47.6307332
0
ARC
8
DEFAULT_255_1_388
10
22.6650518
20
84.9716159
40
0.4337313
50
18.2931065
51
35.6770203
0
ARC
8
DEFAULT_255_1_388
10
22.3789358
20
84.8734107
40
0.7362203
50
8.0246996
51
18.5605636
0
ARC
8
DEFAULT_255_1_388
10
21.9105714
20
84.8042432
40
1.2096583
50
1.127539
51
8.1718423
0
ARC
8
DEFAULT_255_1_388
10
21.5456847
20
84.7899374
40
1.5747719
50
0.5432713
51
1.38669
0
ARC
8
DEFAULT_255_1_388
10
21.7514226
20
84.8206163
40
1.2018103
50
359.8092569
51
4.9408001
0
ARC
8
DEFAULT_255_1_388
10
22.2250807
20
84.86289
40
0.7262727
50
4.8364937
51
12.2906017
0
ARC
8
DEFAULT_255_1_388
10
22.5350272
20
84.9319485
40
0.4087324
50
12.0806994
51
23.8171225
0
ARC
8
DEFAULT_255_1_388
10
22.6670668
20
84.9878508
40
0.2653719
50
24.2874621
51
31.3934353
0
ARC
8
DEFAULT_255_1_388
10
22.7261104
20
85.0264822
40
0.1948607
50
30.7407708
51
82.4658033
0
ARC
8
DEFAULT_255_1_388
10
22.7058765
20
84.9271017
40
0.2961198
50
81.1057101
51
90.2187368
0
ARC
8
DEFAULT_255_1_388
10
22.7018577
20
84.9561421
40
0.2670929
50
89.380395
51
105.6763916
0
ARC
8
DEFAULT_255_1_388
10
22.6812299
20
85.031132
40
0.1893189
50
105.7980655
51
149.7387869
0
ARC
8
DEFAULT_255_1_388
10
22.8009439
20
84.9591719
40
0.3289892
50
149.4208441
51
163.628295
0
ARC
8
DEFAULT_255_1_388
10
23.0361668
20
84.8874345
40
0.5749004
50
163.3764549
51
172.141138
0
ARC
8
DEFAULT_255_1_388
10
23.407439
20
84.8342582
40
0.9499585
50
172.0258462
51
178.0705453
0
ARC
8
DEFAULT_255_1_388
10
23.7495943
20
84.8180682
40
1.2924734
50
177.8639301
51
179.5036263
0
ARC
8
DEFAULT_255_1_388
10
23.6276961
20
84.5577151
40
1.170534
50
179.7995545
51
185.246089
0
ARC
8
DEFAULT_255_1_388
10
23.1728554
20
84.5146404
40
0.7136613
50
185.1411911
51
193.0082205
0
ARC
8
DEFAULT_255_1_388
10
22.8754815
20
84.4443441
40
0.4080987
50
192.7897338
51
205.2507384
0
ARC
8
DEFAULT_255_1_388
10
22.7577025
20
84.3917538
40
0.2791522
50
205.8001921
51
211.2545876
0
ARC
8
DEFAULT_255_1_388
10
22.6988564
20
84.3523132
40
0.2084074
50
210.3789935
51
238.4007996
0
ARC
8
DEFAULT_255_1_388
10
22.696665
20
84.3575786
40
0.2117943
50
239.6521916
51
265.9793852
0
ARC
8
DEFAULT_255_1_388
10
22.7062499
20
84.4332358
40
0.2879689
50
265.1324455
51
270.0603288
0
ARC
8
DEFAULT_255_1_388
10
22.7094876
20
84.3967418
40
0.2514919
50
269.3314378
51
287.2180039
0
ARC
8
DEFAULT_255_1_388
10
22.7249958
20
84.3401291
40
0.1928357
50
287.7957942
51
329.0808983
0
ARC
8
DEFAULT_255_1_388
10
22.6172715
20
84.4073651
40
0.319808
50
328.6635261
51
343.3325043
0
ARC
8
DEFAULT_255_1_388
10
22.3728174
20
84.4835195
40
0.5758408
50
343.0498092
51
351.9392499
0
ARC
8
DEFAULT_255_1_388
10
21.9827496
20
84.5410205
40
0.9701202
50
351.8071632
51
357.7957897
0
ARC
8
DEFAULT_255_1_388
10
21.6192973
20
84.5598724
40
1.3340376
50
357.5870923
51
359.2682493
0
LINE
8
DEFAULT_255_1_388
10
23.4393439
20
85.3424898
11
23.8134196
21
84.2573089
0
LINE
8
DEFAULT_255_1_388
10
23.8134196
20
84.2573089
11
24.1893024
21
85.3424898
0
LINE
8
DEFAULT_255_1_388
10
24.1893024
20
85.3424898
11
24.3790509
21
85.3424898
0
LINE
8
DEFAULT_255_1_388
10
24.3790509
20
85.3424898
11
23.8911261
21
84.0269
0
LINE
8
DEFAULT_255_1_388
10
23.8911261
20
84.0269
11
23.7375202
21
84.0269
0
LINE
8
DEFAULT_255_1_388
10
23.7375202
20
84.0269
11
23.2504989
21
85.3424898
0
LINE
8
DEFAULT_255_1_388
10
23.2504989
20
85.3424898
11
23.4393439
21
85.3424898
0
ENDSEC
0
EOF