0
SECTION
2
HEADER
9
$MEASUREMENT
70
1
0
ENDSEC
0
SECTION
2
TABLES
0
TABLE
2
LTYPE
0
LTYPE
72
65
70
64
2
CONTINUOUS
3
______
73
0
40
0
0
ENDTAB
0
TABLE
2
LAYER
0
LAYER
2
DEFAULT_255_2_778
70
0
62
255
6
CONTINUOUS
0
LAYER
2
DEFAULT_255_1_388
70
0
62
255
6
CONTINUOUS
0
LAYER
2
DEFAULT_255_2_778_1
70
0
62
255
6
CONTINUOUS
0
ENDTAB
0
ENDSEC
0
SECTION
2
ENTITIES
0
ARC
8
DEFAULT_255_2_778
10
3.5700693
20
83.7426529
40
0.7914215
50
129.1312896
51
180.1450914
0
ARC
8
DEFAULT_255_2_778
10
3.5703345
20
83.74314
40
0.7912112
50
89.854026
51
129.1684493
0
ARC
8
DEFAULT_255_2_778
10
25.7993937
20
83.7428266
40
0.7915249
50
39.4792447
51
90.147911
0
ARC
8
DEFAULT_255_2_778
10
25.7999935
20
83.7426732
40
0.7911595
50
359.8533901
51
39.5154338
0
ARC
8
DEFAULT_255_2_778
10
25.7996693
20
-1.9863993
40
0.7914836
50
309.4761667
51
0.1482649
0
ARC
8
DEFAULT_255_2_778
10
25.799398
20
-1.9868304
40
0.7913235
50
269.8517415
51
309.511178
0
ARC
8
DEFAULT_255_2_778
10
3.570342
20
-1.9867723
40
0.7913815
50
219.1282118
51
270.1454017
0
ARC
8
DEFAULT_255_2_778
10
3.5700247
20
-1.9863898
40
0.7913769
50
179.8524075
51
219.1641908
0
LINE
8
DEFAULT_255_2_778
10
3.5723503
20
84.5343488
11
25.7973503
21
84.5343488
0
LINE
8
DEFAULT_255_2_778
10
26.5911503
20
83.7406488
11
26.5911503
21
-1.9843512
0
LINE
8
DEFAULT_255_2_778
10
25.7973503
20
-2.7781512
11
3.5723503
21
-2.7781512
0
LINE
8
DEFAULT_255_2_778
10
2.7786503
20
-1.9843512
11
2.7786503
21
83.7406488
0
LINE
8
DEFAULT_255_1_388
10
9.9119094
20
-0.1247683
11
9.6019868
21
-0.1247683
0
LINE
8
DEFAULT_255_1_388
10
9.6019868
20
-0.1247683
11
9.6019868
21
-0.6398
0
LINE
8
DEFAULT_255_1_388
10
9.6019868
20
-0.6398
11
9.4285024
21
-0.6398
0
LINE
8
DEFAULT_255_1_388
10
9.4285024
20
-0.6398
11
9.4285024
21
0.6757898
0
LINE
8
DEFAULT_255_1_388
10
9.4285024
20
0.6757898
11
9.9137165
21
0.6757898
0
LINE
8
DEFAULT_255_1_388
10
9.6019868
20
0.5330267
11
9.6019868
21
0.0170914
0
LINE
8
DEFAULT_255_1_388
10
9.6019868
20
0.0170914
11
9.9137165
21
0.0170914
0
LINE
8
DEFAULT_255_1_388
10
9.9236557
20
0.5330267
11
9.6019868
21
0.5330267
0
ARC
8
DEFAULT_255_1_388
10
9.9184538
20
-0.0058666
40
0.6816729
50
78.8380084
51
90.398184
0
ARC
8
DEFAULT_255_1_388
10
9.9652569
20
0.2214796
40
0.449571
50
58.9633273
51
79.0810717
0
ARC
8
DEFAULT_255_1_388
10
9.9991953
20
0.2844823
40
0.3781049
50
48.0194715
51
58.4475592
0
ARC
8
DEFAULT_255_1_388
10
10.0091773
20
0.2940818
40
0.3642936
50
3.3374546
51
48.1766642
0
ARC
8
DEFAULT_255_1_388
10
9.870658
20
0.2741581
40
0.5038766
50
359.9483251
51
4.6822857
0
ARC
8
DEFAULT_255_1_388
10
9.8846503
20
0.2693779
40
0.4899031
50
346.1879032
51
0.5059221
0
ARC
8
DEFAULT_255_1_388
10
10.0375295
20
0.2296763
40
0.3319729
50
310.8832219
51
346.5426612
0
ARC
8
DEFAULT_255_1_388
10
10.0028143
20
0.2765853
40
0.3901853
50
286.6925305
51
310.228778
0
ARC
8
DEFAULT_255_1_388
10
9.9387873
20
0.4779585
40
0.6014737
50
274.6848219
51
287.0247342
0
ARC
8
DEFAULT_255_1_388
10
9.9134422
20
0.7264088
40
0.8511785
50
269.8968222
51
275.0192639
0
ARC
8
DEFAULT_255_1_388
10
9.9165415
20
0.4926144
40
0.4755314
50
269.6596206
51
279.4150542
0
ARC
8
DEFAULT_255_1_388
10
9.9454873
20
0.3248945
40
0.3053379
50
279.2050006
51
294.9901776
0
ARC
8
DEFAULT_255_1_388
10
9.9781508
20
0.2520353
40
0.2255036
50
295.2886769
51
311.2912669
0
ARC
8
DEFAULT_255_1_388
10
9.9861249
20
0.2401938
40
0.2113522
50
311.7853512
51
347.2860549
0
ARC
8
DEFAULT_255_1_388
10
9.875441
20
0.268643
40
0.3256011
50
346.6891629
51
0.1057086
0
ARC
8
DEFAULT_255_1_388
10
9.783187
20
0.2719247
40
0.417863
50
359.63239
51
359.9961329
0
ARC
8
DEFAULT_255_1_388
10
9.8996475
20
0.2746987
40
0.3014155
50
359.4673371
51
15.5931159
0
ARC
8
DEFAULT_255_1_388
10
9.9699538
20
0.2936937
40
0.2285918
50
15.7441779
51
46.620186
0
ARC
8
DEFAULT_255_1_388
10
9.9533298
20
0.2745361
40
0.2539359
50
46.8628482
51
75.6676625
0
ARC
8
DEFAULT_255_1_388
10
9.9202354
20
0.1554243
40
0.3775415
50
75.2763152
51
88.2916439
0
ARC
8
DEFAULT_255_1_388
10
9.9136354
20
0.0552097
40
0.4779221
50
87.8589087
51
88.7986197
0
LINE
8
DEFAULT_255_1_388
10
11.1019038
20
0.6821148
11
11.1019038
21
-0.6398
0
LINE
8
DEFAULT_255_1_388
10
11.1019038
20
-0.6398
11
10.9338408
21
-0.6398
0
LINE
8
DEFAULT_255_1_388
10
10.9338408
20
-0.6398
11
10.9338408
21
0.474295
0
LINE
8
DEFAULT_255_1_388
10
10.9338408
20
0.474295
11
10.5968112
21
0.3505066
0
LINE
8
DEFAULT_255_1_388
10
10.5968112
20
0.3505066
11
10.5968112
21
0.5023055
0
LINE
8
DEFAULT_255_1_388
10
10.5968112
20
0.5023055
11
11.0757004
21
0.6821148
0
LINE
8
DEFAULT_255_1_388
10
11.0757004
20
0.6821148
11
11.1019038
21
0.6821148
0
LINE
8
DEFAULT_255_1_388
10
11.9566757
20
-0.0127263
11
11.9566757
21
-0.1491645
0
LINE
8
DEFAULT_255_1_388
10
11.9566757
20
-0.1491645
11
11.5157363
21
-0.1491645
0
LINE
8
DEFAULT_255_1_388
10
11.5157363
20
-0.1491645
11
11.5157363
21
-0.0127263
0
LINE
8
DEFAULT_255_1_388
10
11.5157363
20
-0.0127263
11
11.9566757
21
-0.0127263
0
LINE
8
DEFAULT_255_1_388
10
12.927104
20
0.138169
11
12.927104
21
-0.0786865
0
LINE
8
DEFAULT_255_1_388
10
12.0967282
20
-0.1012756
11
12.0967282
21
0.1219048
0
LINE
8
DEFAULT_255_1_388
10
12.7599445
20
-0.1238647
11
12.7599445
21
0.1499153
0
LINE
8
DEFAULT_255_1_388
10
12.2638876
20
0.1625652
11
12.2638876
21
-0.1048898
0
ARC
8
DEFAULT_255_1_388
10
11.5493374
20
-0.0841882
40
1.3777776
50
353.8440855
51
0.2287917
0
ARC
8
DEFAULT_255_1_388
10
12.0712391
20
-0.1424586
40
0.852639
50
344.4934746
51
353.9763743
0
ARC
8
DEFAULT_255_1_388
10
12.4079198
20
-0.2381809
40
0.5026273
50
329.2803599
51
344.7473406
0
ARC
8
DEFAULT_255_1_388
10
12.5194694
20
-0.2993962
40
0.3754848
50
324.9361395
51
328.6153007
0
ARC
8
DEFAULT_255_1_388
10
12.5620344
20
-0.3291414
40
0.3235566
50
280.5801797
51
324.9173226
0
ARC
8
DEFAULT_255_1_388
10
12.5168972
20
-0.1411764
40
0.5167077
50
269.5979457
51
281.6732777
0
ARC
8
DEFAULT_255_1_388
10
12.5087876
20
-0.1546887
40
0.5032026
50
256.6228565
51
270.5105488
0
ARC
8
DEFAULT_255_1_388
10
12.4635619
20
-0.3288655
40
0.3233092
50
215.8618351
51
257.2787793
0
ARC
8
DEFAULT_255_1_388
10
12.5784326
20
-0.2517894
40
0.4615831
50
197.9695203
51
215.2622745
0
ARC
8
DEFAULT_255_1_388
10
12.8580001
20
-0.1574359
40
0.7566307
50
187.8816486
51
198.2346584
0
ARC
8
DEFAULT_255_1_388
10
13.3033239
20
-0.0931547
40
1.2065653
50
180.8977266
51
188.0054894
0
ARC
8
DEFAULT_255_1_388
10
13.6083453
20
-0.08166
40
1.5117443
50
180.7434591
51
181.152202
0
ARC
8
DEFAULT_255_1_388
10
13.4408449
20
0.1273371
40
1.3441277
50
173.7674302
51
180.2315596
0
ARC
8
DEFAULT_255_1_388
10
12.9326318
20
0.1847779
40
0.8326847
50
164.3058537
51
173.9000553
0
ARC
8
DEFAULT_255_1_388
10
12.6050318
20
0.2791652
40
0.4917711
50
148.7922028
51
164.5682288
0
ARC
8
DEFAULT_255_1_388
10
12.4981055
20
0.3388457
40
0.3694204
50
144.5883979
51
148.1161588
0
ARC
8
DEFAULT_255_1_388
10
12.4593801
20
0.3658667
40
0.322202
50
101.6440149
51
144.5142619
0
ARC
8
DEFAULT_255_1_388
10
12.5071993
20
0.1758337
40
0.5180451
50
89.528284
51
102.5820197
0
ARC
8
DEFAULT_255_1_388
10
12.5160985
20
0.1714376
40
0.5224441
50
77.0437914
51
90.508231
0
ARC
8
DEFAULT_255_1_388
10
12.5613239
20
0.3562272
40
0.3322297
50
48.2777708
51
77.4996087
0
ARC
8
DEFAULT_255_1_388
10
12.5694979
20
0.3707557
40
0.315966
50
36.3141586
51
47.6307332
0
ARC
8
DEFAULT_255_1_388
10
12.4717701
20
0.3049159
40
0.4337313
50
18.2931065
51
35.6770203
0
ARC
8
DEFAULT_255_1_388
10
12.1856542
20
0.2067107
40
0.7362203
50
8.0246996
51
18.5605636
0
ARC
8
DEFAULT_255_1_388
10
11.7172897
20
0.1375432
40
1.2096583
50
1.127539
51
8.1718423
0
ARC
8
DEFAULT_255_1_388
10
11.352403
20
0.1232374
40
1.5747719
50
0.5432713
51
1.38669
0
ARC
8
DEFAULT_255_1_388
10
11.5581409
20
0.1539163
40
1.2018103
50
359.8092569
51
4.9408001
0
ARC
8
DEFAULT_255_1_388
10
12.031799
20
0.19619
40
0.7262727
50
4.8364937
51
12.2906017
0
ARC
8
DEFAULT_255_1_388
10
12.3417455
20
0.2652485
40
0.4087324
50
12.0806994
51
23.8171225
0
ARC
8
DEFAULT_255_1_388
10
12.4737851
20
0.3211508
40
0.2653719
50
24.2874621
51
31.3934353
0
ARC
8
DEFAULT_255_1_388
10
12.5328287
20
0.3597822
40
0.1948607
50
30.7407708
51
82.4658033
0
ARC
8
DEFAULT_255_1_388
10
12.5125948
20
0.2604017
40
0.2961198
50
81.1057101
51
90.2187368
0
ARC
8
DEFAULT_255_1_388
10
12.508576
20
0.2894421
40
0.2670929
50
89.380395
51
105.6763916
0
ARC
8
DEFAULT_255_1_388
10
12.4879482
20
0.364432
40
0.1893189
50
105.7980655
51
149.7387869
0
ARC
8
DEFAULT_255_1_388
10
12.6076622
20
0.2924719
40
0.3289892
50
149.4208441
51
163.628295
0
ARC
8
DEFAULT_255_1_388
10
12.8428852
20
0.2207345
40
0.5749004
50
163.3764549
51
172.141138
0
ARC
8
DEFAULT_255_1_388
10
13.2141573
20
0.1675582
40
0.9499585
50
172.0258462
51
178.0705453
0
ARC
8
DEFAULT_255_1_388
10
13.5563126
20
0.1513682
40
1.2924734
50
177.8639301
51
179.5036263
0
ARC
8
DEFAULT_255_1_388
10
13.4344144
20
-0.1089849
40
1.170534
50
179.7995545
51
185.246089
0
ARC
8
DEFAULT_255_1_388
10
12.9795738
20
-0.1520596
40
0.7136613
50
185.1411911
51
193.0082205
0
ARC
8
DEFAULT_255_1_388
10
12.6821998
20
-0.2223559
40
0.4080987
50
192.7897338
51
205.2507384
0
ARC
8
DEFAULT_255_1_388
10
12.5644208
20
-0.2749462
40
0.2791522
50
205.8001921
51
211.2545876
0
ARC
8
DEFAULT_255_1_388
10
12.5055747
20
-0.3143868
40
0.2084074
50
210.3789935
51
238.4007996
0
ARC
8
DEFAULT_255_1_388
10
12.5033833
20
-0.3091214
40
0.2117943
50
239.6521916
51
265.9793852
0
ARC
8
DEFAULT_255_1_388
10
12.5129682
20
-0.2334642
40
0.2879689
50
265.1324455
51
270.0603288
0
ARC
8
DEFAULT_255_1_388
10
12.5162059
20
-0.2699582
40
0.2514919
50
269.3314378
51
287.2180039
0
ARC
8
DEFAULT_255_1_388
10
12.5317142
20
-0.3265709
40
0.1928357
50
287.7957942
51
329.0808983
0
ARC
8
DEFAULT_255_1_388
10
12.4239899
20
-0.2593349
40
0.319808
50
328.6635261
51
343.3325043
0
ARC
8
DEFAULT_255_1_388
10
12.1795357
20
-0.1831805
40
0.5758408
50
343.0498092
51
351.9392499
0
ARC
8
DEFAULT_255_1_388
10
11.7894679
20
-0.1256795
40
0.9701202
50
351.8071632
51
357.7957897
0
ARC
8
DEFAULT_255_1_388
10
11.4260156
20
-0.1068276
40
1.3340376
50
357.5870923
51
359.2682493
0
ARC
8
DEFAULT_255_1_388
10
13.6215992
20
0.329572
40
0.3175098
50
338.8762533
51
0.5167111
0
ARC
8
DEFAULT_255_1_388
10
13.6405586
20
0.32446
40
0.2979894
50
325.8415285
51
338.4793574
0
ARC
8
DEFAULT_255_1_388
10
13.596622
20
0.3549242
40
0.351452
50
296.7587686
51
325.7536481
0
ARC
8
DEFAULT_255_1_388
10
13.5637848
20
0.4103363
40
0.4157374
50
296.0927901
51
297.3613472
0
ARC
8
DEFAULT_255_1_388
10
13.5932043
20
-0.3279407
40
0.395855
50
47.9007294
51
67.1948823
0
ARC
8
DEFAULT_255_1_388
10
13.6152685
20
-0.3002401
40
0.360516
50
35.2363914
51
47.551141
0
ARC
8
DEFAULT_255_1_388
10
13.6447089
20
-0.2805907
40
0.3251343
50
359.2759765
51
35.4014143
0
ARC
8
DEFAULT_255_1_388
10
13.5609016
20
-0.2888213
40
0.4089365
50
343.1293083
51
0.5775513
0
ARC
8
DEFAULT_255_1_388
10
13.6424129
20
-0.3112664
40
0.3244269
50
310.8496669
51
342.7449331
0
ARC
8
DEFAULT_255_1_388
10
13.5954004
20
-0.2576087
40
0.3957651
50
281.5472888
51
310.9170406
0
ARC
8
DEFAULT_255_1_388
10
13.5552878
20
-0.0829186
40
0.5749654
50
269.619248
51
281.9789564
0
ARC
8
DEFAULT_255_1_388
10
13.5471656
20
-0.0828224
40
0.5750649
50
257.4585678
51
270.4285689
0
ARC
8
DEFAULT_255_1_388
10
13.5043176
20
-0.2632259
40
0.389671
50
228.7554326
51
257.8484789
0
ARC
8
DEFAULT_255_1_388
10
13.4694661
20
-0.3051772
40
0.335154
50
184.0104975
51
228.5071184
0
ARC
8
DEFAULT_255_1_388
10
13.6003054
20
-0.285257
40
0.4671891
50
179.9315832
51
185.3253753
0
ARC
8
DEFAULT_255_1_388
10
13.4679567
20
-0.2810408
40
0.33486
50
145.6796023
51
180.6259786
0
ARC
8
DEFAULT_255_1_388
10
13.4863332
20
-0.2938729
40
0.3572723
50
115.5537685
51
145.6415986
0
ARC
8
DEFAULT_255_1_388
10
13.5246376
20
-0.3624913
40
0.4357296
50
113.243307
51
116.2057839
0
ARC
8
DEFAULT_255_1_388
10
13.5075028
20
0.3572379
40
0.3549126
50
222.9549744
51
244.1370481
0
ARC
8
DEFAULT_255_1_388
10
13.4937671
20
0.3418378
40
0.3343711
50
213.3436887
51
222.6274467
0
ARC
8
DEFAULT_255_1_388
10
13.4721741
20
0.3271653
40
0.3082678
50
180.431584
51
213.271499
0
ARC
8
DEFAULT_255_1_388
10
13.535674
20
0.3324296
40
0.3718363
50
179.9991191
51
181.1690594
0
ARC
8
DEFAULT_255_1_388
10
13.5829196
20
0.3363072
40
0.4190996
50
164.6186169
51
180.529336
0
ARC
8
DEFAULT_255_1_388
10
13.4818844
20
0.363478
40
0.3144772
50
132.2455553
51
164.5090724
0
ARC
8
DEFAULT_255_1_388
10
13.5141823
20
0.326907
40
0.3632644
50
100.7053914
51
132.1386381
0
ARC
8
DEFAULT_255_1_388
10
13.5484884
20
0.1719118
40
0.5219578
50
89.6730358
51
101.2451698
0
ARC
8
DEFAULT_255_1_388
10
13.5554875
20
0.1915648
40
0.5023124
50
76.287748
51
90.4586006
0
ARC
8
DEFAULT_255_1_388
10
13.5899377
20
0.3290671
40
0.3605639
50
47.8240511
51
76.4266241
0
ARC
8
DEFAULT_255_1_388
10
13.6149761
20
0.3583599
40
0.3220463
50
6.9168387
51
47.6262497
0
ARC
8
DEFAULT_255_1_388
10
13.4815214
20
0.3337004
40
0.4575765
50
359.8415968
51
7.9697453
0
ARC
8
DEFAULT_255_1_388
10
13.5199484
20
-0.2783481
40
0.2827228
50
359.445363
51
16.9256873
0
ARC
8
DEFAULT_255_1_388
10
13.5726918
20
-0.2638219
40
0.2280396
50
17.2920767
51
45.4630727
0
ARC
8
DEFAULT_255_1_388
10
13.5666053
20
-0.2690676
40
0.2360485
50
45.30305
51
83.1920945
0
ARC
8
DEFAULT_255_1_388
10
13.5504798
20
-0.3592527
40
0.3275527
50
82.2612665
51
90.1434275
0
ARC
8
DEFAULT_255_1_388
10
13.5470074
20
-0.3330131
40
0.3013237
50
89.4956434
51
104.8580688
0
ARC
8
DEFAULT_255_1_388
10
13.5271264
20
-0.2576545
40
0.2233867
50
104.8856641
51
135.244616
0
ARC
8
DEFAULT_255_1_388
10
13.5327253
20
-0.2626648
40
0.2308906
50
135.3399546
51
172.1044062
0
ARC
8
DEFAULT_255_1_388
10
13.6234778
20
-0.2800333
40
0.3232034
50
171.2645637
51
180.186429
0
ARC
8
DEFAULT_255_1_388
10
13.6044782
20
-0.2836574
40
0.304213
50
179.5154935
51
193.6464289
0
ARC
8
DEFAULT_255_1_388
10
13.5126458
20
-0.3070527
40
0.209456
50
193.3540274
51
225.8258581
0
ARC
8
DEFAULT_255_1_388
10
13.517233
20
-0.2990924
40
0.2183738
50
226.4180634
51
255.8552336
0
ARC
8
DEFAULT_255_1_388
10
13.5460797
20
-0.1937479
40
0.3275812
50
255.4654104
51
268.7987425
0
ARC
8
DEFAULT_255_1_388
10
13.5513973
20
-0.0995455
40
0.4218877
50
268.3449238
51
270.0094605
0
ARC
8
DEFAULT_255_1_388
10
13.5540207
20
-0.1763906
40
0.3450519
50
269.5759586
51
282.0820163
0
ARC
8
DEFAULT_255_1_388
10
13.5793243
20
-0.2882637
40
0.2303642
50
281.752014
51
306.6056188
0
ARC
8
DEFAULT_255_1_388
10
13.5904051
20
-0.3064198
40
0.2091906
50
307.1346085
51
314.027845
0
ARC
8
DEFAULT_255_1_388
10
13.5863563
20
-0.3034541
40
0.2141385
50
314.2552483
51
350.1694025
0
ARC
8
DEFAULT_255_1_388
10
13.49058
20
-0.2826825
40
0.312082
50
349.4140529
51
0.2933014
0
ARC
8
DEFAULT_255_1_388
10
13.5491077
20
0.2976924
40
0.2588377
50
89.477747
51
105.729729
0
ARC
8
DEFAULT_255_1_388
10
13.5337997
20
0.3545367
40
0.1999733
50
105.9233417
51
135.1660906
0
ARC
8
DEFAULT_255_1_388
10
13.5361028
20
0.3529412
40
0.2027322
50
135.3052302
51
168.9883645
0
ARC
8
DEFAULT_255_1_388
10
13.6292044
20
0.3315996
40
0.2982129
50
168.3801673
51
180.3602268
0
ARC
8
DEFAULT_255_1_388
10
13.6035161
20
0.3273622
40
0.2725291
50
179.5033122
51
194.9125571
0
ARC
8
DEFAULT_255_1_388
10
13.5376568
20
0.3100427
40
0.204431
50
194.9720816
51
224.194444
0
ARC
8
DEFAULT_255_1_388
10
13.5344933
20
0.3074635
40
0.2003651
50
224.2962453
51
262.015664
0
ARC
8
DEFAULT_255_1_388
10
13.5504937
20
0.3897315
40
0.2840925
50
261.1245923
51
270.1962896
0
ARC
8
DEFAULT_255_1_388
10
13.5538419
20
0.3686859
40
0.2630559
50
269.4827276
51
285.0987215
0
ARC
8
DEFAULT_255_1_388
10
13.5711855
20
0.3036175
40
0.1957162
50
285.1585357
51
315.9484501
0
ARC
8
DEFAULT_255_1_388
10
13.5611728
20
0.3128315
40
0.2093195
50
316.0413965
51
351.916092
0
ARC
8
DEFAULT_255_1_388
10
13.4787103
20
0.3287323
40
0.2932279
50
351.105835
51
0.1939062
0
ARC
8
DEFAULT_255_1_388
10
13.5082737
20
0.3321224
40
0.2636739
50
359.4789618
51
16.0678224
0
ARC
8
DEFAULT_255_1_388
10
13.5618209
20
0.3465721
40
0.2082215
50
16.3252067
51
44.7913869
0
ARC
8
DEFAULT_255_1_388
10
13.5598271
20
0.346632
40
0.2095992
50
44.3957814
51
88.2499162
0
ARC
8
DEFAULT_255_1_388
10
13.5515605
20
0.2778006
40
0.2787189
50
86.9833854
51
90.0192215
0
LINE
8
DEFAULT_255_1_388
10
15.0757802
20
-0.6398
11
14.9501848
21
-0.2964455
0
LINE
8
DEFAULT_255_1_388
10
14.9501848
20
-0.2964455
11
14.3990104
21
-0.2964455
0
LINE
8
DEFAULT_255_1_388
10
14.3990104
20
-0.2964455
11
14.2752221
21
-0.6398
0
LINE
8
DEFAULT_255_1_388
10
14.2752221
20
-0.6398
11
14.0963164
21
-0.6398
0
LINE
8
DEFAULT_255_1_388
10
14.0963164
20
-0.6398
11
14.5986982
21
0.6757898
0
LINE
8
DEFAULT_255_1_388
10
14.5986982
20
0.6757898
11
14.750497
21
0.6757898
0
LINE
8
DEFAULT_255_1_388
10
14.750497
20
0.6757898
11
15.2537824
21
-0.6398
0
LINE
8
DEFAULT_255_1_388
10
15.2537824
20
-0.6398
11
15.0757802
21
-0.6398
0
LINE
8
DEFAULT_255_1_388
10
14.6745976
20
0.4616451
11
14.4514172
21
-0.1536823
0
LINE
8
DEFAULT_255_1_388
10
14.4514172
20
-0.1536823
11
14.8986816
21
-0.1536823
0
LINE
8
DEFAULT_255_1_388
10
14.8986816
20
-0.1536823
11
14.6745976
21
0.4616451
0
LINE
8
DEFAULT_255_1_388
10
15.7950175
20
-0.6398
11
15.4308811
21
-0.6398
0
LINE
8
DEFAULT_255_1_388
10
15.4308811
20
-0.6398
11
15.4308811
21
0.6757898
0
LINE
8
DEFAULT_255_1_388
10
15.4308811
20
0.6757898
11
15.802246
21
0.6757898
0
LINE
8
DEFAULT_255_1_388
10
16.3823344
20
0.0622696
11
16.3823344
21
-0.0217619
0
LINE
8
DEFAULT_255_1_388
10
15.8067639
20
0.5330267
11
15.6043654
21
0.5330267
0
LINE
8
DEFAULT_255_1_388
10
15.6043654
20
0.5330267
11
15.6043654
21
-0.4979404
0
LINE
8
DEFAULT_255_1_388
10
15.6043654
20
-0.4979404
11
15.7868854
21
-0.4979404
0
LINE
8
DEFAULT_255_1_388
10
16.2106572
20
-0.0181477
11
16.2106572
21
0.0586553
0
ARC
8
DEFAULT_255_1_388
10
15.8066255
20
0.0159436
40
0.6598608
50
75.4100343
51
90.3802731
0
ARC
8
DEFAULT_255_1_388
10
15.8324501
20
0.1235691
40
0.5492049
50
60.1455157
51
75.1889627
0
ARC
8
DEFAULT_255_1_388
10
15.8503092
20
0.1546914
40
0.5133226
50
26.525419
51
60.1451222
0
ARC
8
DEFAULT_255_1_388
10
15.7242878
20
0.0878642
40
0.6559324
50
7.4029944
51
26.832209
0
ARC
8
DEFAULT_255_1_388
10
15.5449276
20
0.0599229
40
0.8374103
50
0.1605597
51
7.7176135
0
ARC
8
DEFAULT_255_1_388
10
15.5633676
20
-0.0260679
40
0.8189782
50
348.7289744
51
0.30125
0
ARC
8
DEFAULT_255_1_388
10
15.749714
20
-0.0630844
40
0.628991
50
333.0706936
51
348.7181455
0
ARC
8
DEFAULT_255_1_388
10
15.8584768
20
-0.1221551
40
0.5052808
50
299.2531435
51
333.4571133
0
ARC
8
DEFAULT_255_1_388
10
15.8178799
20
-0.0450371
40
0.5924066
50
278.1072193
51
299.0340218
0
ARC
8
DEFAULT_255_1_388
10
15.7890848
20
0.1245979
40
0.7644209
50
270.4446841
51
278.4508355
0
ARC
8
DEFAULT_255_1_388
10
15.7914331
20
0.02003
40
0.5179903
50
269.4969684
51
284.0204874
0
ARC
8
DEFAULT_255_1_388
10
15.831405
20
-0.1335585
40
0.3592968
50
283.7699076
51
318.1557121
0
ARC
8
DEFAULT_255_1_388
10
15.7934595
20
-0.1051601
40
0.4065308
50
318.7417595
51
343.687252
0
ARC
8
DEFAULT_255_1_388
10
15.5905174
20
-0.0417725
40
0.6191194
50
343.3324891
51
355.8548594
0
ARC
8
DEFAULT_255_1_388
10
15.3544211
20
-0.0193281
40
0.856237
50
355.4988754
51
0.0789913
0
ARC
8
DEFAULT_255_1_388
10
15.442501
20
0.063408
40
0.7681709
50
359.6455047
51
9.8607559
0
ARC
8
DEFAULT_255_1_388
10
15.7080734
20
0.1113664
40
0.498312
50
9.6573037
51
26.1931522
0
ARC
8
DEFAULT_255_1_388
10
15.8124808
20
0.1598587
40
0.3832303
50
26.5777895
51
40.1533752
0
ARC
8
DEFAULT_255_1_388
10
15.8412473
20
0.182302
40
0.3467742
50
40.3839958
51
80.1430923
0
ARC
8
DEFAULT_255_1_388
10
15.8044729
20
0.0192486
40
0.5137832
50
79.2153636
51
89.7445174
0
LINE
8
DEFAULT_255_1_388
10
16.8187561
20
0.6757898
11
16.8187561
21
-0.4979404
0
LINE
8
DEFAULT_255_1_388
10
16.8187561
20
-0.4979404
11
17.4422155
21
-0.4979404
0
LINE
8
DEFAULT_255_1_388
10
17.4422155
20
-0.4979404
11
17.4422155
21
-0.6398
0
LINE
8
DEFAULT_255_1_388
10
17.4422155
20
-0.6398
11
16.6443681
21
-0.6398
0
LINE
8
DEFAULT_255_1_388
10
16.6443681
20
-0.6398
11
16.6443681
21
0.6757898
0
LINE
8
DEFAULT_255_1_388
10
16.6443681
20
0.6757898
11
16.8187561
21
0.6757898
0
LINE
8
DEFAULT_255_1_388
10
17.9617651
20
-0.0127263
11
17.9617651
21
-0.1491645
0
LINE
8
DEFAULT_255_1_388
10
17.9617651
20
-0.1491645
11
17.5208256
21
-0.1491645
0
LINE
8
DEFAULT_255_1_388
10
17.5208256
20
-0.1491645
11
17.5208256
21
-0.0127263
0
LINE
8
DEFAULT_255_1_388
10
17.5208256
20
-0.0127263
11
17.9617651
21
-0.0127263
0
LINE
8
DEFAULT_255_1_388
10
18.6566062
20
0.6821148
11
18.6566062
21
-0.6398
0
LINE
8
DEFAULT_255_1_388
10
18.6566062
20
-0.6398
11
18.4885432
21
-0.6398
0
LINE
8
DEFAULT_255_1_388
10
18.4885432
20
-0.6398
11
18.4885432
21
0.474295
0
LINE
8
DEFAULT_255_1_388
10
18.4885432
20
0.474295
11
18.1515136
21
0.3505066
0
LINE
8
DEFAULT_255_1_388
10
18.1515136
20
0.3505066
11
18.1515136
21
0.5023055
0
LINE
8
DEFAULT_255_1_388
10
18.1515136
20
0.5023055
11
18.6304028
21
0.6821148
0
LINE
8
DEFAULT_255_1_388
10
18.6304028
20
0.6821148
11
18.6566062
21
0.6821148
0
ARC
8
DEFAULT_255_2_778
10
8.509117
20
82.0683756
40
0.4373747
50
56.3665942
51
72.7074496
0
ARC
8
DEFAULT_255_2_778
10
8.5463845
20
82.1819358
40
0.3178747
50
73.036784
51
89.7973226
0
ARC
8
DEFAULT_255_2_778
10
8.5537306
20
82.159549
40
0.3403165
50
91.0475309
51
125.5485458
0
ARC
8
DEFAULT_255_2_778
10
8.7194697
20
81.9106905
40
0.6392287
50
124.6669492
51
139.114563
0
ARC
8
DEFAULT_255_2_778
10
8.9609112
20
81.6872799
40
0.9680575
50
138.4713305
51
142.1157612
0
ARC
8
DEFAULT_255_2_778
10
8.583458
20
81.7180121
40
0.5212765
50
117.7453356
51
135.8758074
0
ARC
8
DEFAULT_255_2_778
10
8.486317
20
81.9003596
40
0.3146729
50
90.4656379
51
117.5483702
0
ARC
8
DEFAULT_255_2_778
10
8.4802065
20
81.8850957
40
0.3299454
50
64.3679478
51
89.3829577
0
ARC
8
DEFAULT_255_2_778
10
8.4478855
20
81.8035224
40
0.4175182
50
64.8738747
51
65.2115951
0
LINE
8
DEFAULT_255_2_778
10
8.1968689
20
82.2817331
11
8.1968689
21
82.4577331
0
LINE
8
DEFAULT_255_2_778
10
8.1968689
20
82.4577331
11
7.8565689
21
82.4577331
0
LINE
8
DEFAULT_255_2_778
10
7.8565689
20
82.4577331
11
7.8565689
21
81.2390331
0
LINE
8
DEFAULT_255_2_778
10
7.8565689
20
81.2390331
11
8.2219689
21
81.2390331
0
LINE
8
DEFAULT_255_2_778
10
8.2219689
20
81.2390331
11
8.2092689
21
82.0809331
0
LINE
8
DEFAULT_255_2_778
10
8.6251689
20
82.1815331
11
8.7513689
21
82.4325331
0
LINE
8
DEFAULT_255_2_778
10
15.2045689
20
81.2387331
11
15.2045689
21
82.4701331
0
LINE
8
DEFAULT_255_2_778
10
15.2045689
20
82.4701331
11
15.5702689
21
82.4701331
0
LINE
8
DEFAULT_255_2_778
10
15.5702689
20
82.4701331
11
15.5702689
21
81.2387331
0
LINE
8
DEFAULT_255_2_778
10
15.5702689
20
81.2387331
11
15.2045689
21
81.2387331
0
ARC
8
DEFAULT_255_2_778
10
15.3896435
20
82.862866
40
0.1978332
50
90.7257917
51
180.9507563
0
ARC
8
DEFAULT_255_2_778
10
15.3846161
20
82.8629493
40
0.1977501
50
359.0247012
51
89.2694187
0
ARC
8
DEFAULT_255_2_778
10
15.3846161
20
82.8562174
40
0.1977501
50
270.7305813
51
0.9752988
0
ARC
8
DEFAULT_255_2_778
10
15.3896435
20
82.8563007
40
0.1978332
50
179.0492437
51
269.2742083
0
LINE
8
DEFAULT_255_2_778
10
15.1918375
20
82.8595833
11
15.1918375
21
82.8595833
0
LINE
8
DEFAULT_255_2_778
10
16.8978729
20
81.2354854
11
16.8978729
21
82.4668854
0
LINE
8
DEFAULT_255_2_778
10
16.8978729
20
82.4668854
11
17.2635729
21
82.4668854
0
LINE
8
DEFAULT_255_2_778
10
17.2635729
20
82.4668854
11
17.2635729
21
81.2354854
0
LINE
8
DEFAULT_255_2_778
10
17.2635729
20
81.2354854
11
16.8978729
21
81.2354854
0
ARC
8
DEFAULT_255_2_778
10
17.0829435
20
82.859666
40
0.1978332
50
90.7257917
51
180.9507563
0
ARC
8
DEFAULT_255_2_778
10
17.0779161
20
82.8597493
40
0.1977501
50
359.0247012
51
89.2694187
0
ARC
8
DEFAULT_255_2_778
10
17.0779161
20
82.8530174
40
0.1977501
50
270.7305813
51
0.9752988
0
ARC
8
DEFAULT_255_2_778
10
17.0829435
20
82.8531007
40
0.1978332
50
179.0492437
51
269.2742083
0
LINE
8
DEFAULT_255_2_778
10
16.8851375
20
82.8563833
11
16.8851375
21
82.8563833
0
ARC
8
DEFAULT_255_2_778
10
22.0788624
20
81.1179788
40
0.399929
50
186.2090497
51
214.6438559
0
ARC
8
DEFAULT_255_2_778
10
21.9921847
20
81.078124
40
0.3064065
50
217.727985
51
266.8306819
0
ARC
8
DEFAULT_255_2_778
10
22.0316252
20
81.2884571
40
0.5193404
50
263.7675625
51
266.8049274
0
ARC
8
DEFAULT_255_2_778
10
22.0082454
20
81.0946919
40
0.2399325
50
195.4006145
51
268.6707088
0
ARC
8
DEFAULT_255_2_778
10
22.2805996
20
81.220676
40
0.5382116
50
193.3258898
51
200.6383232
0
ARC
8
DEFAULT_255_2_778
10
22.0638429
20
81.06769
40
0.3083241
50
141.9083968
51
174.6152863
0
ARC
8
DEFAULT_255_2_778
10
22.0026746
20
81.0936305
40
0.2447935
50
89.9988769
51
137.8510912
0
ARC
8
DEFAULT_255_2_778
10
21.9982309
20
81.1113687
40
0.3117869
50
89.1824841
51
162.3459304
0
ARC
8
DEFAULT_255_2_778
10
22.258036
20
80.9794629
40
0.6011919
50
157.8713755
51
162.5920001
0
ARC
8
DEFAULT_255_2_778
10
13.7766756
20
81.6484305
40
0.434232
50
284.0737984
51
307.1283935
0
ARC
8
DEFAULT_255_2_778
10
13.6851625
20
81.985007
40
0.7829896
50
272.5675489
51
284.5802087
0
ARC
8
DEFAULT_255_2_778
10
13.6592437
20
82.3439017
40
1.1427274
50
269.9523961
51
273.0596894
0
ARC
8
DEFAULT_255_2_778
10
13.6631315
20
82.7255793
40
1.5244123
50
264.3721605
51
269.8181894
0
ARC
8
DEFAULT_255_2_778
10
13.7276162
20
83.3973534
40
2.1992727
50
260.3040359
51
264.4165702
0
ARC
8
DEFAULT_255_2_778
10
13.8169183
20
83.9497771
40
2.75885
50
259.2299789
51
260.4081406
0
ARC
8
DEFAULT_255_2_778
10
13.5378686
20
81.7993398
40
0.6077178
50
188.8927198
51
247.0988028
0
ARC
8
DEFAULT_255_2_778
10
13.8804177
20
81.8904831
40
0.9609548
50
185.1081288
51
191.1050073
0
ARC
8
DEFAULT_255_2_778
10
13.7482073
20
81.8179785
40
0.8250312
50
161.5072483
51
180.9066349
0
ARC
8
DEFAULT_255_2_778
10
13.4992734
20
81.8967242
40
0.5639907
50
120.4701872
51
161.0725957
0
ARC
8
DEFAULT_255_2_778
10
13.5849214
20
81.8299885
40
0.6661417
50
90.0499347
51
123.9108507
0
ARC
8
DEFAULT_255_2_778
10
13.5978311
20
81.6734595
40
0.8227812
50
89.9974966
51
90.9394619
0
ARC
8
DEFAULT_255_2_778
10
13.5918811
20
81.5124209
40
0.9838382
50
77.8335832
51
89.6513936
0
ARC
8
DEFAULT_255_2_778
10
13.5043967
20
81.0945168
40
1.4107957
50
69.8093959
51
77.9373312
0
ARC
8
DEFAULT_255_2_778
10
13.4008346
20
80.7927522
40
1.7297745
50
69.0266426
51
70.0397415
0
ARC
8
DEFAULT_255_2_778
10
13.559202
20
80.8146779
40
1.4359408
50
73.9178594
51
79.2452957
0
ARC
8
DEFAULT_255_2_778
10
13.6567017
20
81.3349721
40
0.9065925
50
79.1629935
51
86.6049203
0
ARC
8
DEFAULT_255_2_778
10
13.6747301
20
81.5862944
40
0.654651
50
86.8774046
51
89.9568351
0
ARC
8
DEFAULT_255_2_778
10
13.6672581
20
81.823564
40
0.4174572
50
88.9067133
51
108.0688095
0
ARC
8
DEFAULT_255_2_778
10
13.6100304
20
81.9973074
40
0.2345328
50
107.942404
51
152.2459688
0
ARC
8
DEFAULT_255_2_778
10
14.3241597
20
81.6670486
40
1.0210941
50
154.5072776
51
162.5682748
0
ARC
8
DEFAULT_255_2_778
10
13.952215
20
81.7817929
40
0.6318603
50
162.3915767
51
174.8213024
0
ARC
8
DEFAULT_255_2_778
10
13.787072
20
81.8006035
40
0.4657093
50
175.2922289
51
179.9490984
0
ARC
8
DEFAULT_255_2_778
10
13.6599161
20
81.7932143
40
0.338643
50
178.6796766
51
234.9381893
0
ARC
8
DEFAULT_255_2_778
10
13.6575594
20
81.8048791
40
0.3469445
50
236.3635337
51
264.9414885
0
ARC
8
DEFAULT_255_2_778
10
13.6836236
20
81.9803656
40
0.5241505
50
263.7947872
51
270.1188666
0
ARC
8
DEFAULT_255_2_778
10
13.6783507
20
82.2177527
40
0.7615633
50
270.4785196
51
281.0719661
0
ARC
8
DEFAULT_255_2_778
10
13.5940398
20
82.6716133
40
1.2231753
50
280.8649891
51
287.2606546
0
ARC
8
DEFAULT_255_2_778
10
14.6487772
20
83.5045389
40
2.2970478
50
276.5245429
51
279.5045514
0
ARC
8
DEFAULT_255_2_778
10
14.7141671
20
82.9269037
40
1.7157236
50
272.7759418
51
276.5469051
0
ARC
8
DEFAULT_255_2_778
10
14.7339562
20
82.5466464
40
1.3349546
50
270.0439674
51
272.7180028
0
ARC
8
DEFAULT_255_2_778
10
14.7253399
20
82.0784869
40
0.8668484
50
258.6359382
51
270.6372354
0
ARC
8
DEFAULT_255_2_778
10
14.6326818
20
81.6425616
40
0.4212409
50
235.5405817
51
259.3086539
0
ARC
8
DEFAULT_255_2_778
10
14.5715943
20
81.5352304
40
0.2983588
50
181.5929591
51
233.550276
0
ARC
8
DEFAULT_255_2_778
10
14.7698134
20
81.5651912
40
0.4979343
50
179.9387066
51
184.4062155
0
ARC
8
DEFAULT_255_2_778
10
14.863071
20
81.6611312
40
0.2330741
50
194.3604277
51
259.8152315
0
ARC
8
DEFAULT_255_2_778
10
14.9677954
20
82.026728
40
0.6126343
50
256.2189254
51
270.9017933
0
ARC
8
DEFAULT_255_2_778
10
14.9769331
20
82.3940407
40
0.9798713
50
270.0294871
51
272.2486365
0
LINE
8
DEFAULT_255_2_778
10
15.6204794
20
82.4637239
11
15.9670794
21
82.4637239
0
LINE
8
DEFAULT_255_2_778
10
15.9670794
20
82.4637239
11
16.2379794
21
81.7224239
0
LINE
8
DEFAULT_255_2_778
10
16.2379794
20
81.7224239
11
16.5088794
21
82.4698239
0
LINE
8
DEFAULT_255_2_778
10
16.5088794
20
82.4698239
11
16.8176794
21
82.4698239
0
LINE
8
DEFAULT_255_2_778
10
16.8176794
20
82.4698239
11
16.3133794
21
81.2196239
0
LINE
8
DEFAULT_255_2_778
10
16.3133794
20
81.2196239
11
16.0926794
21
81.2196239
0
LINE
8
DEFAULT_255_2_778
10
16.0926794
20
81.2196239
11
15.6204794
21
82.4637239
0
LINE
8
DEFAULT_255_2_778
10
19.3386794
20
81.8229239
11
19.3605794
21
81.7411239
0
LINE
8
DEFAULT_255_2_778
10
19.3605794
20
81.7411239
11
19.4960794
21
81.8134239
0
LINE
8
DEFAULT_255_2_778
10
19.4960794
20
81.8134239
11
19.4960794
21
81.1569239
0
LINE
8
DEFAULT_255_2_778
10
19.4960794
20
81.1569239
11
19.5968794
21
81.1569239
0
LINE
8
DEFAULT_255_2_778
10
19.5968794
20
81.1569239
11
19.5904794
21
81.9044239
0
LINE
8
DEFAULT_255_2_778
10
19.5904794
20
81.9044239
11
19.5023794
21
81.9044239
0
LINE
8
DEFAULT_255_2_778
10
19.5023794
20
81.9044239
11
19.3386794
21
81.8229239
0
LINE
8
DEFAULT_255_2_778
10
6.2430794
20
83.0921239
11
6.3250794
21
83.0921239
0
LINE
8
DEFAULT_255_2_778
10
6.3250794
20
83.0921239
11
6.3250794
21
81.1352239
0
LINE
8
DEFAULT_255_2_778
10
6.3250794
20
81.1352239
11
18.5318794
21
81.1321239
0
LINE
8
DEFAULT_255_2_778
10
18.5318794
20
81.1321239
11
18.5350794
21
81.0503239
0
LINE
8
DEFAULT_255_2_778
10
18.5350794
20
81.0503239
11
6.2430794
21
81.0503239
0
LINE
8
DEFAULT_255_2_778
10
6.2430794
20
81.0503239
11
6.2430794
21
83.0858239
0
LINE
8
DEFAULT_255_2_778
10
19.0753794
20
81.1625239
11
19.0753794
21
81.0747239
0
LINE
8
DEFAULT_255_2_778
10
19.0753794
20
81.0747239
11
21.6812794
21
81.0747239
0
LINE
8
DEFAULT_255_2_778
10
22.0026794
20
80.7699239
11
22.0026794
21
80.8548239
0
LINE
8
DEFAULT_255_2_778
10
22.0026794
20
81.3384239
11
22.0026794
21
81.4231239
0
LINE
8
DEFAULT_255_2_778
10
21.6843794
20
81.1593239
11
19.0816794
21
81.1593239
0
LINE
8
DEFAULT_255_2_778
10
13.9630794
20
81.5033239
11
14.0387794
21
81.3022239
0
LINE
8
DEFAULT_255_2_778
10
14.0199794
20
82.4079239
11
13.9569794
21
82.1944239
0
LINE
8
DEFAULT_255_2_778
10
14.2718794
20
81.5657239
11
14.2718794
21
82.2565239
0
LINE
8
DEFAULT_255_2_778
10
14.2718794
20
82.2565239
11
14.0826794
21
82.2565239
0
LINE
8
DEFAULT_255_2_778
10
14.0826794
20
82.2565239
11
14.0826794
21
82.4701239
0
LINE
8
DEFAULT_255_2_778
10
14.0826794
20
82.4701239
11
14.2718794
21
82.4701239
0
LINE
8
DEFAULT_255_2_778
10
14.2718794
20
82.4701239
11
14.4104794
21
82.9725239
0
LINE
8
DEFAULT_255_2_778
10
14.4104794
20
82.9725239
11
14.6247794
21
82.9725239
0
LINE
8
DEFAULT_255_2_778
10
14.6247794
20
82.9725239
11
14.6374794
21
82.4701239
0
LINE
8
DEFAULT_255_2_778
10
14.6374794
20
82.4701239
11
14.9777794
21
82.4701239
0
LINE
8
DEFAULT_255_2_778
10
14.9777794
20
82.4701239
11
14.9777794
21
82.2565239
0
LINE
8
DEFAULT_255_2_778
10
14.9777794
20
82.2565239
11
14.6372794
21
82.2565239
0
LINE
8
DEFAULT_255_2_778
10
14.6372794
20
82.2565239
11
14.6372794
21
81.6033239
0
LINE
8
DEFAULT_255_2_778
10
15.0153794
20
81.4149239
11
15.0280794
21
81.2390239
0
ARC
8
DEFAULT_255_2_778
10
18.3024027
20
81.0982006
40
0.5885618
50
314.1425413
51
331.9270918
0
ARC
8
DEFAULT_255_2_778
10
18.4398834
20
80.9580729
40
0.3922584
50
269.0322425
51
313.9868193
0
ARC
8
DEFAULT_255_2_778
10
18.4381885
20
81.1503771
40
0.5845273
50
255.6360648
51
269.5167247
0
ARC
8
DEFAULT_255_2_778
10
18.5134055
20
81.4538721
40
0.8971981
50
246.6811795
51
255.790956
0
ARC
8
DEFAULT_255_2_778
10
18.6382092
20
81.7569441
40
1.224929
50
243.4462224
51
246.9319367
0
ARC
8
DEFAULT_255_2_778
10
18.3621687
20
81.1864307
40
0.3648127
50
238.6960142
51
269.7522384
0
ARC
8
DEFAULT_255_2_778
10
18.3585706
20
81.2204979
40
0.3988816
50
270.2902271
51
286.0302682
0
ARC
8
DEFAULT_255_2_778
10
18.3439528
20
81.0421393
40
0.2399938
50
301.3239159
51
328.5484084
0
ARC
8
DEFAULT_255_2_778
10
17.8593662
20
81.3683932
40
0.8240117
50
326.7768178
51
337.3925755
0
ARC
8
DEFAULT_255_2_778
10
16.8007869
20
81.8270542
40
1.9776351
50
336.9149998
51
342.1307954
0
ARC
8
DEFAULT_255_2_778
10
18.1252835
20
81.6316636
40
0.1954042
50
190.120766
51
263.958695
0
ARC
8
DEFAULT_255_2_778
10
18.2014334
20
81.9342827
40
0.5062622
50
258.9866291
51
270.5697296
0
ARC
8
DEFAULT_255_2_778
10
18.204321
20
82.2517145
40
0.8236717
50
270.1493118
51
275.0745303
0
ARC
8
DEFAULT_255_2_778
10
18.1872931
20
82.4688127
40
1.0414275
50
274.9512067
51
276.4741818
0
ARC
8
DEFAULT_255_2_778
10
17.9114118
20
83.7250729
40
2.5197089
50
276.512457
51
279.4178429
0
ARC
8
DEFAULT_255_2_778
10
17.9872799
20
83.0547245
40
1.8450814
50
272.9002784
51
276.532699
0
ARC
8
DEFAULT_255_2_778
10
18.0109581
20
82.6124216
40
1.4021477
50
270.0528156
51
272.8484525
0
ARC
8
DEFAULT_255_2_778
10
18.0029255
20
82.1036315
40
0.8934054
50
259.5071449
51
270.5980454
0
ARC
8
DEFAULT_255_2_778
10
17.912813
20
81.6426743
40
0.4237716
50
238.7101736
51
260.1371304
0
ARC
8
DEFAULT_255_2_778
10
17.8289731
20
81.4962213
40
0.2551147
50
181.256628
51
237.7180126
0
LINE
8
DEFAULT_255_2_778
10
18.0906198
20
80.6612265
11
18.1726198
21
80.8747265
0
LINE
8
DEFAULT_255_2_778
10
18.6830198
20
81.2202265
11
18.2544198
21
82.2505265
0
LINE
8
DEFAULT_255_2_778
10
18.2544198
20
82.2505265
11
17.9329198
21
82.2505265
0
LINE
8
DEFAULT_255_2_778
10
17.9329198
20
82.2505265
11
17.9329198
21
81.5973265
0
LINE
8
DEFAULT_255_2_778
10
18.3047198
20
81.4340265
11
18.3237198
21
81.2393265
0
LINE
8
DEFAULT_255_2_778
10
17.5739198
20
81.4906265
11
17.5612198
21
82.2571265
0
LINE
8
DEFAULT_255_2_778
10
17.5612198
20
82.2571265
11
17.3720198
21
82.2571265
0
LINE
8
DEFAULT_255_2_778
10
17.3720198
20
82.2571265
11
17.3720198
21
82.4707265
0
LINE
8
DEFAULT_255_2_778
10
17.3720198
20
82.4707265
11
17.5736198
21
82.4707265
0
LINE
8
DEFAULT_255_2_778
10
17.5736198
20
82.4707265
11
17.6996198
21
82.9731265
0
LINE
8
DEFAULT_255_2_778
10
17.6996198
20
82.9731265
11
17.9139198
21
82.9731265
0
LINE
8
DEFAULT_255_2_778
10
17.9139198
20
82.9731265
11
17.9266198
21
82.4707265
0
LINE
8
DEFAULT_255_2_778
10
17.9266198
20
82.4707265
11
18.5568198
21
82.4707265
0
LINE
8
DEFAULT_255_2_778
10
18.5568198
20
82.4707265
11
18.8592198
21
81.6415265
0
LINE
8
DEFAULT_255_2_778
10
18.8592198
20
81.6415265
11
19.1616198
21
82.4707265
0
LINE
8
DEFAULT_255_2_778
10
19.1616198
20
82.4707265
11
19.4768198
21
82.4707265
0
LINE
8
DEFAULT_255_2_778
10
19.4768198
20
82.4707265
11
18.8214198
21
80.8247265
0
ARC
8
DEFAULT_255_2_778
10
20.4886862
20
81.5354313
40
0.5325132
50
158.8117849
51
180.8166314
0
ARC
8
DEFAULT_255_2_778
10
20.1842351
20
81.6615458
40
0.2032019
50
123.934274
51
160.9412119
0
ARC
8
DEFAULT_255_2_778
10
20.1146708
20
81.7545343
40
0.0874105
50
90.4874929
51
120.1257683
0
ARC
8
DEFAULT_255_2_778
10
20.1002562
20
81.7161743
40
0.1265082
50
24.4554496
51
83.7963195
0
ARC
8
DEFAULT_255_2_778
10
19.838393
20
81.5599289
40
0.4308905
50
5.6598625
51
28.957143
0
ARC
8
DEFAULT_255_2_778
10
19.6526819
20
81.5283841
40
0.6189454
50
359.9497817
51
6.8703696
0
ARC
8
DEFAULT_255_2_778
10
19.739561
20
81.5203406
40
0.532119
50
338.804197
51
0.8077062
0
ARC
8
DEFAULT_255_2_778
10
20.0434041
20
81.3943836
40
0.2034314
50
303.9637337
51
340.9394474
0
ARC
8
DEFAULT_255_2_778
10
20.1131773
20
81.3011817
40
0.0873432
50
270.4918639
51
300.1560267
0
ARC
8
DEFAULT_255_2_778
10
20.1275984
20
81.3396157
40
0.1265149
50
204.4617097
51
263.7964427
0
ARC
8
DEFAULT_255_2_778
10
20.3893028
20
81.4958099
40
0.4307345
50
185.6642403
51
208.9631817
0
ARC
8
DEFAULT_255_2_778
10
20.5745796
20
81.5273017
40
0.6183526
50
179.9499665
51
186.873664
0
ARC
8
DEFAULT_255_2_778
10
20.3794104
20
81.5319257
40
0.5240325
50
152.511927
51
180.7855003
0
ARC
8
DEFAULT_255_2_778
10
20.153316
20
81.6598056
40
0.264594
50
107.9689651
51
154.4798484
0
ARC
8
DEFAULT_255_2_778
10
20.1171586
20
81.7376433
40
0.1796984
50
90.01006
51
104.6572928
0
ARC
8
DEFAULT_255_2_778
10
20.1028885
20
81.686523
40
0.2312574
50
28.2083535
51
86.4700607
0
ARC
8
DEFAULT_255_2_778
10
19.8816202
20
81.5393591
40
0.4964429
50
2.8146136
51
31.1060953
0
ARC
8
DEFAULT_255_2_778
10
19.7786343
20
81.5248264
40
0.6000928
50
359.9919055
51
3.7176902
0
ARC
8
DEFAULT_255_2_778
10
19.8537274
20
81.5175993
40
0.5250483
50
332.6664514
51
0.7794307
0
ARC
8
DEFAULT_255_2_778
10
20.0799829
20
81.3904762
40
0.2658372
50
288.4439106
51
334.6152105
0
ARC
8
DEFAULT_255_2_778
10
20.1170892
20
81.3118069
40
0.1797652
50
270.012078
51
285.1556488
0
ARC
8
DEFAULT_255_2_778
10
20.1313807
20
81.3629594
40
0.2313572
50
208.2191033
51
266.4678588
0
ARC
8
DEFAULT_255_2_778
10
20.3525546
20
81.5101219
40
0.4964632
50
182.8162116
51
211.116011
0
ARC
8
DEFAULT_255_2_778
10
20.4554662
20
81.5246534
40
0.6000391
50
179.9915681
51
183.7193211
0
LINE
8
DEFAULT_255_2_778
10
19.9562271
20
81.5278417
11
19.9562271
21
81.5278417
0
LINE
8
DEFAULT_255_2_778
10
19.8554271
20
81.5247417
11
19.8554271
21
81.5247417
0
ARC
8
DEFAULT_255_2_778
10
21.0810862
20
81.5354313
40
0.5325132
50
158.8117849
51
180.8166314
0
ARC
8
DEFAULT_255_2_778
10
20.7766351
20
81.6615458
40
0.2032019
50
123.934274
51
160.9412119
0
ARC
8
DEFAULT_255_2_778
10
20.7070708
20
81.7545343
40
0.0874105
50
90.4874929
51
120.1257683
0
ARC
8
DEFAULT_255_2_778
10
20.6926562
20
81.7161743
40
0.1265082
50
24.4554496
51
83.7963195
0
ARC
8
DEFAULT_255_2_778
10
20.430793
20
81.5599289
40
0.4308905
50
5.6598625
51
28.957143
0
ARC
8
DEFAULT_255_2_778
10
20.2450819
20
81.5283841
40
0.6189454
50
359.9497817
51
6.8703696
0
ARC
8
DEFAULT_255_2_778
10
20.331961
20
81.5203406
40
0.532119
50
338.804197
51
0.8077062
0
ARC
8
DEFAULT_255_2_778
10
20.6358041
20
81.3943836
40
0.2034314
50
303.9637337
51
340.9394474
0
ARC
8
DEFAULT_255_2_778
10
20.7055773
20
81.3011817
40
0.0873432
50
270.4918639
51
300.1560267
0
ARC
8
DEFAULT_255_2_778
10
20.7199984
20
81.3396157
40
0.1265149
50
204.4617097
51
263.7964427
0
ARC
8
DEFAULT_255_2_778
10
20.9817028
20
81.4958099
40
0.4307345
50
185.6642403
51
208.9631817
0
ARC
8
DEFAULT_255_2_778
10
21.1669796
20
81.5273017
40
0.6183526
50
179.9499665
51
186.873664
0
ARC
8
DEFAULT_255_2_778
10
20.9718104
20
81.5319257
40
0.5240325
50
152.511927
51
180.7855003
0
ARC
8
DEFAULT_255_2_778
10
20.745716
20
81.6598056
40
0.264594
50
107.9689651
51
154.4798484
0
ARC
8
DEFAULT_255_2_778
10
20.7095586
20
81.7376433
40
0.1796984
50
90.01006
51
104.6572928
0
ARC
8
DEFAULT_255_2_778
10
20.6952885
20
81.686523
40
0.2312574
50
28.2083535
51
86.4700607
0
ARC
8
DEFAULT_255_2_778
10
20.4740202
20
81.5393591
40
0.4964429
50
2.8146136
51
31.1060953
0
ARC
8
DEFAULT_255_2_778
10
20.3710343
20
81.5248264
40
0.6000928
50
359.9919055
51
3.7176902
0
ARC
8
DEFAULT_255_2_778
10
20.4461274
20
81.5175993
40
0.5250483
50
332.6664514
51
0.7794307
0
ARC
8
DEFAULT_255_2_778
10
20.6723829
20
81.3904762
40
0.2658372
50
288.4439106
51
334.6152105
0
ARC
8
DEFAULT_255_2_778
10
20.7094892
20
81.3118069
40
0.1797652
50
270.012078
51
285.1556488
0
ARC
8
DEFAULT_255_2_778
10
20.7237807
20
81.3629594
40
0.2313572
50
208.2191033
51
266.4678588
0
ARC
8
DEFAULT_255_2_778
10
20.9449546
20
81.5101219
40
0.4964632
50
182.8162116
51
211.116011
0
ARC
8
DEFAULT_255_2_778
10
21.0478662
20
81.5246534
40
0.6000391
50
179.9915681
51
183.7193211
0
LINE
8
DEFAULT_255_2_778
10
20.5486271
20
81.5278417
11
20.5486271
21
81.5278417
0
LINE
8
DEFAULT_255_2_778
10
20.4478271
20
81.5247417
11
20.4478271
21
81.5247417
0
ARC
8
DEFAULT_255_2_778
10
21.6734862
20
81.5354313
40
0.5325132
50
158.8117849
51
180.8166314
0
ARC
8
DEFAULT_255_2_778
10
21.3690351
20
81.6615458
40
0.2032019
50
123.934274
51
160.9412119
0
ARC
8
DEFAULT_255_2_778
10
21.2994708
20
81.7545343
40
0.0874105
50
90.4874929
51
120.1257683
0
ARC
8
DEFAULT_255_2_778
10
21.2850562
20
81.7161743
40
0.1265082
50
24.4554496
51
83.7963195
0
ARC
8
DEFAULT_255_2_778
10
21.023193
20
81.5599289
40
0.4308905
50
5.6598625
51
28.957143
0
ARC
8
DEFAULT_255_2_778
10
20.8374819
20
81.5283841
40
0.6189454
50
359.9497817
51
6.8703696
0
ARC
8
DEFAULT_255_2_778
10
20.924361
20
81.5203406
40
0.532119
50
338.804197
51
0.8077062
0
ARC
8
DEFAULT_255_2_778
10
21.2282041
20
81.3943836
40
0.2034314
50
303.9637337
51
340.9394474
0
ARC
8
DEFAULT_255_2_778
10
21.2979773
20
81.3011817
40
0.0873432
50
270.4918639
51
300.1560267
0
ARC
8
DEFAULT_255_2_778
10
21.3123984
20
81.3396157
40
0.1265149
50
204.4617097
51
263.7964427
0
ARC
8
DEFAULT_255_2_778
10
21.5741028
20
81.4958099
40
0.4307345
50
185.6642403
51
208.9631817
0
ARC
8
DEFAULT_255_2_778
10
21.7593796
20
81.5273017
40
0.6183526
50
179.9499665
51
186.873664
0
ARC
8
DEFAULT_255_2_778
10
21.5642104
20
81.5319257
40
0.5240325
50
152.511927
51
180.7855003
0
ARC
8
DEFAULT_255_2_778
10
21.338116
20
81.6598056
40
0.264594
50
107.9689651
51
154.4798484
0
ARC
8
DEFAULT_255_2_778
10
21.3019586
20
81.7376433
40
0.1796984
50
90.01006
51
104.6572928
0
ARC
8
DEFAULT_255_2_778
10
21.2876885
20
81.686523
40
0.2312574
50
28.2083535
51
86.4700607
0
ARC
8
DEFAULT_255_2_778
10
21.0664202
20
81.5393591
40
0.4964429
50
2.8146136
51
31.1060953
0
ARC
8
DEFAULT_255_2_778
10
20.9634343
20
81.5248264
40
0.6000928
50
359.9919055
51
3.7176902
0
ARC
8
DEFAULT_255_2_778
10
21.0385274
20
81.5175993
40
0.5250483
50
332.6664514
51
0.7794307
0
ARC
8
DEFAULT_255_2_778
10
21.2647829
20
81.3904762
40
0.2658372
50
288.4439106
51
334.6152105
0
ARC
8
DEFAULT_255_2_778
10
21.3018892
20
81.3118069
40
0.1797652
50
270.012078
51
285.1556488
0
ARC
8
DEFAULT_255_2_778
10
21.3161807
20
81.3629594
40
0.2313572
50
208.2191033
51
266.4678588
0
ARC
8
DEFAULT_255_2_778
10
21.5373546
20
81.5101219
40
0.4964632
50
182.8162116
51
211.116011
0
ARC
8
DEFAULT_255_2_778
10
21.6402662
20
81.5246534
40
0.6000391
50
179.9915681
51
183.7193211
0
LINE
8
DEFAULT_255_2_778
10
21.1410271
20
81.5278417
11
21.1410271
21
81.5278417
0
LINE
8
DEFAULT_255_2_778
10
21.0402271
20
81.5247417
11
21.0402271
21
81.5247417
0
ARC
8
DEFAULT_255_2_778
10
9.3873819
20
81.8608426
40
0.1950108
50
91.6788031
51
181.813939
0
ARC
8
DEFAULT_255_2_778
10
9.375889
20
81.8607798
40
0.1950756
50
358.2051219
51
88.3021655
0
ARC
8
DEFAULT_255_2_778
10
9.3758891
20
81.8485596
40
0.1950754
50
271.6978133
51
1.7949071
0
ARC
8
DEFAULT_255_2_778
10
9.3873819
20
81.8484969
40
0.1950108
50
178.186061
51
268.3211969
0
ARC
8
DEFAULT_255_2_778
10
9.5333727
20
81.8614309
40
0.4668529
50
145.043768
51
180.8298084
0
ARC
8
DEFAULT_255_2_778
10
9.3902029
20
81.9691132
40
0.287883
50
91.6987406
51
146.2830079
0
ARC
8
DEFAULT_255_2_778
10
9.3664457
20
81.9521621
40
0.3050877
50
23.4934874
51
87.1398977
0
ARC
8
DEFAULT_255_2_778
10
9.2119732
20
81.8582629
40
0.484809
50
359.5753549
51
26.3944218
0
ARC
8
DEFAULT_255_2_778
10
9.2302375
20
81.84792
40
0.4665802
50
325.0256173
51
0.8288991
0
ARC
8
DEFAULT_255_2_778
10
9.3731106
20
81.7403699
40
0.2879274
50
271.7032906
51
326.2656695
0
ARC
8
DEFAULT_255_2_778
10
9.3969078
20
81.7574987
40
0.3053095
50
203.3271307
51
267.1389871
0
ARC
8
DEFAULT_255_2_778
10
9.5516258
20
81.851093
40
0.4850703
50
179.5775117
51
206.2433806
0
ARC
8
DEFAULT_255_2_778
10
9.3711242
20
81.8357025
40
0.6700752
50
95.9615992
51
178.9168048
0
ARC
8
DEFAULT_255_2_778
10
9.3941457
20
81.7676302
40
0.7403396
50
89.982733
51
97.186551
0
ARC
8
DEFAULT_255_2_778
10
9.3986015
20
81.7978279
40
0.7101545
50
48.1622127
51
90.3414937
0
ARC
8
DEFAULT_255_2_778
10
9.4447028
20
81.8468697
40
0.6428678
50
0.1336951
51
48.3079447
0
ARC
8
DEFAULT_255_2_778
10
9.4177539
20
81.8609035
40
0.6699322
50
275.9543621
51
358.9279918
0
ARC
8
DEFAULT_255_2_778
10
9.3945956
20
81.9297114
40
0.7409416
50
269.9824665
51
277.1836307
0
ARC
8
DEFAULT_255_2_778
10
9.3901051
20
81.8992743
40
0.7105173
50
228.7495498
51
270.3438303
0
ARC
8
DEFAULT_255_2_778
10
9.3444767
20
81.8498952
40
0.6433097
50
180.1358579
51
228.9051204
0
LINE
8
DEFAULT_255_2_778
10
11.1149688
20
82.1943698
11
11.1149688
21
81.5660698
0
ARC
8
DEFAULT_255_2_778
10
10.4507178
20
82.7592512
40
1.3656176
50
292.8223416
51
299.1049387
0
ARC
8
DEFAULT_255_2_778
10
10.7172229
20
82.1175623
40
0.6708024
50
282.4794629
51
293.1002978
0
ARC
8
DEFAULT_255_2_778
10
10.7905801
20
81.7920416
40
0.3371233
50
270.5838487
51
282.2615078
0
ARC
8
DEFAULT_255_2_778
10
10.7886817
20
81.625428
40
0.1705756
50
241.3798642
51
271.7918735
0
ARC
8
DEFAULT_255_2_778
10
10.7725697
20
81.588612
40
0.1305871
50
222.8095502
51
239.8477433
0
ARC
8
DEFAULT_255_2_778
10
10.8632448
20
81.7131648
40
0.2833162
50
195.5923976
51
228.8379937
0
ARC
8
DEFAULT_255_2_778
10
11.2482514
20
81.8369125
40
0.6875956
50
182.8988217
51
196.901328
0
ARC
8
DEFAULT_255_2_778
10
11.7546763
20
81.8790595
40
1.1956176
50
179.9089191
51
183.6886871
0
ARC
8
DEFAULT_255_2_778
10
12.1230229
20
81.8794544
40
1.5639636
50
177.2544012
51
179.9448392
0
LINE
8
DEFAULT_255_2_778
10
10.5608547
20
81.9543705
11
10.5608688
21
81.9546698
0
ARC
8
DEFAULT_255_2_778
10
11.0254754
20
81.8897208
40
0.4691244
50
149.0121274
51
172.0420019
0
ARC
8
DEFAULT_255_2_778
10
10.8596413
20
81.9801494
40
0.280511
50
88.5440138
51
147.4067729
0
ARC
8
DEFAULT_255_2_778
10
10.7906193
20
81.4299864
40
0.8340669
50
72.0203436
51
84.7616527
0
ARC
8
DEFAULT_255_2_778
10
10.9080282
20
81.8080191
40
0.4382821
50
61.8252032
51
71.3646611
0
ARC
8
DEFAULT_255_2_778
10
10.4986962
20
82.4784032
40
1.2918982
50
287.0682731
51
298.4915226
0
ARC
8
DEFAULT_255_2_778
10
10.6577818
20
81.9554772
40
0.7453122
50
270.6811176
51
287.1763457
0
ARC
8
DEFAULT_255_2_778
10
10.6665525
20
81.7894494
40
0.5792318
50
267.7358327
51
270.0088232
0
ARC
8
DEFAULT_255_2_778
10
10.6470952
20
81.6298768
40
0.4192211
50
203.9093897
51
269.5317059
0
ARC
8
DEFAULT_255_2_778
10
11.1145726
20
81.8892122
40
0.9528801
50
192.6009015
51
206.7737237
0
ARC
8
DEFAULT_255_2_778
10
11.5163822
20
81.9975427
40
1.3687639
50
192.6165694
51
193.3570279
0
ARC
8
DEFAULT_255_2_778
10
11.2164444
20
81.8917151
40
1.05363
50
182.6356817
51
190.5628607
0
ARC
8
DEFAULT_255_2_778
10
11.0629576
20
81.8821692
40
0.89987
50
180.0135228
51
182.4779265
0
ARC
8
DEFAULT_255_2_778
10
10.8371185
20
81.8980664
40
0.6742234
50
136.7456723
51
181.3691273
0
ARC
8
DEFAULT_255_2_778
10
10.687757
20
81.9868873
40
0.5059802
50
89.2314975
51
132.4774114
0
ARC
8
DEFAULT_255_2_778
10
10.6944571
20
81.8761601
40
0.6166618
50
87.8056342
51
89.9919799
0
ARC
8
DEFAULT_255_2_778
10
10.7056164
20
81.3344717
40
1.157965
50
70.3175508
51
89.3838437
0
ARC
8
DEFAULT_255_2_778
10
10.6142508
20
81.0269874
40
1.4783609
50
70.2024224
51
70.9971735
0
ARC
8
DEFAULT_255_2_778
10
6.8356463
20
82.5453908
40
0.4410946
50
358.399361
51
20.0218069
0
ARC
8
DEFAULT_255_2_778
10
7.0501301
20
82.6214859
40
0.2135292
50
20.5419455
51
86.7410997
0
ARC
8
DEFAULT_255_2_778
10
6.965547
20
82.5814555
40
0.314717
50
287.8983612
51
351.2113386
0
ARC
8
DEFAULT_255_2_778
10
7.0636919
20
82.5302198
40
0.618465
50
4.9299985
51
29.9140029
0
ARC
8
DEFAULT_255_2_778
10
7.1679648
20
82.5710178
40
0.5080106
50
31.7908677
51
73.6304902
0
ARC
8
DEFAULT_255_2_778
10
7.032524
20
82.1889821
40
0.9130031
50
72.2320975
51
84.9703096
0
ARC
8
DEFAULT_255_2_778
10
6.9980565
20
82.9537673
40
0.9427779
50
276.9765222
51
292.3131775
0
ARC
8
DEFAULT_255_2_778
10
7.177357
20
82.5462302
40
0.4978062
50
291.0302401
51
353.4987619
0
ARC
8
DEFAULT_255_2_778
10
6.907836
20
82.6015679
40
0.7722473
50
351.6832812
51
358.6496898
0
LINE
8
DEFAULT_255_2_778
10
9.1924688
20
81.8546698
11
9.1924688
21
81.8546698
0
LINE
8
DEFAULT_255_2_778
10
9.0665688
20
81.8546698
11
9.0665688
21
81.8546698
0
LINE
8
DEFAULT_255_2_778
10
8.7011688
20
81.8483698
11
8.7011688
21
81.8483698
0
LINE
8
DEFAULT_255_2_778
10
11.1149688
20
82.1943698
11
11.1149688
21
82.1943698
0
LINE
8
DEFAULT_255_2_778
10
11.1149688
20
82.4177698
11
11.1149688
21
83.1701698
0
LINE
8
DEFAULT_255_2_778
10
11.1149688
20
83.1701698
11
11.4787688
21
83.2114698
0
LINE
8
DEFAULT_255_2_778
10
11.4787688
20
83.2114698
11
11.4787688
21
81.2437698
0
LINE
8
DEFAULT_255_2_778
10
11.4787688
20
81.2437698
11
11.1231688
21
81.2437698
0
LINE
8
DEFAULT_255_2_778
10
11.1231688
20
81.2437698
11
11.1149688
21
81.3429698
0
LINE
8
DEFAULT_255_2_778
10
11.1149688
20
82.4179698
11
11.1149688
21
82.4177698
0
LINE
8
DEFAULT_255_2_778
10
7.0622688
20
82.8346698
11
6.7977688
21
82.8346698
0
LINE
8
DEFAULT_255_2_778
10
6.7977688
20
82.8346698
11
6.7977688
21
82.2819698
0
LINE
8
DEFAULT_255_2_778
10
6.7977688
20
82.2819698
11
7.0622688
21
82.2819698
0
LINE
8
DEFAULT_255_2_778
10
7.2765688
20
82.5333698
11
7.2765688
21
82.5330698
0
LINE
8
DEFAULT_255_2_778
10
7.1125688
20
83.0984698
11
6.4066688
21
83.0984698
0
LINE
8
DEFAULT_255_2_778
10
6.4066688
20
83.0984698
11
6.4066688
21
81.2389698
0
LINE
8
DEFAULT_255_2_778
10
6.4066688
20
81.2389698
11
6.7974688
21
81.2389698
0
LINE
8
DEFAULT_255_2_778
10
6.7974688
20
81.2389698
11
6.7974688
21
82.0179698
0
LINE
8
DEFAULT_255_2_778
10
6.7974688
20
82.0179698
11
7.1125688
21
82.0179698
0
LINE
8
DEFAULT_255_2_778
10
7.6798688
20
82.5833698
11
7.6798688
21
82.5833698
0
ARC
8
DEFAULT_255_2_778
10
19.7177453
20
82.4684946
40
0.1240871
50
90.4970902
51
180.7468723
0
ARC
8
DEFAULT_255_2_778
10
19.7156718
20
82.468474
40
0.1241071
50
359.2627624
51
89.5397352
0
ARC
8
DEFAULT_255_2_778
10
19.7156079
20
82.4653429
40
0.1241704
50
270.4895344
51
0.7079223
0
ARC
8
DEFAULT_255_2_778
10
19.7178097
20
82.4653225
40
0.1241507
50
179.2825375
51
269.4734631
0
LINE
8
DEFAULT_255_2_778
10
19.5936688
20
82.4668771
11
19.5936688
21
82.4668771
0
ARC
8
DEFAULT_255_2_778
10
19.7159701
20
82.4671527
40
0.1600856
50
89.815832
51
180.0770398
0
ARC
8
DEFAULT_255_2_778
10
19.7169993
20
82.4671527
40
0.1600856
50
359.9229602
51
90.184168
0
ARC
8
DEFAULT_255_2_778
10
19.7169781
20
82.4666436
40
0.1601069
50
269.8234249
51
0.1051606
0
ARC
8
DEFAULT_255_2_778
10
19.7159913
20
82.4666437
40
0.160107
50
179.8948697
51
270.1765625
0
LINE
8
DEFAULT_255_2_778
10
19.5558847
20
82.4669375
11
19.5558847
21
82.4669375
0
ARC
8
DEFAULT_255_2_778
10
19.7173671
20
82.4242427
40
0.0239886
50
28.4465281
51
103.4267637
0
ARC
8
DEFAULT_255_2_778
10
19.6923938
20
82.2119539
40
0.2364193
50
85.2923939
51
90.3233848
0
ARC
8
DEFAULT_255_2_778
10
19.7079096
20
81.8122579
40
0.7359887
50
91.4445043
51
94.5082143
0
ARC
8
DEFAULT_255_2_778
10
19.7011498
20
82.0376119
40
0.510537
50
90.0204411
51
91.3236595
0
ARC
8
DEFAULT_255_2_778
10
19.7067649
20
82.3132213
40
0.234999
50
77.9191012
51
91.4136047
0
ARC
8
DEFAULT_255_2_778
10
19.7539008
20
82.5094788
40
0.0335995
50
19.4828986
51
86.5059996
0
ARC
8
DEFAULT_255_2_778
10
19.7648421
20
82.517093
40
0.0210433
50
359.8753665
51
9.8287108
0
ARC
8
DEFAULT_255_2_778
10
19.7362646
20
82.5219595
40
0.0498633
50
318.6549341
51
354.3463421
0
ARC
8
DEFAULT_255_2_778
10
19.6181615
20
82.6096364
40
0.1968255
50
312.3913188
51
322.2071703
0
ARC
8
DEFAULT_255_2_778
10
19.7323609
20
82.4214103
40
0.0466808
50
7.8211356
51
66.6544263
0
ARC
8
DEFAULT_255_2_778
10
19.5988118
20
82.3935625
40
0.1830194
50
4.3516874
51
10.7699648
0
ARC
8
DEFAULT_255_2_778
10
19.8039496
20
82.4037232
40
0.0229506
50
170.6553415
51
230.4661874
0
ARC
8
DEFAULT_255_2_778
10
19.7917715
20
82.3941986
40
0.0085297
50
253.4430888
51
270.5900942
0
ARC
8
DEFAULT_255_2_778
10
19.7115374
20
82.4905403
40
0.034132
50
13.2604458
51
106.205442
0
ARC
8
DEFAULT_255_2_778
10
19.6946119
20
82.3445217
40
0.1789476
50
87.6300226
51
90.0488299
0
ARC
8
DEFAULT_255_2_778
10
19.7044442
20
82.5423065
40
0.0666888
50
261.3891358
51
304.5653386
0
ARC
8
DEFAULT_255_2_778
10
19.7331798
20
82.4950271
40
0.0118802
50
319.9940947
51
0.6866831
0
LINE
8
DEFAULT_255_2_778
10
19.7921594
20
82.3854694
11
19.7511594
21
82.3854694
0
LINE
8
DEFAULT_255_2_778
10
19.7511594
20
82.3854694
11
19.7384594
21
82.4356694
0
LINE
8
DEFAULT_255_2_778
10
19.6910594
20
82.4483694
11
19.6910594
21
82.3856694
0
LINE
8
DEFAULT_255_2_778
10
19.6910594
20
82.3856694
11
19.6532594
21
82.3856694
0
LINE
8
DEFAULT_255_2_778
10
19.6532594
20
82.3856694
11
19.6500594
21
82.5459694
0
LINE
8
DEFAULT_255_2_778
10
19.7918594
20
82.3856694
11
19.7921594
21
82.3854694
0
LINE
8
DEFAULT_255_2_778
10
19.6944594
20
82.5234694
11
19.6944594
21
82.4763694
0
ARC
8
DEFAULT_255_2_778
10
22.0516426
20
81.1014609
40
0.1859656
50
91.2045372
51
181.4098501
0
ARC
8
DEFAULT_255_2_778
10
22.04384
20
81.1013785
40
0.1860476
50
358.6161552
51
88.8008978
0
ARC
8
DEFAULT_255_2_778
10
22.0437755
20
81.0924541
40
0.1861106
50
271.2185606
51
1.3643499
0
ARC
8
DEFAULT_255_2_778
10
22.0517085
20
81.0920751
40
0.1857322
50
178.57764
51
268.7736356
0
ARC
8
DEFAULT_255_2_778
10
22.9491426
20
81.1136609
40
0.1859656
50
91.2045372
51
181.4098501
0
ARC
8
DEFAULT_255_2_778
10
22.9413241
20
81.1136609
40
0.1859656
50
358.5901499
51
88.7954628
0
ARC
8
DEFAULT_255_2_778
10
22.9413241
20
81.1045099
40
0.1859656
50
271.2045372
51
1.4098501
0
ARC
8
DEFAULT_255_2_778
10
22.9491047
20
81.1042712
40
0.1857262
50
178.6072549
51
268.8056271
0
ARC
8
DEFAULT_255_2_778
10
22.5004267
20
81.1013785
40
0.1860476
50
91.1991022
51
181.3838448
0
ARC
8
DEFAULT_255_2_778
10
22.4926241
20
81.1014609
40
0.1859656
50
358.5901499
51
88.7954628
0
ARC
8
DEFAULT_255_2_778
10
22.4925595
20
81.0923716
40
0.1860286
50
271.2240081
51
1.3903789
0
ARC
8
DEFAULT_255_2_778
10
22.5004923
20
81.0921574
40
0.1858142
50
178.6036506
51
268.7791685
0
LINE
8
DEFAULT_255_2_778
10
21.8660334
20
81.0966854
11
21.8657334
21
81.0968854
0
LINE
8
DEFAULT_255_2_778
10
22.7634334
20
81.1087854
11
22.7632334
21
81.1090854
0
LINE
8
DEFAULT_255_2_778
10
22.3147334
20
81.0966854
11
22.3144334
21
81.0968854
0
ARC
8
DEFAULT_255_2_778
10
12.2412908
20
81.8621179
40
0.3756367
50
270.2518229
51
277.9224239
0
ARC
8
DEFAULT_255_2_778
10
12.2267567
20
81.6496058
40
0.163922
50
191.9135594
51
275.6664103
0
ARC
8
DEFAULT_255_2_778
10
12.2912552
20
81.7771972
40
0.6680449
50
207.8643513
51
221.7718618
0
ARC
8
DEFAULT_255_2_778
10
12.0737789
20
81.5707613
40
0.3684417
50
220.3588923
51
270.0277924
0
ARC
8
DEFAULT_255_2_778
10
12.0683238
20
81.7028085
40
0.5005206
50
270.6449322
51
287.6494066
0
ARC
8
DEFAULT_255_2_778
10
11.977822
20
81.9987608
40
0.8099892
50
287.4026496
51
297.6988649
0
ARC
8
DEFAULT_255_2_778
10
11.7698217
20
82.4019576
40
1.2636684
50
297.5514274
51
304.3018591
0
ARC
8
DEFAULT_255_2_778
10
12.3708589
20
81.6263997
40
0.1058286
50
290.4109967
51
338.4144294
0
ARC
8
DEFAULT_255_2_778
10
12.1869241
20
81.9955041
40
0.5177505
50
282.5203845
51
295.2483499
0
LINE
8
DEFAULT_255_2_778
10
12.0663656
20
81.6157664
11
12.0599656
21
82.4637664
0
LINE
8
DEFAULT_255_2_778
10
12.0599656
20
82.4637664
11
11.7006656
21
82.4637664
0
LINE
8
DEFAULT_255_2_778
10
11.7006656
20
82.4637664
11
11.7006656
21
81.4649664
0
LINE
8
DEFAULT_255_2_778
10
12.4819656
20
81.3580664
11
12.4946656
21
81.2450664
0
LINE
8
DEFAULT_255_2_778
10
12.4946656
20
81.2450664
11
12.8349656
21
81.2450664
0
LINE
8
DEFAULT_255_2_778
10
12.8349656
20
81.2450664
11
12.8349656
21
82.4764664
0
LINE
8
DEFAULT_255_2_778
10
12.8349656
20
82.4764664
11
12.4692656
21
82.4764664
0
LINE
8
DEFAULT_255_2_778
10
12.4692656
20
82.4764664
11
12.4692656
21
81.5842664
0
LINE
8
DEFAULT_255_1_388
10
7.8448094
20
78.5888317
11
7.5348868
21
78.5888317
0
LINE
8
DEFAULT_255_1_388
10
7.5348868
20
78.5888317
11
7.5348868
21
78.0738
0
LINE
8
DEFAULT_255_1_388
10
7.5348868
20
78.0738
11
7.3614024
21
78.0738
0
LINE
8
DEFAULT_255_1_388
10
7.3614024
20
78.0738
11
7.3614024
21
79.3893898
0
LINE
8
DEFAULT_255_1_388
10
7.3614024
20
79.3893898
11
7.8466165
21
79.3893898
0
LINE
8
DEFAULT_255_1_388
10
7.5348868
20
79.2466267
11
7.5348868
21
78.7306914
0
LINE
8
DEFAULT_255_1_388
10
7.5348868
20
78.7306914
11
7.8466165
21
78.7306914
0
LINE
8
DEFAULT_255_1_388
10
7.8565557
20
79.2466267
11
7.5348868
21
79.2466267
0
ARC
8
DEFAULT_255_1_388
10
7.8513538
20
78.7077334
40
0.6816729
50
78.8380084
51
90.398184
0
ARC
8
DEFAULT_255_1_388
10
7.8981569
20
78.9350796
40
0.449571
50
58.9633273
51
79.0810717
0
ARC
8
DEFAULT_255_1_388
10
7.9320953
20
78.9980823
40
0.3781049
50
48.0194715
51
58.4475592
0
ARC
8
DEFAULT_255_1_388
10
7.9420773
20
79.0076818
40
0.3642936
50
3.3374546
51
48.1766642
0
ARC
8
DEFAULT_255_1_388
10
7.803558
20
78.9877581
40
0.5038766
50
359.9483251
51
4.6822857
0
ARC
8
DEFAULT_255_1_388
10
7.8175503
20
78.9829779
40
0.4899031
50
346.1879032
51
0.5059221
0
ARC
8
DEFAULT_255_1_388
10
7.9704295
20
78.9432763
40
0.3319729
50
310.8832219
51
346.5426612
0
ARC
8
DEFAULT_255_1_388
10
7.9357143
20
78.9901853
40
0.3901853
50
286.6925305
51
310.228778
0
ARC
8
DEFAULT_255_1_388
10
7.8716873
20
79.1915585
40
0.6014737
50
274.6848219
51
287.0247342
0
ARC
8
DEFAULT_255_1_388
10
7.8463422
20
79.4400088
40
0.8511785
50
269.8968222
51
275.0192639
0
ARC
8
DEFAULT_255_1_388
10
7.8494415
20
79.2062144
40
0.4755314
50
269.6596206
51
279.4150542
0
ARC
8
DEFAULT_255_1_388
10
7.8783873
20
79.0384945
40
0.3053379
50
279.2050006
51
294.9901776
0
ARC
8
DEFAULT_255_1_388
10
7.9110508
20
78.9656353
40
0.2255036
50
295.2886769
51
311.2912669
0
ARC
8
DEFAULT_255_1_388
10
7.9190249
20
78.9537938
40
0.2113522
50
311.7853512
51
347.2860549
0
ARC
8
DEFAULT_255_1_388
10
7.808341
20
78.982243
40
0.3256011
50
346.6891629
51
0.1057086
0
ARC
8
DEFAULT_255_1_388
10
7.716087
20
78.9855247
40
0.417863
50
359.63239
51
359.9961329
0
ARC
8
DEFAULT_255_1_388
10
7.8325475
20
78.9882987
40
0.3014155
50
359.4673371
51
15.5931159
0
ARC
8
DEFAULT_255_1_388
10
7.9028538
20
79.0072937
40
0.2285918
50
15.7441779
51
46.620186
0
ARC
8
DEFAULT_255_1_388
10
7.8862298
20
78.9881361
40
0.2539359
50
46.8628482
51
75.6676625
0
ARC
8
DEFAULT_255_1_388
10
7.8531354
20
78.8690243
40
0.3775415
50
75.2763152
51
88.2916439
0
ARC
8
DEFAULT_255_1_388
10
7.8465354
20
78.7688097
40
0.4779221
50
87.8589087
51
88.7986197
0
LINE
8
DEFAULT_255_1_388
10
8.9751685
20
79.0568781
11
8.9751685
21
78.901465
0
LINE
8
DEFAULT_255_1_388
10
8.6697637
20
78.7677375
11
8.6697637
21
78.0738
0
LINE
8
DEFAULT_255_1_388
10
8.6697637
20
78.0738
11
8.5026043
21
78.0738
0
LINE
8
DEFAULT_255_1_388
10
8.5026043
20
78.0738
11
8.5026043
21
79.0514567
0
LINE
8
DEFAULT_255_1_388
10
8.5026043
20
79.0514567
11
8.6652459
21
79.0514567
0
LINE
8
DEFAULT_255_1_388
10
8.6652459
20
79.0514567
11
8.6679566
21
78.9385112
0
ARC
8
DEFAULT_255_1_388
10
8.9001845
20
78.4448068
40
0.4627735
50
80.6751522
51
86.893806
0
ARC
8
DEFAULT_255_1_388
10
8.8933675
20
78.3356103
40
0.5721798
50
86.8046851
51
90.0423898
0
ARC
8
DEFAULT_255_1_388
10
8.8892094
20
78.6123197
40
0.2954939
50
89.2758283
51
106.6212906
0
ARC
8
DEFAULT_255_1_388
10
8.8662119
20
78.6959009
40
0.2088351
50
107.1347109
51
157.6456887
0
ARC
8
DEFAULT_255_1_388
10
8.9430181
20
78.6531908
40
0.296292
50
155.6557383
51
157.256838
0
ARC
8
DEFAULT_255_1_388
10
8.9209795
20
78.7842472
40
0.296341
50
127.8167201
51
148.6300223
0
ARC
8
DEFAULT_255_1_388
10
8.8924543
20
78.8135066
40
0.2557782
50
91.3329934
51
126.7875218
0
ARC
8
DEFAULT_255_1_388
10
8.900993
20
78.7331718
40
0.3363561
50
89.9858247
51
92.4688453
0
ARC
8
DEFAULT_255_1_388
10
8.9019423
20
78.7640114
40
0.3055179
50
85.3587643
51
90.1624243
0
ARC
8
DEFAULT_255_1_388
10
8.9114488
20
78.8769458
40
0.1921848
50
78.4019195
51
85.4592653
0
ARC
8
DEFAULT_255_1_388
10
8.9277549
20
78.9547142
40
0.1127267
50
67.7849217
51
78.573798
0
ARC
8
DEFAULT_255_1_388
10
8.9399183
20
78.9862374
40
0.0789473
50
63.4805074
51
67.3074739
0
LINE
8
DEFAULT_255_1_388
10
9.0664285
20
78.5599177
11
9.0664285
21
78.571664
0
LINE
8
DEFAULT_255_1_388
10
9.9564395
20
78.5635319
11
9.9564395
21
78.5517856
0
ARC
8
DEFAULT_255_1_388
10
9.694873
20
78.575304
40
0.628455
50
166.3005265
51
180.3318609
0
ARC
8
DEFAULT_255_1_388
10
9.5978079
20
78.5970267
40
0.52901
50
153.8608648
51
166.0965672
0
ARC
8
DEFAULT_255_1_388
10
9.5229245
20
78.6371652
40
0.4441126
50
135.1317053
51
154.2534962
0
ARC
8
DEFAULT_255_1_388
10
9.4915896
20
78.6648431
40
0.4023863
50
121.7042632
51
134.7771455
0
ARC
8
DEFAULT_255_1_388
10
9.4991328
20
78.6503469
40
0.4186852
50
93.4001111
51
121.5399523
0
ARC
8
DEFAULT_255_1_388
10
9.5098162
20
78.5573759
40
0.5121521
50
89.9706387
51
93.9763381
0
ARC
8
DEFAULT_255_1_388
10
9.5151147
20
78.6013563
40
0.4681988
50
71.3321659
51
90.6162917
0
ARC
8
DEFAULT_255_1_388
10
9.533418
20
78.6691003
40
0.3981841
50
41.1813875
51
70.7072086
0
ARC
8
DEFAULT_255_1_388
10
9.4796897
20
78.620313
40
0.4707474
50
12.1971434
51
41.3446641
0
ARC
8
DEFAULT_255_1_388
10
9.263016
20
78.5687328
40
0.6934429
50
359.5702713
51
12.5803533
0
ARC
8
DEFAULT_255_1_388
10
9.3162476
20
78.5482207
40
0.6402018
50
347.0196754
51
0.3190452
0
ARC
8
DEFAULT_255_1_388
10
9.424053
20
78.5250189
40
0.5299421
50
334.350439
51
346.8460534
0
ARC
8
DEFAULT_255_1_388
10
9.5191776
20
78.4756244
40
0.4228234
50
310.4228125
51
334.8045131
0
ARC
8
DEFAULT_255_1_388
10
9.5283754
20
78.4684301
40
0.4113892
50
301.8488154
51
310.0972985
0
ARC
8
DEFAULT_255_1_388
10
9.5247495
20
78.4769573
40
0.4205483
50
274.3078723
51
301.6554173
0
ARC
8
DEFAULT_255_1_388
10
9.512295
20
78.5756943
40
0.5199658
50
269.954904
51
274.859116
0
ARC
8
DEFAULT_255_1_388
10
9.5067774
20
78.5193239
40
0.4636233
50
250.8887647
51
270.6313164
0
ARC
8
DEFAULT_255_1_388
10
9.4898935
20
78.4564405
40
0.398705
50
221.1701369
51
250.2227012
0
ARC
8
DEFAULT_255_1_388
10
9.54436
20
78.5060716
40
0.4723796
50
191.6263861
51
221.3526879
0
ARC
8
DEFAULT_255_1_388
10
9.7567446
20
78.5552203
40
0.6903321
50
179.6101251
51
192.0694841
0
ARC
8
DEFAULT_255_1_388
10
9.8043793
20
78.5481681
40
0.5698993
50
179.636304
51
190.6161344
0
ARC
8
DEFAULT_255_1_388
10
9.6196125
20
78.5121635
40
0.3816643
50
190.4136062
51
208.7168709
0
ARC
8
DEFAULT_255_1_388
10
9.5622159
20
78.4836905
40
0.3176572
50
209.187109
51
217.4221816
0
ARC
8
DEFAULT_255_1_388
10
9.502663
20
78.4312729
40
0.2385702
50
216.1156863
51
265.2575395
0
ARC
8
DEFAULT_255_1_388
10
9.5115666
20
78.4957608
40
0.3035941
50
264.5891546
51
270.0602378
0
ARC
8
DEFAULT_255_1_388
10
9.5152863
20
78.4530539
40
0.2609091
50
269.2532353
51
291.8793864
0
ARC
8
DEFAULT_255_1_388
10
9.5185742
20
78.4330359
40
0.241148
50
292.9269367
51
323.1777736
0
ARC
8
DEFAULT_255_1_388
10
9.4715027
20
78.4743762
40
0.3036446
50
322.25666
51
323.087958
0
ARC
8
DEFAULT_255_1_388
10
9.4412285
20
78.4926332
40
0.3388345
50
323.6941379
51
343.8493587
0
ARC
8
DEFAULT_255_1_388
10
9.2636721
20
78.5466698
40
0.5244204
50
343.5746655
51
355.008149
0
ARC
8
DEFAULT_255_1_388
10
9.0378413
20
78.5700797
40
0.7514406
50
354.728272
51
0.1208026
0
ARC
8
DEFAULT_255_1_388
10
9.2367438
20
78.5752947
40
0.5525482
50
359.6235211
51
11.2016685
0
ARC
8
DEFAULT_255_1_388
10
9.4093265
20
78.6108284
40
0.3763527
50
10.9991302
51
30.8317616
0
ARC
8
DEFAULT_255_1_388
10
9.4538569
20
78.6342988
40
0.3260975
50
31.3007463
51
37.395541
0
ARC
8
DEFAULT_255_1_388
10
9.5097288
20
78.6814773
40
0.253082
50
36.5918894
51
62.2439906
0
ARC
8
DEFAULT_255_1_388
10
9.514958
20
78.6811378
40
0.2509927
50
63.3364883
51
89.7193846
0
ARC
8
DEFAULT_255_1_388
10
9.5101033
20
78.6163375
40
0.3158485
50
88.8962924
51
90.004475
0
ARC
8
DEFAULT_255_1_388
10
9.5065461
20
78.6816071
40
0.250604
50
89.1923115
51
114.7099029
0
ARC
8
DEFAULT_255_1_388
10
9.5097802
20
78.6858675
40
0.2481307
50
115.7996284
51
142.2901353
0
ARC
8
DEFAULT_255_1_388
10
9.5566073
20
78.6439752
40
0.310833
50
141.4607507
51
142.383894
0
ARC
8
DEFAULT_255_1_388
10
9.5713925
20
78.6371449
40
0.3267335
50
143.0176473
51
163.2340089
0
ARC
8
DEFAULT_255_1_388
10
9.7489213
20
78.5809553
40
0.5129308
50
162.9446504
51
174.3733893
0
ARC
8
DEFAULT_255_1_388
10
9.9903186
20
78.5538483
40
0.75583
50
174.1225809
51
180.1563667
0
LINE
8
DEFAULT_255_1_388
10
10.1254061
20
78.5581105
11
10.1254061
21
78.5707604
0
LINE
8
DEFAULT_255_1_388
10
10.783201
20
78.9520646
11
10.783201
21
79.461675
0
LINE
8
DEFAULT_255_1_388
10
10.783201
20
79.461675
11
10.9503604
21
79.461675
0
LINE
8
DEFAULT_255_1_388
10
10.9503604
20
79.461675
11
10.9503604
21
78.0738
0
LINE
8
DEFAULT_255_1_388
10
10.9503604
20
78.0738
11
10.7967544
21
78.0738
0
LINE
8
DEFAULT_255_1_388
10
10.7967544
20
78.0738
11
10.7886224
21
78.1786135
0
LINE
8
DEFAULT_255_1_388
10
10.783201
20
78.3403515
11
10.783201
21
78.789423
0
ARC
8
DEFAULT_255_1_388
10
10.8988754
20
78.5757084
40
0.7734851
50
169.1662656
51
180.3665225
0
ARC
8
DEFAULT_255_1_388
10
10.6517663
20
78.6249773
40
0.5215235
50
150.2837807
51
169.3798657
0
ARC
8
DEFAULT_255_1_388
10
10.5805114
20
78.6614124
40
0.4415937
50
142.1063912
51
149.8065902
0
ARC
8
DEFAULT_255_1_388
10
10.5161326
20
78.7174913
40
0.3563766
50
118.4282495
51
142.8642233
0
ARC
8
DEFAULT_255_1_388
10
10.5050338
20
78.7245109
40
0.3449797
50
89.9199141
51
117.3621403
0
ARC
8
DEFAULT_255_1_388
10
10.511219
20
78.6370171
40
0.4325108
50
89.9988001
51
90.7555106
0
ARC
8
DEFAULT_255_1_388
10
10.5154268
20
78.6657362
40
0.4038136
50
72.8979482
51
90.595751
0
ARC
8
DEFAULT_255_1_388
10
10.5376948
20
78.7461099
40
0.3204539
50
39.9932308
51
72.4773248
0
ARC
8
DEFAULT_255_1_388
10
10.5344039
20
78.3847007
40
0.3272598
50
275.0849466
51
320.9693562
0
ARC
8
DEFAULT_255_1_388
10
10.5102955
20
78.5272895
40
0.4715615
50
269.8937433
51
276.4672347
0
ARC
8
DEFAULT_255_1_388
10
10.5026495
20
78.384715
40
0.3290559
50
222.0839188
51
271.1791339
0
ARC
8
DEFAULT_255_1_388
10
10.5714004
20
78.4550998
40
0.4272982
50
217.5168262
51
222.9097935
0
ARC
8
DEFAULT_255_1_388
10
10.6268877
20
78.4932851
40
0.4945763
50
193.0962732
51
217.1109075
0
ARC
8
DEFAULT_255_1_388
10
10.8470607
20
78.5482252
40
0.7214806
50
181.1071959
51
193.3839643
0
ARC
8
DEFAULT_255_1_388
10
11.0354983
20
78.5579904
40
0.9100921
50
179.9924355
51
181.4926257
0
ARC
8
DEFAULT_255_1_388
10
10.942634
20
78.5482904
40
0.650078
50
179.6919448
51
188.655086
0
ARC
8
DEFAULT_255_1_388
10
10.7154397
20
78.5125086
40
0.420088
50
188.4934981
51
202.2188222
0
ARC
8
DEFAULT_255_1_388
10
10.6066204
20
78.4693888
40
0.3030458
50
202.4516374
51
215.9308342
0
ARC
8
DEFAULT_255_1_388
10
10.5399628
20
78.416269
40
0.2179351
50
214.9061987
51
264.2076983
0
ARC
8
DEFAULT_255_1_388
10
10.5505166
20
78.4834867
40
0.2858989
50
263.4629438
51
270.0938577
0
ARC
8
DEFAULT_255_1_388
10
10.55501
20
78.473173
40
0.2756141
50
269.1632216
51
291.0932257
0
ARC
8
DEFAULT_255_1_388
10
10.5642005
20
78.4358218
40
0.2375078
50
292.2675188
51
328.1937653
0
ARC
8
DEFAULT_255_1_388
10
10.4864663
20
78.4919245
40
0.3332054
50
327.040169
51
332.941918
0
ARC
8
DEFAULT_255_1_388
10
10.5328876
20
78.6581122
40
0.2826647
50
27.6808655
51
48.7895461
0
ARC
8
DEFAULT_255_1_388
10
10.5647512
20
78.6874738
40
0.2396281
50
49.8958562
51
87.0102063
0
ARC
8
DEFAULT_255_1_388
10
10.5530356
20
78.5988941
40
0.3287745
50
85.7763593
51
90.0424518
0
ARC
8
DEFAULT_255_1_388
10
10.5497423
20
78.6730766
40
0.25461
50
89.3136862
51
109.426258
0
ARC
8
DEFAULT_255_1_388
10
10.5413845
20
78.707391
40
0.2194978
50
110.3479382
51
145.1577921
0
ARC
8
DEFAULT_255_1_388
10
10.6149325
20
78.653819
40
0.3104736
50
144.7981654
51
162.8715843
0
ARC
8
DEFAULT_255_1_388
10
10.8055925
20
78.5925138
40
0.5107383
50
162.598526
51
173.3417416
0
ARC
8
DEFAULT_255_1_388
10
11.1057298
20
78.5552767
40
0.8131718
50
173.1877249
51
180.2459848
0
LINE
8
DEFAULT_255_1_388
10
11.8168787
20
78.0738
11
11.8132645
21
78.1704814
0
LINE
8
DEFAULT_255_1_388
10
11.2060691
20
78.4153474
11
11.2060691
21
79.0514567
0
LINE
8
DEFAULT_255_1_388
10
11.2060691
20
79.0514567
11
11.3732286
21
79.0514567
0
LINE
8
DEFAULT_255_1_388
10
11.3732286
20
79.0514567
11
11.3732286
21
78.4198652
0
LINE
8
DEFAULT_255_1_388
10
11.8087466
20
78.3403515
11
11.8087466
21
79.0514567
0
LINE
8
DEFAULT_255_1_388
10
11.8087466
20
79.0514567
11
11.9759061
21
79.0514567
0
LINE
8
DEFAULT_255_1_388
10
11.9759061
20
79.0514567
11
11.9759061
21
78.0738
0
LINE
8
DEFAULT_255_1_388
10
11.9759061
20
78.0738
11
11.8168787
21
78.0738
0
ARC
8
DEFAULT_255_1_388
10
11.5752683
20
78.3749675
40
0.3137782
50
282.5436457
51
319.3308483
0
ARC
8
DEFAULT_255_1_388
10
11.5317109
20
78.5444138
40
0.4886732
50
269.8919644
51
283.213949
0
ARC
8
DEFAULT_255_1_388
10
11.5268078
20
78.6848412
40
0.6291125
50
270.0024363
51
270.3626317
0
ARC
8
DEFAULT_255_1_388
10
11.5234056
20
78.4847026
40
0.4289875
50
257.7354503
51
270.4579702
0
ARC
8
DEFAULT_255_1_388
10
11.4899594
20
78.3385679
40
0.2790881
50
233.3385202
51
258.072161
0
ARC
8
DEFAULT_255_1_388
10
11.4748459
20
78.3138828
40
0.250276
50
221.9625878
51
232.7397557
0
ARC
8
DEFAULT_255_1_388
10
11.5063422
20
78.3380961
40
0.2899023
50
197.9449652
51
221.3587453
0
ARC
8
DEFAULT_255_1_388
10
11.6632927
20
78.3917197
40
0.4557469
50
185.8086112
51
198.2791204
0
ARC
8
DEFAULT_255_1_388
10
11.8761675
20
78.4170327
40
0.6701004
50
180.1441004
51
186.1197471
0
ARC
8
DEFAULT_255_1_388
10
11.7747353
20
78.4158589
40
0.4015267
50
179.428312
51
191.0738067
0
ARC
8
DEFAULT_255_1_388
10
11.5853535
20
78.376762
40
0.2081712
50
190.5250706
51
212.6989599
0
ARC
8
DEFAULT_255_1_388
10
11.5331303
20
78.3479416
40
0.1487075
50
214.2246262
51
264.4398306
0
ARC
8
DEFAULT_255_1_388
10
11.5530816
20
78.4502845
40
0.2526976
50
262.1851951
51
270.1949702
0
ARC
8
DEFAULT_255_1_388
10
11.557792
20
78.593846
40
0.3962764
50
269.4432626
51
282.9581304
0
ARC
8
DEFAULT_255_1_388
10
11.595672
20
78.4397077
40
0.2375807
50
282.3910141
51
311.9723859
0
ARC
8
DEFAULT_255_1_388
10
11.5965253
20
78.4315255
40
0.2309774
50
313.1724921
51
336.7508062
0
LINE
8
DEFAULT_255_1_388
10
12.8523636
20
78.3819155
11
13.0104874
21
78.3819155
0
LINE
8
DEFAULT_255_1_388
10
12.1864366
20
78.5535927
11
12.1864366
21
78.5816032
0
LINE
8
DEFAULT_255_1_388
10
13.0104874
20
78.7153308
11
12.8523636
21
78.7153308
0
LINE
8
DEFAULT_255_1_388
10
12.353596
20
78.5752783
11
12.353596
21
78.5436535
0
ARC
8
DEFAULT_255_1_388
10
12.6260193
20
78.4329109
40
0.2407783
50
269.0327343
51
309.2224588
0
ARC
8
DEFAULT_255_1_388
10
12.6496196
20
78.408719
40
0.207135
50
308.3965377
51
329.6987678
0
ARC
8
DEFAULT_255_1_388
10
12.6651255
20
78.3969899
40
0.1878439
50
330.4013397
51
355.3970937
0
ARC
8
DEFAULT_255_1_388
10
12.7165239
20
78.3989312
40
0.2944555
50
329.2357424
51
356.6872018
0
ARC
8
DEFAULT_255_1_388
10
12.6547134
20
78.4316153
40
0.3643032
50
324.8702872
51
329.7911998
0
ARC
8
DEFAULT_255_1_388
10
12.6458416
20
78.4392113
40
0.3759315
50
298.8769973
51
324.7015261
0
ARC
8
DEFAULT_255_1_388
10
12.608496
20
78.498729
40
0.4461015
50
296.902888
51
299.3854973
0
ARC
8
DEFAULT_255_1_388
10
12.6230957
20
78.4663595
40
0.4106323
50
269.8407861
51
297.1298875
0
ARC
8
DEFAULT_255_1_388
10
12.6170953
20
78.5381354
40
0.4824312
50
253.3156606
51
270.5771301
0
ARC
8
DEFAULT_255_1_388
10
12.5893131
20
78.4375943
40
0.3781531
50
221.1002518
51
252.9743523
0
ARC
8
DEFAULT_255_1_388
10
12.6410601
20
78.4820131
40
0.4463481
50
194.5394284
51
221.0302764
0
ARC
8
DEFAULT_255_1_388
10
12.8490422
20
78.5399897
40
0.6622359
50
182.0498004
51
194.8774376
0
ARC
8
DEFAULT_255_1_388
10
13.0483511
20
78.5532778
40
0.8619146
50
179.9790673
51
182.4586753
0
ARC
8
DEFAULT_255_1_388
10
12.8526825
20
78.5849412
40
0.6662543
50
168.615001
51
180.2870547
0
ARC
8
DEFAULT_255_1_388
10
12.7174734
20
78.6114636
40
0.5284705
50
154.9162417
51
168.5402053
0
ARC
8
DEFAULT_255_1_388
10
12.613801
20
78.6626942
40
0.4128641
50
133.5745308
51
155.2559538
0
ARC
8
DEFAULT_255_1_388
10
12.5954853
20
78.6783116
40
0.3889328
50
122.0165845
51
133.2056002
0
ARC
8
DEFAULT_255_1_388
10
12.5995177
20
78.6683977
40
0.3994808
50
97.8732516
51
121.753124
0
ARC
8
DEFAULT_255_1_388
10
12.6196635
20
78.549459
40
0.5200708
50
89.8471322
51
98.2768545
0
ARC
8
DEFAULT_255_1_388
10
12.6251483
20
78.6180809
40
0.4514657
50
73.3760755
51
90.5199878
0
ARC
8
DEFAULT_255_1_388
10
12.6472399
20
78.699355
40
0.3672743
50
47.7085939
51
73.0510707
0
ARC
8
DEFAULT_255_1_388
10
12.6618502
20
78.7120231
40
0.3480795
50
3.7442743
51
48.0844373
0
ARC
8
DEFAULT_255_1_388
10
12.5506496
20
78.6942946
40
0.4603187
50
2.6192831
51
5.0424684
0
ARC
8
DEFAULT_255_1_388
10
12.6021967
20
78.6987986
40
0.2507126
50
3.78087
51
23.9354314
0
ARC
8
DEFAULT_255_1_388
10
12.6279226
20
78.7078644
40
0.2235311
50
24.4867863
51
46.9439952
0
ARC
8
DEFAULT_255_1_388
10
12.6280172
20
78.7104874
40
0.2215567
50
46.4987715
51
89.3298168
0
ARC
8
DEFAULT_255_1_388
10
12.621083
20
78.6438742
40
0.2883121
50
88.1066411
51
90.0063536
0
ARC
8
DEFAULT_255_1_388
10
12.6179806
20
78.6496548
40
0.2825481
50
89.3773571
51
107.2070287
0
ARC
8
DEFAULT_255_1_388
10
12.6019075
20
78.7078667
40
0.2221946
50
107.688418
51
143.3582986
0
ARC
8
DEFAULT_255_1_388
10
12.6657369
20
78.6599064
40
0.3020337
50
143.2845866
51
162.9352432
0
ARC
8
DEFAULT_255_1_388
10
12.8351385
20
78.6055401
40
0.4799362
50
162.6652705
51
174.0802646
0
ARC
8
DEFAULT_255_1_388
10
13.0761866
20
78.5775287
40
0.7225942
50
173.8422673
51
180.1784414
0
ARC
8
DEFAULT_255_1_388
10
13.0145536
20
78.5402276
40
0.6609665
50
179.7030218
51
188.2277356
0
ARC
8
DEFAULT_255_1_388
10
12.7781144
20
78.5048143
40
0.4218948
50
188.0630838
51
201.115837
0
ARC
8
DEFAULT_255_1_388
10
12.6546029
20
78.457673
40
0.2896941
50
201.2186162
51
216.9761863
0
ARC
8
DEFAULT_255_1_388
10
12.6038186
20
78.4196225
40
0.2262366
50
217.0136373
51
265.2055518
0
ARC
8
DEFAULT_255_1_388
10
12.6213523
20
78.5233503
40
0.3311837
50
263.6824874
51
270.1042034
0
LINE
8
DEFAULT_255_1_388
10
13.258064
20
79.2881906
11
13.4252234
21
79.2881906
0
LINE
8
DEFAULT_255_1_388
10
13.4252234
20
79.2881906
11
13.4252234
21
79.0514567
0
LINE
8
DEFAULT_255_1_388
10
13.4252234
20
79.0514567
11
13.6077435
21
79.0514567
0
LINE
8
DEFAULT_255_1_388
10
13.6077435
20
79.0514567
11
13.6077435
21
78.922247
0
LINE
8
DEFAULT_255_1_388
10
13.6077435
20
78.922247
11
13.4252234
21
78.922247
0
LINE
8
DEFAULT_255_1_388
10
13.4252234
20
78.922247
11
13.4252234
21
78.3159553
0
LINE
8
DEFAULT_255_1_388
10
13.6122613
20
78.2093347
11
13.6122613
21
78.0738
0
LINE
8
DEFAULT_255_1_388
10
13.258064
20
78.3159553
11
13.258064
21
78.922247
0
LINE
8
DEFAULT_255_1_388
10
13.258064
20
78.922247
11
13.0800618
21
78.922247
0
LINE
8
DEFAULT_255_1_388
10
13.0800618
20
78.922247
11
13.0800618
21
79.0514567
0
LINE
8
DEFAULT_255_1_388
10
13.0800618
20
79.0514567
11
13.258064
21
79.0514567
0
LINE
8
DEFAULT_255_1_388
10
13.258064
20
79.0514567
11
13.258064
21
79.2881906
0
ARC
8
DEFAULT_255_1_388
10
13.6510742
20
78.3147842
40
0.2258538
50
179.7029045
51
187.9180047
0
ARC
8
DEFAULT_255_1_388
10
13.5671316
20
78.3027019
40
0.1410477
50
187.7540838
51
200.2454047
0
ARC
8
DEFAULT_255_1_388
10
13.5198221
20
78.2850591
40
0.0905561
50
200.1304287
51
219.1733455
0
ARC
8
DEFAULT_255_1_388
10
13.5045388
20
78.2746695
40
0.0721626
50
220.4434631
51
249.6169985
0
ARC
8
DEFAULT_255_1_388
10
13.5219614
20
78.3184919
40
0.1193141
50
249.1038184
51
262.7745376
0
ARC
8
DEFAULT_255_1_388
10
13.5318796
20
78.3892481
40
0.1907583
50
262.4921618
51
270.2607019
0
ARC
8
DEFAULT_255_1_388
10
13.5315878
20
78.4134817
40
0.2149929
50
270.309081
51
275.6615459
0
ARC
8
DEFAULT_255_1_388
10
13.5155286
20
78.5823342
40
0.3846066
50
275.5607354
51
279.087751
0
ARC
8
DEFAULT_255_1_388
10
13.4783218
20
78.8184428
40
0.6236283
50
279.0369545
51
281.5000133
0
ARC
8
DEFAULT_255_1_388
10
13.4392486
20
79.0161499
40
0.825157
50
281.4217093
51
282.1031556
0
ARC
8
DEFAULT_255_1_388
10
13.4768461
20
78.5618229
40
0.5064619
50
275.2597791
51
285.5081125
0
ARC
8
DEFAULT_255_1_388
10
13.4837475
20
78.4992452
40
0.4435166
50
270.0268175
51
275.1130565
0
ARC
8
DEFAULT_255_1_388
10
13.4814927
20
78.3499367
40
0.2942182
50
257.3572424
51
270.4795428
0
ARC
8
DEFAULT_255_1_388
10
13.4575197
20
78.2488952
40
0.1903838
50
230.8036715
51
257.7414447
0
ARC
8
DEFAULT_255_1_388
10
13.4498693
20
78.2365723
40
0.1760087
50
219.9745381
51
230.1985446
0
ARC
8
DEFAULT_255_1_388
10
13.487198
20
78.2651116
40
0.2229598
50
196.5081334
51
219.4319996
0
ARC
8
DEFAULT_255_1_388
10
13.6014592
20
78.3009617
40
0.3427033
50
184.6408645
51
196.8266009
0
ARC
8
DEFAULT_255_1_388
10
13.7415497
20
78.315101
40
0.4834863
50
179.8987586
51
184.9677262
0
LINE
8
DEFAULT_255_1_388
10
13.9845298
20
79.0514567
11
13.9845298
21
78.0738
0
LINE
8
DEFAULT_255_1_388
10
13.9845298
20
78.0738
11
13.8173704
21
78.0738
0
LINE
8
DEFAULT_255_1_388
10
13.8173704
20
78.0738
11
13.8173704
21
79.0514567
0
LINE
8
DEFAULT_255_1_388
10
13.8173704
20
79.0514567
11
13.9845298
21
79.0514567
0
ARC
8
DEFAULT_255_1_388
10
13.9139066
20
79.3118428
40
0.1100948
50
161.4148232
51
180.5532607
0
ARC
8
DEFAULT_255_1_388
10
13.8999376
20
79.3156875
40
0.0956324
50
138.1830164
51
160.9307633
0
ARC
8
DEFAULT_255_1_388
10
13.8875563
20
79.3264313
40
0.0792417
50
104.6371663
51
138.0036136
0
ARC
8
DEFAULT_255_1_388
10
13.8996102
20
79.2851963
40
0.1221906
50
92.0601206
51
105.2198859
0
ARC
8
DEFAULT_255_1_388
10
13.9022466
20
79.2463583
40
0.161103
50
89.9790681
51
92.5006086
0
ARC
8
DEFAULT_255_1_388
10
13.9033642
20
79.2719998
40
0.1354654
50
78.0234649
51
90.4478111
0
ARC
8
DEFAULT_255_1_388
10
13.9137227
20
79.3185203
40
0.0878096
50
55.0521508
51
78.336297
0
ARC
8
DEFAULT_255_1_388
10
13.9193761
20
79.3280168
40
0.0767913
50
42.0506198
51
54.4508489
0
ARC
8
DEFAULT_255_1_388
10
13.9041794
20
79.3140821
40
0.0974091
50
1.7493657
51
42.1498724
0
ARC
8
DEFAULT_255_1_388
10
13.87557
20
79.3108166
40
0.1261276
50
359.9832635
51
2.8353994
0
ARC
8
DEFAULT_255_1_388
10
13.8942109
20
79.3097412
40
0.1074916
50
342.1062453
51
0.5535864
0
ARC
8
DEFAULT_255_1_388
10
13.9102534
20
79.3053197
40
0.0908695
50
316.7110111
51
341.6513114
0
ARC
8
DEFAULT_255_1_388
10
13.9177966
20
79.2985607
40
0.0807447
50
285.4398289
51
316.5320129
0
ARC
8
DEFAULT_255_1_388
10
13.9054136
20
79.3397023
40
0.1237022
50
272.3543902
51
285.8951677
0
ARC
8
DEFAULT_255_1_388
10
13.9023846
20
79.3812742
40
0.1653687
50
269.9725761
51
272.8112722
0
ARC
8
DEFAULT_255_1_388
10
13.9012898
20
79.3561727
40
0.1402709
50
258.8433431
51
270.4148607
0
ARC
8
DEFAULT_255_1_388
10
13.8911678
20
79.3071739
40
0.0902407
50
238.54281
51
259.1289544
0
ARC
8
DEFAULT_255_1_388
10
13.8835
20
79.2932694
40
0.0743817
50
222.5056676
51
237.9918132
0
ARC
8
DEFAULT_255_1_388
10
13.8978593
20
79.3063295
40
0.0937918
50
184.1070774
51
222.4604165
0
ARC
8
DEFAULT_255_1_388
10
13.9281007
20
79.3106538
40
0.1242838
50
179.9419581
51
185.0970785
0
LINE
8
DEFAULT_255_1_388
10
14.3260772
20
79.0514567
11
14.5745574
21
78.3005947
0
LINE
8
DEFAULT_255_1_388
10
14.5745574
20
78.3005947
11
14.8167127
21
79.0514567
0
LINE
8
DEFAULT_255_1_388
10
14.8167127
20
79.0514567
11
14.9874864
21
79.0514567
0
LINE
8
DEFAULT_255_1_388
10
14.9874864
20
79.0514567
11
14.6369034
21
78.0738
0
LINE
8
DEFAULT_255_1_388
10
14.6369034
20
78.0738
11
14.5095008
21
78.0738
0
LINE
8
DEFAULT_255_1_388
10
14.5095008
20
78.0738
11
14.1553035
21
79.0514567
0
LINE
8
DEFAULT_255_1_388
10
14.1553035
20
79.0514567
11
14.3260772
21
79.0514567
0
LINE
8
DEFAULT_255_1_388
10
15.3299373
20
79.0514567
11
15.3299373
21
78.0738
0
LINE
8
DEFAULT_255_1_388
10
15.3299373
20
78.0738
11
15.1627779
21
78.0738
0
LINE
8
DEFAULT_255_1_388
10
15.1627779
20
78.0738
11
15.1627779
21
79.0514567
0
LINE
8
DEFAULT_255_1_388
10
15.1627779
20
79.0514567
11
15.3299373
21
79.0514567
0
ARC
8
DEFAULT_255_1_388
10
15.2593141
20
79.3118428
40
0.1100948
50
161.4148232
51
180.5532607
0
ARC
8
DEFAULT_255_1_388
10
15.2453451
20
79.3156875
40
0.0956324
50
138.1830164
51
160.9307633
0
ARC
8
DEFAULT_255_1_388
10
15.2329638
20
79.3264313
40
0.0792417
50
104.6371663
51
138.0036136
0
ARC
8
DEFAULT_255_1_388
10
15.2450177
20
79.2851963
40
0.1221906
50
92.0601206
51
105.2198859
0
ARC
8
DEFAULT_255_1_388
10
15.2476541
20
79.2463583
40
0.161103
50
89.9790681
51
92.5006086
0
ARC
8
DEFAULT_255_1_388
10
15.2487717
20
79.2719998
40
0.1354654
50
78.0234649
51
90.4478111
0
ARC
8
DEFAULT_255_1_388
10
15.2591301
20
79.3185203
40
0.0878096
50
55.0521508
51
78.336297
0
ARC
8
DEFAULT_255_1_388
10
15.2647836
20
79.3280168
40
0.0767913
50
42.0506198
51
54.4508489
0
ARC
8
DEFAULT_255_1_388
10
15.2495869
20
79.3140821
40
0.0974091
50
1.7493657
51
42.1498724
0
ARC
8
DEFAULT_255_1_388
10
15.2209774
20
79.3108166
40
0.1261276
50
359.9832635
51
2.8353994
0
ARC
8
DEFAULT_255_1_388
10
15.2396184
20
79.3097412
40
0.1074916
50
342.1062453
51
0.5535864
0
ARC
8
DEFAULT_255_1_388
10
15.2556608
20
79.3053197
40
0.0908695
50
316.7110111
51
341.6513114
0
ARC
8
DEFAULT_255_1_388
10
15.263204
20
79.2985607
40
0.0807447
50
285.4398289
51
316.5320129
0
ARC
8
DEFAULT_255_1_388
10
15.2508211
20
79.3397023
40
0.1237022
50
272.3543902
51
285.8951677
0
ARC
8
DEFAULT_255_1_388
10
15.2477921
20
79.3812742
40
0.1653687
50
269.9725761
51
272.8112722
0
ARC
8
DEFAULT_255_1_388
10
15.2466973
20
79.3561727
40
0.1402709
50
258.8433431
51
270.4148607
0
ARC
8
DEFAULT_255_1_388
10
15.2365753
20
79.3071739
40
0.0902407
50
238.54281
51
259.1289544
0
ARC
8
DEFAULT_255_1_388
10
15.2289074
20
79.2932694
40
0.0743817
50
222.5056676
51
237.9918132
0
ARC
8
DEFAULT_255_1_388
10
15.2432668
20
79.3063295
40
0.0937918
50
184.1070774
51
222.4604165
0
ARC
8
DEFAULT_255_1_388
10
15.2735081
20
79.3106538
40
0.1242838
50
179.9419581
51
185.0970785
0
LINE
8
DEFAULT_255_1_388
10
15.6570276
20
79.2881906
11
15.8241871
21
79.2881906
0
LINE
8
DEFAULT_255_1_388
10
15.8241871
20
79.2881906
11
15.8241871
21
79.0514567
0
LINE
8
DEFAULT_255_1_388
10
15.8241871
20
79.0514567
11
16.0067071
21
79.0514567
0
LINE
8
DEFAULT_255_1_388
10
16.0067071
20
79.0514567
11
16.0067071
21
78.922247
0
LINE
8
DEFAULT_255_1_388
10
16.0067071
20
78.922247
11
15.8241871
21
78.922247
0
LINE
8
DEFAULT_255_1_388
10
15.8241871
20
78.922247
11
15.8241871
21
78.3159553
0
LINE
8
DEFAULT_255_1_388
10
16.0112249
20
78.2093347
11
16.0112249
21
78.0738
0
LINE
8
DEFAULT_255_1_388
10
15.6570276
20
78.3159553
11
15.6570276
21
78.922247
0
LINE
8
DEFAULT_255_1_388
10
15.6570276
20
78.922247
11
15.4790254
21
78.922247
0
LINE
8
DEFAULT_255_1_388
10
15.4790254
20
78.922247
11
15.4790254
21
79.0514567
0
LINE
8
DEFAULT_255_1_388
10
15.4790254
20
79.0514567
11
15.6570276
21
79.0514567
0
LINE
8
DEFAULT_255_1_388
10
15.6570276
20
79.0514567
11
15.6570276
21
79.2881906
0
ARC
8
DEFAULT_255_1_388
10
16.0500378
20
78.3147842
40
0.2258538
50
179.7029045
51
187.9180047
0
ARC
8
DEFAULT_255_1_388
10
15.9660952
20
78.3027019
40
0.1410477
50
187.7540838
51
200.2454047
0
ARC
8
DEFAULT_255_1_388
10
15.9187858
20
78.2850591
40
0.0905561
50
200.1304287
51
219.1733455
0
ARC
8
DEFAULT_255_1_388
10
15.9035024
20
78.2746695
40
0.0721626
50
220.4434631
51
249.6169985
0
ARC
8
DEFAULT_255_1_388
10
15.9209251
20
78.3184919
40
0.1193141
50
249.1038184
51
262.7745376
0
ARC
8
DEFAULT_255_1_388
10
15.9308433
20
78.3892481
40
0.1907583
50
262.4921618
51
270.2607019
0
ARC
8
DEFAULT_255_1_388
10
15.9305515
20
78.4134817
40
0.2149929
50
270.309081
51
275.6615459
0
ARC
8
DEFAULT_255_1_388
10
15.9144922
20
78.5823342
40
0.3846066
50
275.5607354
51
279.087751
0
ARC
8
DEFAULT_255_1_388
10
15.8772854
20
78.8184428
40
0.6236283
50
279.0369545
51
281.5000133
0
ARC
8
DEFAULT_255_1_388
10
15.8382122
20
79.0161499
40
0.825157
50
281.4217093
51
282.1031556
0
ARC
8
DEFAULT_255_1_388
10
15.8758098
20
78.5618229
40
0.5064619
50
275.2597791
51
285.5081125
0
ARC
8
DEFAULT_255_1_388
10
15.8827112
20
78.4992452
40
0.4435166
50
270.0268175
51
275.1130565
0
ARC
8
DEFAULT_255_1_388
10
15.8804563
20
78.3499367
40
0.2942182
50
257.3572424
51
270.4795428
0
ARC
8
DEFAULT_255_1_388
10
15.8564833
20
78.2488952
40
0.1903838
50
230.8036715
51
257.7414447
0
ARC
8
DEFAULT_255_1_388
10
15.8488329
20
78.2365723
40
0.1760087
50
219.9745381
51
230.1985446
0
ARC
8
DEFAULT_255_1_388
10
15.8861617
20
78.2651116
40
0.2229598
50
196.5081334
51
219.4319996
0
ARC
8
DEFAULT_255_1_388
10
16.0004228
20
78.3009617
40
0.3427033
50
184.6408645
51
196.8266009
0
ARC
8
DEFAULT_255_1_388
10
16.1405134
20
78.315101
40
0.4834863
50
179.8987586
51
184.9677262
0
LINE
8
DEFAULT_255_1_388
10
16.2777764
20
79.0514567
11
16.5217388
21
78.318666
0
LINE
8
DEFAULT_255_1_388
10
16.5217388
20
78.318666
11
16.7494371
21
79.0514567
0
LINE
8
DEFAULT_255_1_388
10
16.7494371
20
79.0514567
11
16.9283428
21
79.0514567
0
LINE
8
DEFAULT_255_1_388
10
16.9283428
20
79.0514567
11
16.5352923
21
77.9229047
0
LINE
8
DEFAULT_255_1_388
10
16.2452481
20
77.6789423
11
16.2136233
21
77.681653
0
LINE
8
DEFAULT_255_1_388
10
16.2136233
20
77.681653
11
16.1512774
21
77.6933994
0
LINE
8
DEFAULT_255_1_388
10
16.1512774
20
77.6933994
11
16.1512774
21
77.828934
0
LINE
8
DEFAULT_255_1_388
10
16.1512774
20
77.828934
11
16.1964556
21
77.8253198
0
LINE
8
DEFAULT_255_1_388
10
16.4069861
20
77.9852507
11
16.4440323
21
78.0846428
0
LINE
8
DEFAULT_255_1_388
10
16.4440323
20
78.0846428
11
16.0952564
21
79.0514567
0
LINE
8
DEFAULT_255_1_388
10
16.0952564
20
79.0514567
11
16.2777764
21
79.0514567
0
ARC
8
DEFAULT_255_1_388
10
16.0138998
20
78.1124303
40
0.5547703
50
327.7224407
51
340.0238521
0
ARC
8
DEFAULT_255_1_388
10
16.2110157
20
77.9851231
40
0.3201385
50
305.2165641
51
328.1467003
0
ARC
8
DEFAULT_255_1_388
10
16.2498379
20
77.9391258
40
0.260224
50
268.9893726
51
304.0733864
0
ARC
8
DEFAULT_255_1_388
10
16.1981137
20
78.1667952
40
0.3414794
50
269.7217889
51
278.0406077
0
ARC
8
DEFAULT_255_1_388
10
16.215639
20
78.0475724
40
0.2209783
50
277.8651481
51
290.8634591
0
ARC
8
DEFAULT_255_1_388
10
16.2390371
20
77.9850914
40
0.1542617
50
291.0076566
51
305.5961613
0
ARC
8
DEFAULT_255_1_388
10
16.2369246
20
77.9833164
40
0.1540723
50
306.6192176
51
324.1022951
0
ARC
8
DEFAULT_255_1_388
10
16.1528896
20
78.0456842
40
0.2587177
50
323.8256989
51
334.2991437
0
ARC
8
DEFAULT_255_1_388
10
16.0129584
20
78.1144118
40
0.4146127
50
334.1272297
51
340.8153479
0
ARC
8
DEFAULT_255_1_388
10
15.9070103
20
78.1535101
40
0.5275293
50
340.5860638
51
341.400105
0
LINE
8
DEFAULT_255_1_388
10
17.6096304
20
79.3957148
11
17.6096304
21
78.0738
0
LINE
8
DEFAULT_255_1_388
10
17.6096304
20
78.0738
11
17.4415674
21
78.0738
0
LINE
8
DEFAULT_255_1_388
10
17.4415674
20
78.0738
11
17.4415674
21
79.187895
0
LINE
8
DEFAULT_255_1_388
10
17.4415674
20
79.187895
11
17.1045379
21
79.0641066
0
LINE
8
DEFAULT_255_1_388
10
17.1045379
20
79.0641066
11
17.1045379
21
79.2159055
0
LINE
8
DEFAULT_255_1_388
10
17.1045379
20
79.2159055
11
17.5834271
21
79.3957148
0
LINE
8
DEFAULT_255_1_388
10
17.5834271
20
79.3957148
11
17.6096304
21
79.3957148
0
LINE
8
DEFAULT_255_1_388
10
18.9243167
20
78.851769
11
18.9243167
21
78.6349135
0
LINE
8
DEFAULT_255_1_388
10
18.093941
20
78.6123244
11
18.093941
21
78.8355048
0
LINE
8
DEFAULT_255_1_388
10
18.7571573
20
78.5897353
11
18.7571573
21
78.8635153
0
LINE
8
DEFAULT_255_1_388
10
18.2611004
20
78.8761652
11
18.2611004
21
78.6087102
0
ARC
8
DEFAULT_255_1_388
10
17.5465501
20
78.6294118
40
1.3777776
50
353.8440855
51
0.2287917
0
ARC
8
DEFAULT_255_1_388
10
18.0684518
20
78.5711414
40
0.852639
50
344.4934746
51
353.9763743
0
ARC
8
DEFAULT_255_1_388
10
18.4051326
20
78.4754191
40
0.5026273
50
329.2803599
51
344.7473406
0
ARC
8
DEFAULT_255_1_388
10
18.5166821
20
78.4142038
40
0.3754848
50
324.9361395
51
328.6153007
0
ARC
8
DEFAULT_255_1_388
10
18.5592471
20
78.3844586
40
0.3235566
50
280.5801797
51
324.9173226
0
ARC
8
DEFAULT_255_1_388
10
18.51411
20
78.5724236
40
0.5167077
50
269.5979457
51
281.6732777
0
ARC
8
DEFAULT_255_1_388
10
18.5060003
20
78.5589113
40
0.5032026
50
256.6228565
51
270.5105488
0
ARC
8
DEFAULT_255_1_388
10
18.4607746
20
78.3847345
40
0.3233092
50
215.8618351
51
257.2787793
0
ARC
8
DEFAULT_255_1_388
10
18.5756453
20
78.4618106
40
0.4615831
50
197.9695203
51
215.2622745
0
ARC
8
DEFAULT_255_1_388
10
18.8552129
20
78.5561641
40
0.7566307
50
187.8816486
51
198.2346584
0
ARC
8
DEFAULT_255_1_388
10
19.3005367
20
78.6204453
40
1.2065653
50
180.8977266
51
188.0054894
0
ARC
8
DEFAULT_255_1_388
10
19.6055581
20
78.63194
40
1.5117443
50
180.7434591
51
181.152202
0
ARC
8
DEFAULT_255_1_388
10
19.4380576
20
78.8409371
40
1.3441277
50
173.7674302
51
180.2315596
0
ARC
8
DEFAULT_255_1_388
10
18.9298445
20
78.8983779
40
0.8326847
50
164.3058537
51
173.9000553
0
ARC
8
DEFAULT_255_1_388
10
18.6022445
20
78.9927652
40
0.4917711
50
148.7922028
51
164.5682288
0
ARC
8
DEFAULT_255_1_388
10
18.4953183
20
79.0524457
40
0.3694204
50
144.5883979
51
148.1161588
0
ARC
8
DEFAULT_255_1_388
10
18.4565928
20
79.0794667
40
0.322202
50
101.6440149
51
144.5142619
0
ARC
8
DEFAULT_255_1_388
10
18.504412
20
78.8894337
40
0.5180451
50
89.528284
51
102.5820197
0
ARC
8
DEFAULT_255_1_388
10
18.5133112
20
78.8850376
40
0.5224441
50
77.0437914
51
90.508231
0
ARC
8
DEFAULT_255_1_388
10
18.5585366
20
79.0698272
40
0.3322297
50
48.2777708
51
77.4996087
0
ARC
8
DEFAULT_255_1_388
10
18.5667106
20
79.0843557
40
0.315966
50
36.3141586
51
47.6307332
0
ARC
8
DEFAULT_255_1_388
10
18.4689828
20
79.0185159
40
0.4337313
50
18.2931065
51
35.6770203
0
ARC
8
DEFAULT_255_1_388
10
18.1828669
20
78.9203107
40
0.7362203
50
8.0246996
51
18.5605636
0
ARC
8
DEFAULT_255_1_388
10
17.7145024
20
78.8511432
40
1.2096583
50
1.127539
51
8.1718423
0
ARC
8
DEFAULT_255_1_388
10
17.3496158
20
78.8368374
40
1.5747719
50
0.5432713
51
1.38669
0
ARC
8
DEFAULT_255_1_388
10
17.5553537
20
78.8675163
40
1.2018103
50
359.8092569
51
4.9408001
0
ARC
8
DEFAULT_255_1_388
10
18.0290118
20
78.90979
40
0.7262727
50
4.8364937
51
12.2906017
0
ARC
8
DEFAULT_255_1_388
10
18.3389583
20
78.9788485
40
0.4087324
50
12.0806994
51
23.8171225
0
ARC
8
DEFAULT_255_1_388
10
18.4709979
20
79.0347508
40
0.2653719
50
24.2874621
51
31.3934353
0
ARC
8
DEFAULT_255_1_388
10
18.5300415
20
79.0733822
40
0.1948607
50
30.7407708
51
82.4658033
0
ARC
8
DEFAULT_255_1_388
10
18.5098075
20
78.9740017
40
0.2961198
50
81.1057101
51
90.2187368
0
ARC
8
DEFAULT_255_1_388
10
18.5057887
20
79.0030421
40
0.2670929
50
89.380395
51
105.6763916
0
ARC
8
DEFAULT_255_1_388
10
18.4851609
20
79.078032
40
0.1893189
50
105.7980655
51
149.7387869
0
ARC
8
DEFAULT_255_1_388
10
18.6048749
20
79.0060719
40
0.3289892
50
149.4208441
51
163.628295
0
ARC
8
DEFAULT_255_1_388
10
18.8400979
20
78.9343345
40
0.5749004
50
163.3764549
51
172.141138
0
ARC
8
DEFAULT_255_1_388
10
19.21137
20
78.8811582
40
0.9499585
50
172.0258462
51
178.0705453
0
ARC
8
DEFAULT_255_1_388
10
19.5535253
20
78.8649682
40
1.2924734
50
177.8639301
51
179.5036263
0
ARC
8
DEFAULT_255_1_388
10
19.4316272
20
78.6046151
40
1.170534
50
179.7995545
51
185.246089
0
ARC
8
DEFAULT_255_1_388
10
18.9767865
20
78.5615404
40
0.7136613
50
185.1411911
51
193.0082205
0
ARC
8
DEFAULT_255_1_388
10
18.6794126
20
78.4912441
40
0.4080987
50
192.7897338
51
205.2507384
0
ARC
8
DEFAULT_255_1_388
10
18.5616336
20
78.4386538
40
0.2791522
50
205.8001921
51
211.2545876
0
ARC
8
DEFAULT_255_1_388
10
18.5027875
20
78.3992132
40
0.2084074
50
210.3789935
51
238.4007996
0
ARC
8
DEFAULT_255_1_388
10
18.5005961
20
78.4044786
40
0.2117943
50
239.6521916
51
265.9793852
0
ARC
8
DEFAULT_255_1_388
10
18.510181
20
78.4801358
40
0.2879689
50
265.1324455
51
270.0603288
0
ARC
8
DEFAULT_255_1_388
10
18.5134187
20
78.4436418
40
0.2514919
50
269.3314378
51
287.2180039
0
ARC
8
DEFAULT_255_1_388
10
18.5289269
20
78.3870291
40
0.1928357
50
287.7957942
51
329.0808983
0
ARC
8
DEFAULT_255_1_388
10
18.4212026
20
78.4542651
40
0.319808
50
328.6635261
51
343.3325043
0
ARC
8
DEFAULT_255_1_388
10
18.1767485
20
78.5304195
40
0.5758408
50
343.0498092
51
351.9392499
0
ARC
8
DEFAULT_255_1_388
10
17.7866806
20
78.5879205
40
0.9701202
50
351.8071632
51
357.7957897
0
ARC
8
DEFAULT_255_1_388
10
17.4232283
20
78.6067724
40
1.3340376
50
357.5870923
51
359.2682493
0
LINE
8
DEFAULT_255_1_388
10
19.9634158
20
78.851769
11
19.9634158
21
78.6349135
0
LINE
8
DEFAULT_255_1_388
10
19.1330401
20
78.6123244
11
19.1330401
21
78.8355048
0
LINE
8
DEFAULT_255_1_388
10
19.7962564
20
78.5897353
11
19.7962564
21
78.8635153
0
LINE
8
DEFAULT_255_1_388
10
19.3001995
20
78.8761652
11
19.3001995
21
78.6087102
0
ARC
8
DEFAULT_255_1_388
10
18.5856492
20
78.6294118
40
1.3777776
50
353.8440855
51
0.2287917
0
ARC
8
DEFAULT_255_1_388
10
19.107551
20
78.5711414
40
0.852639
50
344.4934746
51
353.9763743
0
ARC
8
DEFAULT_255_1_388
10
19.4442317
20
78.4754191
40
0.5026273
50
329.2803599
51
344.7473406
0
ARC
8
DEFAULT_255_1_388
10
19.5557812
20
78.4142038
40
0.3754848
50
324.9361395
51
328.6153007
0
ARC
8
DEFAULT_255_1_388
10
19.5983462
20
78.3844586
40
0.3235566
50
280.5801797
51
324.9173226
0
ARC
8
DEFAULT_255_1_388
10
19.5532091
20
78.5724236
40
0.5167077
50
269.5979457
51
281.6732777
0
ARC
8
DEFAULT_255_1_388
10
19.5450994
20
78.5589113
40
0.5032026
50
256.6228565
51
270.5105488
0
ARC
8
DEFAULT_255_1_388
10
19.4998737
20
78.3847345
40
0.3233092
50
215.8618351
51
257.2787793
0
ARC
8
DEFAULT_255_1_388
10
19.6147444
20
78.4618106
40
0.4615831
50
197.9695203
51
215.2622745
0
ARC
8
DEFAULT_255_1_388
10
19.894312
20
78.5561641
40
0.7566307
50
187.8816486
51
198.2346584
0
ARC
8
DEFAULT_255_1_388
10
20.3396358
20
78.6204453
40
1.2065653
50
180.8977266
51
188.0054894
0
ARC
8
DEFAULT_255_1_388
10
20.6446572
20
78.63194
40
1.5117443
50
180.7434591
51
181.152202
0
ARC
8
DEFAULT_255_1_388
10
20.4771568
20
78.8409371
40
1.3441277
50
173.7674302
51
180.2315596
0
ARC
8
DEFAULT_255_1_388
10
19.9689437
20
78.8983779
40
0.8326847
50
164.3058537
51
173.9000553
0
ARC
8
DEFAULT_255_1_388
10
19.6413437
20
78.9927652
40
0.4917711
50
148.7922028
51
164.5682288
0
ARC
8
DEFAULT_255_1_388
10
19.5344174
20
79.0524457
40
0.3694204
50
144.5883979
51
148.1161588
0
ARC
8
DEFAULT_255_1_388
10
19.4956919
20
79.0794667
40
0.322202
50
101.6440149
51
144.5142619
0
ARC
8
DEFAULT_255_1_388
10
19.5435112
20
78.8894337
40
0.5180451
50
89.528284
51
102.5820197
0
ARC
8
DEFAULT_255_1_388
10
19.5524103
20
78.8850376
40
0.5224441
50
77.0437914
51
90.508231
0
ARC
8
DEFAULT_255_1_388
10
19.5976357
20
79.0698272
40
0.3322297
50
48.2777708
51
77.4996087
0
ARC
8
DEFAULT_255_1_388
10
19.6058097
20
79.0843557
40
0.315966
50
36.3141586
51
47.6307332
0
ARC
8
DEFAULT_255_1_388
10
19.5080819
20
79.0185159
40
0.4337313
50
18.2931065
51
35.6770203
0
ARC
8
DEFAULT_255_1_388
10
19.221966
20
78.9203107
40
0.7362203
50
8.0246996
51
18.5605636
0
ARC
8
DEFAULT_255_1_388
10
18.7536016
20
78.8511432
40
1.2096583
50
1.127539
51
8.1718423
0
ARC
8
DEFAULT_255_1_388
10
18.3887149
20
78.8368374
40
1.5747719
50
0.5432713
51
1.38669
0
ARC
8
DEFAULT_255_1_388
10
18.5944528
20
78.8675163
40
1.2018103
50
359.8092569
51
4.9408001
0
ARC
8
DEFAULT_255_1_388
10
19.0681109
20
78.90979
40
0.7262727
50
4.8364937
51
12.2906017
0
ARC
8
DEFAULT_255_1_388
10
19.3780574
20
78.9788485
40
0.4087324
50
12.0806994
51
23.8171225
0
ARC
8
DEFAULT_255_1_388
10
19.510097
20
79.0347508
40
0.2653719
50
24.2874621
51
31.3934353
0
ARC
8
DEFAULT_255_1_388
10
19.5691406
20
79.0733822
40
0.1948607
50
30.7407708
51
82.4658033
0
ARC
8
DEFAULT_255_1_388
10
19.5489067
20
78.9740017
40
0.2961198
50
81.1057101
51
90.2187368
0
ARC
8
DEFAULT_255_1_388
10
19.5448878
20
79.0030421
40
0.2670929
50
89.380395
51
105.6763916
0
ARC
8
DEFAULT_255_1_388
10
19.52426
20
79.078032
40
0.1893189
50
105.7980655
51
149.7387869
0
ARC
8
DEFAULT_255_1_388
10
19.643974
20
79.0060719
40
0.3289892
50
149.4208441
51
163.628295
0
ARC
8
DEFAULT_255_1_388
10
19.879197
20
78.9343345
40
0.5749004
50
163.3764549
51
172.141138
0
ARC
8
DEFAULT_255_1_388
10
20.2504692
20
78.8811582
40
0.9499585
50
172.0258462
51
178.0705453
0
ARC
8
DEFAULT_255_1_388
10
20.5926244
20
78.8649682
40
1.2924734
50
177.8639301
51
179.5036263
0
ARC
8
DEFAULT_255_1_388
10
20.4707263
20
78.6046151
40
1.170534
50
179.7995545
51
185.246089
0
ARC
8
DEFAULT_255_1_388
10
20.0158856
20
78.5615404
40
0.7136613
50
185.1411911
51
193.0082205
0
ARC
8
DEFAULT_255_1_388
10
19.7185117
20
78.4912441
40
0.4080987
50
192.7897338
51
205.2507384
0
ARC
8
DEFAULT_255_1_388
10
19.6007327
20
78.4386538
40
0.2791522
50
205.8001921
51
211.2545876
0
ARC
8
DEFAULT_255_1_388
10
19.5418866
20
78.3992132
40
0.2084074
50
210.3789935
51
238.4007996
0
ARC
8
DEFAULT_255_1_388
10
19.5396952
20
78.4044786
40
0.2117943
50
239.6521916
51
265.9793852
0
ARC
8
DEFAULT_255_1_388
10
19.5492801
20
78.4801358
40
0.2879689
50
265.1324455
51
270.0603288
0
ARC
8
DEFAULT_255_1_388
10
19.5525178
20
78.4436418
40
0.2514919
50
269.3314378
51
287.2180039
0
ARC
8
DEFAULT_255_1_388
10
19.568026
20
78.3870291
40
0.1928357
50
287.7957942
51
329.0808983
0
ARC
8
DEFAULT_255_1_388
10
19.4603017
20
78.4542651
40
0.319808
50
328.6635261
51
343.3325043
0
ARC
8
DEFAULT_255_1_388
10
19.2158476
20
78.5304195
40
0.5758408
50
343.0498092
51
351.9392499
0
ARC
8
DEFAULT_255_1_388
10
18.8257797
20
78.5879205
40
0.9701202
50
351.8071632
51
357.7957897
0
ARC
8
DEFAULT_255_1_388
10
18.4623274
20
78.6067724
40
1.3340376
50
357.5870923
51
359.2682493
0
LINE
8
DEFAULT_255_1_388
10
21.0025149
20
78.851769
11
21.0025149
21
78.6349135
0
LINE
8
DEFAULT_255_1_388
10
20.1721392
20
78.6123244
11
20.1721392
21
78.8355048
0
LINE
8
DEFAULT_255_1_388
10
20.8353555
20
78.5897353
11
20.8353555
21
78.8635153
0
LINE
8
DEFAULT_255_1_388
10
20.3392986
20
78.8761652
11
20.3392986
21
78.6087102
0
ARC
8
DEFAULT_255_1_388
10
19.6247483
20
78.6294118
40
1.3777776
50
353.8440855
51
0.2287917
0
ARC
8
DEFAULT_255_1_388
10
20.1466501
20
78.5711414
40
0.852639
50
344.4934746
51
353.9763743
0
ARC
8
DEFAULT_255_1_388
10
20.4833308
20
78.4754191
40
0.5026273
50
329.2803599
51
344.7473406
0
ARC
8
DEFAULT_255_1_388
10
20.5948804
20
78.4142038
40
0.3754848
50
324.9361395
51
328.6153007
0
ARC
8
DEFAULT_255_1_388
10
20.6374453
20
78.3844586
40
0.3235566
50
280.5801797
51
324.9173226
0
ARC
8
DEFAULT_255_1_388
10
20.5923082
20
78.5724236
40
0.5167077
50
269.5979457
51
281.6732777
0
ARC
8
DEFAULT_255_1_388
10
20.5841986
20
78.5589113
40
0.5032026
50
256.6228565
51
270.5105488
0
ARC
8
DEFAULT_255_1_388
10
20.5389728
20
78.3847345
40
0.3233092
50
215.8618351
51
257.2787793
0
ARC
8
DEFAULT_255_1_388
10
20.6538435
20
78.4618106
40
0.4615831
50
197.9695203
51
215.2622745
0
ARC
8
DEFAULT_255_1_388
10
20.9334111
20
78.5561641
40
0.7566307
50
187.8816486
51
198.2346584
0
ARC
8
DEFAULT_255_1_388
10
21.3787349
20
78.6204453
40
1.2065653
50
180.8977266
51
188.0054894
0
ARC
8
DEFAULT_255_1_388
10
21.6837563
20
78.63194
40
1.5117443
50
180.7434591
51
181.152202
0
ARC
8
DEFAULT_255_1_388
10
21.5162559
20
78.8409371
40
1.3441277
50
173.7674302
51
180.2315596
0
ARC
8
DEFAULT_255_1_388
10
21.0080428
20
78.8983779
40
0.8326847
50
164.3058537
51
173.9000553
0
ARC
8
DEFAULT_255_1_388
10
20.6804428
20
78.9927652
40
0.4917711
50
148.7922028
51
164.5682288
0
ARC
8
DEFAULT_255_1_388
10
20.5735165
20
79.0524457
40
0.3694204
50
144.5883979
51
148.1161588
0
ARC
8
DEFAULT_255_1_388
10
20.5347911
20
79.0794667
40
0.322202
50
101.6440149
51
144.5142619
0
ARC
8
DEFAULT_255_1_388
10
20.5826103
20
78.8894337
40
0.5180451
50
89.528284
51
102.5820197
0
ARC
8
DEFAULT_255_1_388
10
20.5915095
20
78.8850376
40
0.5224441
50
77.0437914
51
90.508231
0
ARC
8
DEFAULT_255_1_388
10
20.6367348
20
79.0698272
40
0.3322297
50
48.2777708
51
77.4996087
0
ARC
8
DEFAULT_255_1_388
10
20.6449088
20
79.0843557
40
0.315966
50
36.3141586
51
47.6307332
0
ARC
8
DEFAULT_255_1_388
10
20.5471811
20
79.0185159
40
0.4337313
50
18.2931065
51
35.6770203
0
ARC
8
DEFAULT_255_1_388
10
20.2610651
20
78.9203107
40
0.7362203
50
8.0246996
51
18.5605636
0
ARC
8
DEFAULT_255_1_388
10
19.7927007
20
78.8511432
40
1.2096583
50
1.127539
51
8.1718423
0
ARC
8
DEFAULT_255_1_388
10
19.427814
20
78.8368374
40
1.5747719
50
0.5432713
51
1.38669
0
ARC
8
DEFAULT_255_1_388
10
19.6335519
20
78.8675163
40
1.2018103
50
359.8092569
51
4.9408001
0
ARC
8
DEFAULT_255_1_388
10
20.10721
20
78.90979
40
0.7262727
50
4.8364937
51
12.2906017
0
ARC
8
DEFAULT_255_1_388
10
20.4171565
20
78.9788485
40
0.4087324
50
12.0806994
51
23.8171225
0
ARC
8
DEFAULT_255_1_388
10
20.5491961
20
79.0347508
40
0.2653719
50
24.2874621
51
31.3934353
0
ARC
8
DEFAULT_255_1_388
10
20.6082397
20
79.0733822
40
0.1948607
50
30.7407708
51
82.4658033
0
ARC
8
DEFAULT_255_1_388
10
20.5880058
20
78.9740017
40
0.2961198
50
81.1057101
51
90.2187368
0
ARC
8
DEFAULT_255_1_388
10
20.583987
20
79.0030421
40
0.2670929
50
89.380395
51
105.6763916
0
ARC
8
DEFAULT_255_1_388
10
20.5633592
20
79.078032
40
0.1893189
50
105.7980655
51
149.7387869
0
ARC
8
DEFAULT_255_1_388
10
20.6830732
20
79.0060719
40
0.3289892
50
149.4208441
51
163.628295
0
ARC
8
DEFAULT_255_1_388
10
20.9182961
20
78.9343345
40
0.5749004
50
163.3764549
51
172.141138
0
ARC
8
DEFAULT_255_1_388
10
21.2895683
20
78.8811582
40
0.9499585
50
172.0258462
51
178.0705453
0
ARC
8
DEFAULT_255_1_388
10
21.6317236
20
78.8649682
40
1.2924734
50
177.8639301
51
179.5036263
0
ARC
8
DEFAULT_255_1_388
10
21.5098254
20
78.6046151
40
1.170534
50
179.7995545
51
185.246089
0
ARC
8
DEFAULT_255_1_388
10
21.0549847
20
78.5615404
40
0.7136613
50
185.1411911
51
193.0082205
0
ARC
8
DEFAULT_255_1_388
10
20.7576108
20
78.4912441
40
0.4080987
50
192.7897338
51
205.2507384
0
ARC
8
DEFAULT_255_1_388
10
20.6398318
20
78.4386538
40
0.2791522
50
205.8001921
51
211.2545876
0
ARC
8
DEFAULT_255_1_388
10
20.5809857
20
78.3992132
40
0.2084074
50
210.3789935
51
238.4007996
0
ARC
8
DEFAULT_255_1_388
10
20.5787943
20
78.4044786
40
0.2117943
50
239.6521916
51
265.9793852
0
ARC
8
DEFAULT_255_1_388
10
20.5883792
20
78.4801358
40
0.2879689
50
265.1324455
51
270.0603288
0
ARC
8
DEFAULT_255_1_388
10
20.5916169
20
78.4436418
40
0.2514919
50
269.3314378
51
287.2180039
0
ARC
8
DEFAULT_255_1_388
10
20.6071251
20
78.3870291
40
0.1928357
50
287.7957942
51
329.0808983
0
ARC
8
DEFAULT_255_1_388
10
20.4994008
20
78.4542651
40
0.319808
50
328.6635261
51
343.3325043
0
ARC
8
DEFAULT_255_1_388
10
20.2549467
20
78.5304195
40
0.5758408
50
343.0498092
51
351.9392499
0
ARC
8
DEFAULT_255_1_388
10
19.8648789
20
78.5879205
40
0.9701202
50
351.8071632
51
357.7957897
0
ARC
8
DEFAULT_255_1_388
10
19.5014266
20
78.6067724
40
1.3340376
50
357.5870923
51
359.2682493
0
LINE
8
DEFAULT_255_2_778
10
9.3932417
20
68.6593829
11
10.7161417
21
68.6593829
0
LINE
8
DEFAULT_255_2_778
10
10.7161417
20
68.6593829
11
10.7161417
21
39.5551829
0
LINE
8
DEFAULT_255_2_778
10
9.3932834
20
39.5552333
11
12.0390834
21
39.5552333
0
LINE
8
DEFAULT_255_2_778
10
12.0390834
20
39.5552333
11
12.0390834
21
34.2635333
0
LINE
8
DEFAULT_255_2_778
10
12.0390834
20
34.2635333
11
9.3932834
21
34.2635333
0
LINE
8
DEFAULT_255_2_778
10
9.3932834
20
34.2635333
11
9.3932834
21
39.5552333
0
ARC
8
DEFAULT_255_2_778_1
10
13.1928591
20
34.365977
40
4.816461
50
120.9442904
51
122.351755
0
ARC
8
DEFAULT_255_2_778_1
10
12.7462523
20
35.0696039
40
3.9830657
50
122.3407904
51
124.1946752
0
ARC
8
DEFAULT_255_2_778_1
10
12.3063464
20
35.7161306
40
3.2010724
50
124.1855758
51
126.4338849
0
ARC
8
DEFAULT_255_2_778_1
10
11.9204129
20
36.2388611
40
2.5513094
50
126.4326926
51
128.8877368
0
ARC
8
DEFAULT_255_2_778_1
10
11.5855968
20
36.6532658
40
2.0185498
50
128.8749205
51
131.8726567
0
ARC
8
DEFAULT_255_2_778_1
10
11.2884677
20
36.9842854
40
1.5737356
50
131.8616166
51
135.4168838
0
ARC
8
DEFAULT_255_2_778_1
10
11.025668
20
37.2424765
40
1.2053256
50
135.3893975
51
139.9687014
0
ARC
8
DEFAULT_255_2_778_1
10
10.7927889
20
37.4373102
40
0.9016937
50
139.9301659
51
145.9260426
0
ARC
8
DEFAULT_255_2_778_1
10
10.596654
20
37.5693104
40
0.6652776
50
145.8787362
51
153.8146208
0
ARC
8
DEFAULT_255_2_778_1
10
10.4445553
20
37.6436797
40
0.4959714
50
153.770634
51
164.3484794
0
ARC
8
DEFAULT_255_2_778_1
10
10.3432387
20
37.6718786
40
0.3908039
50
164.3220276
51
179.8083066
0
ARC
8
DEFAULT_255_2_778_1
10
10.3642789
20
37.680015
40
0.4118985
50
180.9499449
51
213.8111542
0
ARC
8
DEFAULT_255_2_778_1
10
10.6401828
20
37.8495896
40
0.73561
50
212.8271214
51
224.258472
0
ARC
8
DEFAULT_255_2_778_1
10
11.0230335
20
38.2189236
40
1.267567
50
224.1376218
51
231.4508261
0
ARC
8
DEFAULT_255_2_778_1
10
11.6657195
20
39.0219168
40
2.2960809
50
231.3955893
51
236.1256478
0
ARC
8
DEFAULT_255_2_778_1
10
13.4980223
20
41.7684293
40
5.5976905
50
236.2233172
51
239.1314682
0
ARC
8
DEFAULT_255_2_778_1
10
25.447927
20
61.4961568
40
28.6623793
50
238.8606853
51
239.0711101
0
ARC
8
DEFAULT_255_2_778_1
10
6.2757281
20
29.3990653
40
8.7248518
50
57.2420924
51
59.4062964
0
ARC
8
DEFAULT_255_2_778_1
10
9.5034241
20
34.4300102
40
2.747542
50
52.8289294
51
57.079028
0
ARC
8
DEFAULT_255_2_778_1
10
10.2780783
20
35.4503488
40
1.466457
50
46.3041868
51
52.8596521
0
ARC
8
DEFAULT_255_2_778_1
10
10.7103073
20
35.9004842
40
0.8424061
50
36.2174211
51
46.4090895
0
ARC
8
DEFAULT_255_2_778_1
10
10.9948088
20
36.1053128
40
0.4918609
50
17.400375
51
36.5489745
0
ARC
8
DEFAULT_255_2_778_1
10
11.1088994
20
36.1451754
40
0.3710912
50
0.0676858
51
16.7951297
0
ARC
8
DEFAULT_255_2_778_1
10
11.0878613
20
36.1470428
40
0.3921317
50
343.8035191
51
359.7912046
0
ARC
8
DEFAULT_255_2_778_1
10
10.9815912
20
36.1775167
40
0.5026844
50
333.2506233
51
343.8465691
0
ARC
8
DEFAULT_255_2_778_1
10
10.8277757
20
36.2542313
40
0.6745679
50
325.6600948
51
333.3122657
0
ARC
8
DEFAULT_255_2_778_1
10
10.6323344
20
36.3870296
40
0.9108568
50
319.7560915
51
325.6976089
0
ARC
8
DEFAULT_255_2_778_1
10
10.404199
20
36.5788002
40
1.2088854
50
315.4577584
51
319.8037947
0
ARC
8
DEFAULT_255_2_778_1
10
10.1408127
20
36.8376507
40
1.5781764
50
311.7298824
51
315.4670864
0
ARC
8
DEFAULT_255_2_778_1
10
9.8317879
20
37.1832074
40
2.0417554
50
308.723055
51
311.7470879
0
ARC
8
DEFAULT_255_2_778_1
10
9.477589
20
37.6244492
40
2.6075745
50
306.1165163
51
308.7300151
0
ARC
8
DEFAULT_255_2_778_1
10
9.0746091
20
38.1757523
40
3.2904564
50
303.9559446
51
306.1266333
0
ARC
8
DEFAULT_255_2_778_1
10
8.6630432
20
38.785015
40
4.0257023
50
302.3733397
51
303.9712246
0
ARC
8
DEFAULT_255_2_778_1
10
8.2434347
20
39.4465058
40
4.8090549
50
300.9434827
51
302.3758078
0
LINE
8
DEFAULT_255_2_778
10
10.7161417
20
34.2635829
11
10.7161417
21
5.1593829
0
LINE
8
DEFAULT_255_2_778
10
10.7161417
20
5.1593829
11
9.3932417
21
5.1593829
0
LINE
8
DEFAULT_255_1_388
10
4.8809318
20
76.2258382
11
4.8809318
21
76.0894
0
LINE
8
DEFAULT_255_1_388
10
4.8809318
20
76.0894
11
4.0189313
21
76.0894
0
LINE
8
DEFAULT_255_1_388
10
4.0189313
20
76.0894
11
4.0189313
21
76.2095741
0
LINE
8
DEFAULT_255_1_388
10
4.0189313
20
76.2095741
11
4.4743278
21
76.7155702
0
LINE
8
DEFAULT_255_1_388
10
4.1607909
20
77.0173607
11
3.9936315
21
77.0173607
0
LINE
8
DEFAULT_255_1_388
10
4.5728163
20
76.608046
11
4.2204262
21
76.2258382
0
LINE
8
DEFAULT_255_1_388
10
4.2204262
20
76.2258382
11
4.8809318
21
76.2258382
0
ARC
8
DEFAULT_255_1_388
10
2.9567337
20
78.0575983
40
2.0258655
50
318.5132526
51
320.7829045
0
ARC
8
DEFAULT_255_1_388
10
3.5515294
20
77.5734929
40
1.2589638
50
320.7372878
51
323.9739031
0
ARC
8
DEFAULT_255_1_388
10
3.9924226
20
77.2540554
40
0.7145141
50
323.8962701
51
328.64194
0
ARC
8
DEFAULT_255_1_388
10
4.2226484
20
77.1120545
40
0.4440242
50
328.8294576
51
331.7891185
0
ARC
8
DEFAULT_255_1_388
10
4.3348804
20
77.0541374
40
0.3177517
50
331.4254512
51
352.9365785
0
ARC
8
DEFAULT_255_1_388
10
4.3501804
20
77.050705
40
0.3021496
50
353.2257659
51
0.0166158
0
ARC
8
DEFAULT_255_1_388
10
4.3738564
20
77.0532894
40
0.2784847
50
359.486299
51
15.9343185
0
ARC
8
DEFAULT_255_1_388
10
4.4308831
20
77.0686269
40
0.2194403
50
16.1712913
51
43.5286088
0
ARC
8
DEFAULT_255_1_388
10
4.4395776
20
77.0773191
40
0.2071504
50
43.4417391
51
83.1661095
0
ARC
8
DEFAULT_255_1_388
10
4.4244937
20
76.9944316
40
0.2912888
50
82.160179
51
90.1505708
0
ARC
8
DEFAULT_255_1_388
10
4.4209418
20
76.9340279
40
0.3517025
50
89.5460741
51
102.5418361
0
ARC
8
DEFAULT_255_1_388
10
4.3936138
20
77.0499933
40
0.2325748
50
102.1738499
51
129.206123
0
ARC
8
DEFAULT_255_1_388
10
4.3847592
20
77.0639664
40
0.2161591
50
129.72865
51
135.753947
0
ARC
8
DEFAULT_255_1_388
10
4.3984074
20
77.0530728
40
0.2335433
50
136.1757367
51
166.3673339
0
ARC
8
DEFAULT_255_1_388
10
4.5116762
20
77.0227148
40
0.3507873
50
165.9090694
51
178.8684636
0
ARC
8
DEFAULT_255_1_388
10
4.6092534
20
77.0174263
40
0.4484624
50
178.4391136
51
180.0083808
0
ARC
8
DEFAULT_255_1_388
10
4.4513235
20
77.0218197
40
0.4577138
50
163.2878482
51
180.5581842
0
ARC
8
DEFAULT_255_1_388
10
4.3611276
20
77.0466393
40
0.3641968
50
133.4540601
51
162.947111
0
ARC
8
DEFAULT_255_1_388
10
4.3812158
20
77.0252789
40
0.3935189
50
100.7869829
51
133.4382499
0
ARC
8
DEFAULT_255_1_388
10
4.4203403
20
76.8510399
40
0.5720313
50
89.660664
51
101.3702276
0
ARC
8
DEFAULT_255_1_388
10
4.4278012
20
76.8579263
40
0.5651495
50
78.2172678
51
90.412935
0
ARC
8
DEFAULT_255_1_388
10
4.4677478
20
77.0406511
40
0.378122
50
55.9269121
51
78.4888449
0
ARC
8
DEFAULT_255_1_388
10
4.4898193
20
77.0787187
40
0.3342379
50
47.929771
51
55.4049217
0
ARC
8
DEFAULT_255_1_388
10
4.5012723
20
77.0903618
40
0.3179217
50
4.334829
51
48.0560205
0
ARC
8
DEFAULT_255_1_388
10
4.3780525
20
77.0712487
40
0.442341
50
359.9251713
51
5.5971671
0
ARC
8
DEFAULT_255_1_388
10
4.426268
20
77.0775728
40
0.3941854
50
337.8914027
51
358.9967534
0
ARC
8
DEFAULT_255_1_388
10
4.121025
20
77.1953295
40
0.7213271
50
326.9132501
51
338.3508308
0
ARC
8
DEFAULT_255_1_388
10
3.6726362
20
77.4827105
40
1.2538973
50
319.6471833
51
327.0959558
0
ARC
8
DEFAULT_255_1_388
10
3.241302
20
77.838505
40
1.8129975
50
317.2588228
51
319.9045804
0
LINE
8
DEFAULT_255_1_388
10
5.7637143
20
77.4049898
11
5.7637143
21
76.531243
0
LINE
8
DEFAULT_255_1_388
10
5.7637143
20
76.531243
11
5.9462343
21
76.531243
0
LINE
8
DEFAULT_255_1_388
10
5.9462343
20
76.531243
11
5.9462343
21
76.3948048
0
LINE
8
DEFAULT_255_1_388
10
5.9462343
20
76.3948048
11
5.7637143
21
76.3948048
0
LINE
8
DEFAULT_255_1_388
10
5.7637143
20
76.3948048
11
5.7637143
21
76.0894
0
LINE
8
DEFAULT_255_1_388
10
5.7637143
20
76.0894
11
5.5956513
21
76.0894
0
LINE
8
DEFAULT_255_1_388
10
5.5956513
20
76.0894
11
5.5956513
21
76.3948048
0
LINE
8
DEFAULT_255_1_388
10
5.5956513
20
76.3948048
11
4.996588
21
76.3948048
0
LINE
8
DEFAULT_255_1_388
10
4.996588
20
76.3948048
11
4.996588
21
76.4932933
0
LINE
8
DEFAULT_255_1_388
10
4.996588
20
76.4932933
11
5.5857121
21
77.4049898
0
LINE
8
DEFAULT_255_1_388
10
5.5857121
20
77.4049898
11
5.7637143
21
77.4049898
0
LINE
8
DEFAULT_255_1_388
10
5.5757729
20
77.1402455
11
5.1863366
21
76.531243
0
LINE
8
DEFAULT_255_1_388
10
5.1863366
20
76.531243
11
5.5956513
21
76.531243
0
LINE
8
DEFAULT_255_1_388
10
5.5956513
20
76.531243
11
5.5956513
21
77.176388
0
LINE
8
DEFAULT_255_1_388
10
5.5956513
20
77.176388
11
5.5757729
21
77.1402455
0
LINE
8
DEFAULT_255_1_388
10
6.201943
20
77.4049898
11
6.5760187
21
76.3198089
0
LINE
8
DEFAULT_255_1_388
10
6.5760187
20
76.3198089
11
6.9519015
21
77.4049898
0
LINE
8
DEFAULT_255_1_388
10
6.9519015
20
77.4049898
11
7.14165
21
77.4049898
0
LINE
8
DEFAULT_255_1_388
10
7.14165
20
77.4049898
11
6.6537252
21
76.0894
0
LINE
8
DEFAULT_255_1_388
10
6.6537252
20
76.0894
11
6.5001193
21
76.0894
0
LINE
8
DEFAULT_255_1_388
10
6.5001193
20
76.0894
11
6.013098
21
77.4049898
0
LINE
8
DEFAULT_255_1_388
10
6.013098
20
77.4049898
11
6.201943
21
77.4049898
0
LINE
8
DEFAULT_255_1_388
10
4.1804367
20
5.9674898
11
4.1804367
21
4.6519
0
LINE
8
DEFAULT_255_1_388
10
4.1804367
20
4.6519
11
4.0069523
21
4.6519
0
LINE
8
DEFAULT_255_1_388
10
4.0069523
20
4.6519
11
4.0069523
21
5.9674898
0
LINE
8
DEFAULT_255_1_388
10
4.0069523
20
5.9674898
11
4.1804367
21
5.9674898
0
ARC
8
DEFAULT_255_1_388
10
4.9345672
20
5.621272
40
0.3175098
50
338.8762533
51
0.5167111
0
ARC
8
DEFAULT_255_1_388
10
4.9535266
20
5.61616
40
0.2979894
50
325.8415285
51
338.4793574
0
ARC
8
DEFAULT_255_1_388
10
4.90959
20
5.6466242
40
0.351452
50
296.7587686
51
325.7536481
0
ARC
8
DEFAULT_255_1_388
10
4.8767527
20
5.7020363
40
0.4157374
50
296.0927901
51
297.3613472
0
ARC
8
DEFAULT_255_1_388
10
4.9061723
20
4.9637593
40
0.395855
50
47.9007294
51
67.1948823
0
ARC
8
DEFAULT_255_1_388
10
4.9282365
20
4.9914599
40
0.360516
50
35.2363914
51
47.551141
0
ARC
8
DEFAULT_255_1_388
10
4.9576769
20
5.0111093
40
0.3251343
50
359.2759765
51
35.4014143
0
ARC
8
DEFAULT_255_1_388
10
4.8738695
20
5.0028787
40
0.4089365
50
343.1293083
51
0.5775513
0
ARC
8
DEFAULT_255_1_388
10
4.9553809
20
4.9804336
40
0.3244269
50
310.8496669
51
342.7449331
0
ARC
8
DEFAULT_255_1_388
10
4.9083683
20
5.0340913
40
0.3957651
50
281.5472888
51
310.9170406
0
ARC
8
DEFAULT_255_1_388
10
4.8682558
20
5.2087814
40
0.5749654
50
269.619248
51
281.9789564
0
ARC
8
DEFAULT_255_1_388
10
4.8601336
20
5.2088776
40
0.5750649
50
257.4585678
51
270.4285689
0
ARC
8
DEFAULT_255_1_388
10
4.8172856
20
5.0284741
40
0.389671
50
228.7554326
51
257.8484789
0
ARC
8
DEFAULT_255_1_388
10
4.7824341
20
4.9865228
40
0.335154
50
184.0104975
51
228.5071184
0
ARC
8
DEFAULT_255_1_388
10
4.9132734
20
5.006443
40
0.4671891
50
179.9315832
51
185.3253753
0
ARC
8
DEFAULT_255_1_388
10
4.7809246
20
5.0106592
40
0.33486
50
145.6796023
51
180.6259786
0
ARC
8
DEFAULT_255_1_388
10
4.7993012
20
4.9978271
40
0.3572723
50
115.5537685
51
145.6415986
0
ARC
8
DEFAULT_255_1_388
10
4.8376056
20
4.9292087
40
0.4357296
50
113.243307
51
116.2057839
0
ARC
8
DEFAULT_255_1_388
10
4.8204708
20
5.6489379
40
0.3549126
50
222.9549744
51
244.1370481
0
ARC
8
DEFAULT_255_1_388
10
4.8067351
20
5.6335378
40
0.3343711
50
213.3436887
51
222.6274467
0
ARC
8
DEFAULT_255_1_388
10
4.785142
20
5.6188653
40
0.3082678
50
180.431584
51
213.271499
0
ARC
8
DEFAULT_255_1_388
10
4.8486419
20
5.6241296
40
0.3718363
50
179.9991191
51
181.1690594
0
ARC
8
DEFAULT_255_1_388
10
4.8958875
20
5.6280072
40
0.4190996
50
164.6186169
51
180.529336
0
ARC
8
DEFAULT_255_1_388
10
4.7948524
20
5.655178
40
0.3144772
50
132.2455553
51
164.5090724
0
ARC
8
DEFAULT_255_1_388
10
4.8271503
20
5.618607
40
0.3632644
50
100.7053914
51
132.1386381
0
ARC
8
DEFAULT_255_1_388
10
4.8614564
20
5.4636118
40
0.5219578
50
89.6730358
51
101.2451698
0
ARC
8
DEFAULT_255_1_388
10
4.8684555
20
5.4832648
40
0.5023124
50
76.287748
51
90.4586006
0
ARC
8
DEFAULT_255_1_388
10
4.9029057
20
5.6207671
40
0.3605639
50
47.8240511
51
76.4266241
0
ARC
8
DEFAULT_255_1_388
10
4.9279441
20
5.6500599
40
0.3220463
50
6.9168387
51
47.6262497
0
ARC
8
DEFAULT_255_1_388
10
4.7944894
20
5.6254004
40
0.4575765
50
359.8415968
51
7.9697453
0
ARC
8
DEFAULT_255_1_388
10
4.8329164
20
5.0133519
40
0.2827228
50
359.445363
51
16.9256873
0
ARC
8
DEFAULT_255_1_388
10
4.8856598
20
5.0278781
40
0.2280396
50
17.2920767
51
45.4630727
0
ARC
8
DEFAULT_255_1_388
10
4.8795733
20
5.0226324
40
0.2360485
50
45.30305
51
83.1920945
0
ARC
8
DEFAULT_255_1_388
10
4.8634478
20
4.9324473
40
0.3275527
50
82.2612665
51
90.1434275
0
ARC
8
DEFAULT_255_1_388
10
4.8599754
20
4.9586869
40
0.3013237
50
89.4956434
51
104.8580688
0
ARC
8
DEFAULT_255_1_388
10
4.8400944
20
5.0340455
40
0.2233867
50
104.8856641
51
135.244616
0
ARC
8
DEFAULT_255_1_388
10
4.8456933
20
5.0290352
40
0.2308906
50
135.3399546
51
172.1044062
0
ARC
8
DEFAULT_255_1_388
10
4.9364457
20
5.0116667
40
0.3232034
50
171.2645637
51
180.186429
0
ARC
8
DEFAULT_255_1_388
10
4.9174462
20
5.0080426
40
0.304213
50
179.5154935
51
193.6464289
0
ARC
8
DEFAULT_255_1_388
10
4.8256138
20
4.9846473
40
0.209456
50
193.3540274
51
225.8258581
0
ARC
8
DEFAULT_255_1_388
10
4.830201
20
4.9926076
40
0.2183738
50
226.4180634
51
255.8552336
0
ARC
8
DEFAULT_255_1_388
10
4.8590477
20
5.0979521
40
0.3275812
50
255.4654104
51
268.7987425
0
ARC
8
DEFAULT_255_1_388
10
4.8643653
20
5.1921545
40
0.4218877
50
268.3449238
51
270.0094605
0
ARC
8
DEFAULT_255_1_388
10
4.8669886
20
5.1153094
40
0.3450519
50
269.5759586
51
282.0820163
0
ARC
8
DEFAULT_255_1_388
10
4.8922923
20
5.0034363
40
0.2303642
50
281.752014
51
306.6056188
0
ARC
8
DEFAULT_255_1_388
10
4.9033731
20
4.9852802
40
0.2091906
50
307.1346085
51
314.027845
0
ARC
8
DEFAULT_255_1_388
10
4.8993243
20
4.9882459
40
0.2141385
50
314.2552483
51
350.1694025
0
ARC
8
DEFAULT_255_1_388
10
4.803548
20
5.0090175
40
0.312082
50
349.4140529
51
0.2933014
0
ARC
8
DEFAULT_255_1_388
10
4.8620757
20
5.5893924
40
0.2588377
50
89.477747
51
105.729729
0
ARC
8
DEFAULT_255_1_388
10
4.8467677
20
5.6462367
40
0.1999733
50
105.9233417
51
135.1660906
0
ARC
8
DEFAULT_255_1_388
10
4.8490708
20
5.6446412
40
0.2027322
50
135.3052302
51
168.9883645
0
ARC
8
DEFAULT_255_1_388
10
4.9421724
20
5.6232996
40
0.2982129
50
168.3801673
51
180.3602268
0
ARC
8
DEFAULT_255_1_388
10
4.9164841
20
5.6190622
40
0.2725291
50
179.5033122
51
194.9125571
0
ARC
8
DEFAULT_255_1_388
10
4.8506248
20
5.6017427
40
0.204431
50
194.9720816
51
224.194444
0
ARC
8
DEFAULT_255_1_388
10
4.8474613
20
5.5991635
40
0.2003651
50
224.2962453
51
262.015664
0
ARC
8
DEFAULT_255_1_388
10
4.8634617
20
5.6814315
40
0.2840925
50
261.1245923
51
270.1962896
0
ARC
8
DEFAULT_255_1_388
10
4.8668098
20
5.6603859
40
0.2630559
50
269.4827276
51
285.0987215
0
ARC
8
DEFAULT_255_1_388
10
4.8841534
20
5.5953175
40
0.1957162
50
285.1585357
51
315.9484501
0
ARC
8
DEFAULT_255_1_388
10
4.8741408
20
5.6045315
40
0.2093195
50
316.0413965
51
351.916092
0
ARC
8
DEFAULT_255_1_388
10
4.7916782
20
5.6204323
40
0.2932279
50
351.105835
51
0.1939062
0
ARC
8
DEFAULT_255_1_388
10
4.8212416
20
5.6238224
40
0.2636739
50
359.4789618
51
16.0678224
0
ARC
8
DEFAULT_255_1_388
10
4.8747888
20
5.6382721
40
0.2082215
50
16.3252067
51
44.7913869
0
ARC
8
DEFAULT_255_1_388
10
4.872795
20
5.638332
40
0.2095992
50
44.3957814
51
88.2499162
0
ARC
8
DEFAULT_255_1_388
10
4.8645285
20
5.5695006
40
0.2787189
50
86.9833854
51
90.0192215
0
LINE
8
DEFAULT_255_1_388
10
5.9893727
20
5.7415987
11
5.9893727
21
5.3575838
0
LINE
8
DEFAULT_255_1_388
10
5.9893727
20
5.3575838
11
6.3562199
21
5.3575838
0
LINE
8
DEFAULT_255_1_388
10
6.3562199
20
5.3575838
11
6.3562199
21
5.1994601
0
LINE
8
DEFAULT_255_1_388
10
6.3562199
20
5.1994601
11
5.9893727
21
5.1994601
0
LINE
8
DEFAULT_255_1_388
10
5.9893727
20
5.1994601
11
5.9893727
21
4.7838204
0
LINE
8
DEFAULT_255_1_388
10
5.9893727
20
4.7838204
11
5.8213097
21
4.7838204
0
LINE
8
DEFAULT_255_1_388
10
5.8213097
20
4.7838204
11
5.8213097
21
5.1994601
0
LINE
8
DEFAULT_255_1_388
10
5.8213097
20
5.1994601
11
5.4544625
21
5.1994601
0
LINE
8
DEFAULT_255_1_388
10
5.4544625
20
5.1994601
11
5.4544625
21
5.3575838
0
LINE
8
DEFAULT_255_1_388
10
5.4544625
20
5.3575838
11
5.8213097
21
5.3575838
0
LINE
8
DEFAULT_255_1_388
10
5.8213097
20
5.3575838
11
5.8213097
21
5.7415987
0
LINE
8
DEFAULT_255_1_388
10
5.8213097
20
5.7415987
11
5.9893727
21
5.7415987
0
LINE
8
DEFAULT_255_1_388
10
4.1804367
20
13.9049898
11
4.1804367
21
12.5894
0
LINE
8
DEFAULT_255_1_388
10
4.1804367
20
12.5894
11
4.0069523
21
12.5894
0
LINE
8
DEFAULT_255_1_388
10
4.0069523
20
12.5894
11
4.0069523
21
13.9049898
0
LINE
8
DEFAULT_255_1_388
10
4.0069523
20
13.9049898
11
4.1804367
21
13.9049898
0
LINE
8
DEFAULT_255_1_388
10
5.3035673
20
13.9049898
11
5.3035673
21
13.8110191
0
LINE
8
DEFAULT_255_1_388
10
5.3035673
20
13.8110191
11
4.7587179
21
12.5894
0
LINE
8
DEFAULT_255_1_388
10
4.7587179
20
12.5894
11
4.5834264
21
12.5894
0
LINE
8
DEFAULT_255_1_388
10
4.5834264
20
12.5894
11
5.1264687
21
13.767648
0
LINE
8
DEFAULT_255_1_388
10
5.1264687
20
13.767648
11
4.4144599
21
13.767648
0
LINE
8
DEFAULT_255_1_388
10
4.4144599
20
13.767648
11
4.4144599
21
13.9049898
0
LINE
8
DEFAULT_255_1_388
10
4.4144599
20
13.9049898
11
5.3035673
21
13.9049898
0
LINE
8
DEFAULT_255_1_388
10
5.9893727
20
13.6790987
11
5.9893727
21
13.2950838
0
LINE
8
DEFAULT_255_1_388
10
5.9893727
20
13.2950838
11
6.3562199
21
13.2950838
0
LINE
8
DEFAULT_255_1_388
10
6.3562199
20
13.2950838
11
6.3562199
21
13.1369601
0
LINE
8
DEFAULT_255_1_388
10
6.3562199
20
13.1369601
11
5.9893727
21
13.1369601
0
LINE
8
DEFAULT_255_1_388
10
5.9893727
20
13.1369601
11
5.9893727
21
12.7213204
0
LINE
8
DEFAULT_255_1_388
10
5.9893727
20
12.7213204
11
5.8213097
21
12.7213204
0
LINE
8
DEFAULT_255_1_388
10
5.8213097
20
12.7213204
11
5.8213097
21
13.1369601
0
LINE
8
DEFAULT_255_1_388
10
5.8213097
20
13.1369601
11
5.4544625
21
13.1369601
0
LINE
8
DEFAULT_255_1_388
10
5.4544625
20
13.1369601
11
5.4544625
21
13.2950838
0
LINE
8
DEFAULT_255_1_388
10
5.4544625
20
13.2950838
11
5.8213097
21
13.2950838
0
LINE
8
DEFAULT_255_1_388
10
5.8213097
20
13.2950838
11
5.8213097
21
13.6790987
0
LINE
8
DEFAULT_255_1_388
10
5.8213097
20
13.6790987
11
5.9893727
21
13.6790987
0
LINE
8
DEFAULT_255_1_388
10
4.1804367
20
21.8424898
11
4.1804367
21
20.5269
0
LINE
8
DEFAULT_255_1_388
10
4.1804367
20
20.5269
11
4.0069523
21
20.5269
0
LINE
8
DEFAULT_255_1_388
10
4.0069523
20
20.5269
11
4.0069523
21
21.8424898
0
LINE
8
DEFAULT_255_1_388
10
4.0069523
20
21.8424898
11
4.1804367
21
21.8424898
0
LINE
8
DEFAULT_255_1_388
10
5.0803869
20
21.8433934
11
5.1102045
21
21.8433934
0
LINE
8
DEFAULT_255_1_388
10
5.1102045
20
21.8433934
11
5.1102045
21
21.7015338
0
LINE
8
DEFAULT_255_1_388
10
5.1102045
20
21.7015338
11
5.0794833
21
21.7015338
0
LINE
8
DEFAULT_255_1_388
10
4.4641559
20
21.0274747
11
4.4641559
21
21.0916278
0
LINE
8
DEFAULT_255_1_388
10
4.6322189
20
21.0699422
11
4.6322189
21
21.0084999
0
ARC
8
DEFAULT_255_1_388
10
5.0853725
20
21.1392826
40
0.562282
50
90.6001079
51
104.5146616
0
ARC
8
DEFAULT_255_1_388
10
5.0416684
20
21.30181
40
0.3939917
50
104.2855758
51
133.8630124
0
ARC
8
DEFAULT_255_1_388
10
5.0600937
20
21.2896243
40
0.4155734
50
134.5304124
51
161.6210222
0
ARC
8
DEFAULT_255_1_388
10
5.2460869
20
21.2240421
40
0.6127682
50
161.2850533
51
174.2074364
0
ARC
8
DEFAULT_255_1_388
10
5.4050436
20
21.2021437
40
0.7731446
50
173.7817938
51
174.9251711
0
ARC
8
DEFAULT_255_1_388
10
4.8924629
20
21.046627
40
0.3412588
50
95.8332067
51
138.995412
0
ARC
8
DEFAULT_255_1_388
10
4.917591
20
20.9027695
40
0.4870358
50
89.8755506
51
97.0540979
0
ARC
8
DEFAULT_255_1_388
10
4.9229299
20
20.9967841
40
0.3930432
50
71.6407016
51
90.6240821
0
ARC
8
DEFAULT_255_1_388
10
4.9398692
20
21.0591433
40
0.3285421
50
39.6368051
51
71.0190743
0
ARC
8
DEFAULT_255_1_388
10
4.86826
20
20.9972586
40
0.4231706
50
10.6588054
51
39.9044509
0
ARC
8
DEFAULT_255_1_388
10
4.6941145
20
20.9594223
40
0.60133
50
359.6827842
51
11.1326896
0
ARC
8
DEFAULT_255_1_388
10
4.6896481
20
20.9514715
40
0.6058047
50
347.2485908
51
0.4371098
0
ARC
8
DEFAULT_255_1_388
10
4.8772267
20
20.9063379
40
0.4128987
50
318.1408565
51
347.6118497
0
ARC
8
DEFAULT_255_1_388
10
4.9137863
20
20.8762903
40
0.3656244
50
275.6342406
51
317.824739
0
ARC
8
DEFAULT_255_1_388
10
4.8889384
20
21.0224827
40
0.513655
50
269.8872513
51
276.7916069
0
ARC
8
DEFAULT_255_1_388
10
4.8827577
20
20.9071181
40
0.398323
50
246.9139443
51
270.7436787
0
ARC
8
DEFAULT_255_1_388
10
4.8834773
20
20.8911044
40
0.3839368
50
218.1665534
51
245.8780431
0
ARC
8
DEFAULT_255_1_388
10
4.9824145
20
20.9738903
40
0.5128958
50
191.4115343
51
218.6077624
0
ARC
8
DEFAULT_255_1_388
10
5.2004461
20
21.0227777
40
0.7363054
50
179.6344971
51
191.7836758
0
ARC
8
DEFAULT_255_1_388
10
5.8284336
20
21.0991495
40
1.3642984
50
171.4523743
51
180.3158856
0
ARC
8
DEFAULT_255_1_388
10
5.3340063
20
21.1760895
40
0.8639311
50
157.9802296
51
171.6246761
0
ARC
8
DEFAULT_255_1_388
10
5.0849413
20
21.2754038
40
0.5958004
50
141.4299236
51
157.8541251
0
ARC
8
DEFAULT_255_1_388
10
5.0127497
20
21.3264746
40
0.5075416
50
102.871586
51
140.8564533
0
ARC
8
DEFAULT_255_1_388
10
5.0856049
20
21.0519943
40
0.7914163
50
90.377773
51
103.5868422
0
ARC
8
DEFAULT_255_1_388
10
4.8900571
20
20.9839543
40
0.2667015
50
89.8751238
51
126.2072139
0
ARC
8
DEFAULT_255_1_388
10
4.8952042
20
20.9665847
40
0.2838229
50
124.9742447
51
144.8960197
0
ARC
8
DEFAULT_255_1_388
10
4.8754287
20
20.9826981
40
0.2583845
50
145.2974778
51
160.2660922
0
ARC
8
DEFAULT_255_1_388
10
5.2210775
20
21.0049151
40
0.5888695
50
179.6512124
51
190.285571
0
ARC
8
DEFAULT_255_1_388
10
5.0305255
20
20.9689968
40
0.3949683
50
190.0944895
51
207.5099647
0
ARC
8
DEFAULT_255_1_388
10
4.9668836
20
20.9387177
40
0.3245464
50
207.9585471
51
216.325377
0
ARC
8
DEFAULT_255_1_388
10
4.9286473
20
20.9072712
40
0.2751259
50
215.7661336
51
232.5457193
0
ARC
8
DEFAULT_255_1_388
10
4.8855589
20
20.8525273
40
0.2054668
50
232.8005815
51
270.6605497
0
ARC
8
DEFAULT_255_1_388
10
4.8907014
20
20.8934853
40
0.2464268
50
269.3550767
51
288.474612
0
ARC
8
DEFAULT_255_1_388
10
4.9011521
20
20.8541721
40
0.2058436
50
289.1831976
51
322.9685307
0
ARC
8
DEFAULT_255_1_388
10
4.8323622
20
20.9084279
40
0.2934408
50
322.6007085
51
346.5183319
0
ARC
8
DEFAULT_255_1_388
10
4.7021378
20
20.9416434
40
0.4278249
50
346.2584622
51
358.7739592
0
ARC
8
DEFAULT_255_1_388
10
4.5869954
20
20.9478829
40
0.5430876
50
358.3757628
51
0.0082477
0
ARC
8
DEFAULT_255_1_388
10
4.6726772
20
20.9509856
40
0.4574157
50
359.6211417
51
11.28403
0
ARC
8
DEFAULT_255_1_388
10
4.8163378
20
20.9809535
40
0.3106708
50
11.0483152
51
31.8145585
0
ARC
8
DEFAULT_255_1_388
10
4.8511084
20
20.9998045
40
0.2711963
50
32.3028554
51
38.0820598
0
ARC
8
DEFAULT_255_1_388
10
4.8984316
20
21.0426717
40
0.2075566
50
36.8249851
51
85.741667
0
ARC
8
DEFAULT_255_1_388
10
4.8908729
20
20.9863065
40
0.2643487
50
85.0150021
51
90.050843
0
LINE
8
DEFAULT_255_1_388
10
5.9893727
20
21.6165987
11
5.9893727
21
21.2325838
0
LINE
8
DEFAULT_255_1_388
10
5.9893727
20
21.2325838
11
6.3562199
21
21.2325838
0
LINE
8
DEFAULT_255_1_388
10
6.3562199
20
21.2325838
11
6.3562199
21
21.0744601
0
LINE
8
DEFAULT_255_1_388
10
6.3562199
20
21.0744601
11
5.9893727
21
21.0744601
0
LINE
8
DEFAULT_255_1_388
10
5.9893727
20
21.0744601
11
5.9893727
21
20.6588204
0
LINE
8
DEFAULT_255_1_388
10
5.9893727
20
20.6588204
11
5.8213097
21
20.6588204
0
LINE
8
DEFAULT_255_1_388
10
5.8213097
20
20.6588204
11
5.8213097
21
21.0744601
0
LINE
8
DEFAULT_255_1_388
10
5.8213097
20
21.0744601
11
5.4544625
21
21.0744601
0
LINE
8
DEFAULT_255_1_388
10
5.4544625
20
21.0744601
11
5.4544625
21
21.2325838
0
LINE
8
DEFAULT_255_1_388
10
5.4544625
20
21.2325838
11
5.8213097
21
21.2325838
0
LINE
8
DEFAULT_255_1_388
10
5.8213097
20
21.2325838
11
5.8213097
21
21.6165987
0
LINE
8
DEFAULT_255_1_388
10
5.8213097
20
21.6165987
11
5.9893727
21
21.6165987
0
LINE
8
DEFAULT_255_1_388
10
4.1804367
20
29.7799898
11
4.1804367
21
28.4644
0
LINE
8
DEFAULT_255_1_388
10
4.1804367
20
28.4644
11
4.0069523
21
28.4644
0
LINE
8
DEFAULT_255_1_388
10
4.0069523
20
28.4644
11
4.0069523
21
29.7799898
0
LINE
8
DEFAULT_255_1_388
10
4.0069523
20
29.7799898
11
4.1804367
21
29.7799898
0
LINE
8
DEFAULT_255_1_388
10
4.6647472
20
29.0896666
11
4.5310197
21
29.1240021
0
LINE
8
DEFAULT_255_1_388
10
4.5310197
20
29.1240021
11
4.5978834
21
29.7799898
0
LINE
8
DEFAULT_255_1_388
10
4.5978834
20
29.7799898
11
5.2719425
21
29.7799898
0
LINE
8
DEFAULT_255_1_388
10
5.2719425
20
29.7799898
11
5.2719425
21
29.6254803
0
LINE
8
DEFAULT_255_1_388
10
5.2719425
20
29.6254803
11
4.7397431
21
29.6254803
0
LINE
8
DEFAULT_255_1_388
10
4.7397431
20
29.6254803
11
4.6999862
21
29.2667652
0
LINE
8
DEFAULT_255_1_388
10
4.4840343
20
28.8104652
11
4.6421581
21
28.8104652
0
LINE
8
DEFAULT_255_1_388
10
4.7090219
20
29.1258092
11
4.6647472
21
29.0896666
0
ARC
8
DEFAULT_255_1_388
10
4.9086476
20
28.9090241
40
0.4141476
50
93.7181681
51
120.253934
0
ARC
8
DEFAULT_255_1_388
10
4.9192528
20
28.8181284
40
0.5055616
50
89.9660471
51
94.2495185
0
ARC
8
DEFAULT_255_1_388
10
4.923835
20
28.8844154
40
0.4392953
50
73.8045384
51
90.5585736
0
ARC
8
DEFAULT_255_1_388
10
4.9502608
20
28.980952
40
0.3392225
50
41.3071072
51
73.543002
0
ARC
8
DEFAULT_255_1_388
10
4.9034428
20
28.9406461
40
0.4009977
50
13.5075837
51
41.2174839
0
ARC
8
DEFAULT_255_1_388
10
4.7187525
20
28.8922907
40
0.5918864
50
1.1330171
51
13.8830737
0
ARC
8
DEFAULT_255_1_388
10
4.5591171
20
28.8837522
40
0.7516787
50
359.9925091
51
1.5431298
0
ARC
8
DEFAULT_255_1_388
10
4.7035786
20
28.8791027
40
0.6072343
50
347.8572712
51
0.4294349
0
ARC
8
DEFAULT_255_1_388
10
4.900492
20
28.8344898
40
0.4053482
50
323.6727442
51
348.1674594
0
ARC
8
DEFAULT_255_1_388
10
4.9335885
20
28.8143175
40
0.3667495
50
316.8171818
51
323.1486802
0
ARC
8
DEFAULT_255_1_388
10
4.9405009
20
28.8101612
40
0.358869
50
281.839603
51
316.5458142
0
ARC
8
DEFAULT_255_1_388
10
4.8982296
20
28.9851363
40
0.5388223
50
269.5770964
51
282.4214641
0
ARC
8
DEFAULT_255_1_388
10
4.8902217
20
28.961093
40
0.5147801
50
256.2425863
51
270.4486481
0
ARC
8
DEFAULT_255_1_388
10
4.8565745
20
28.8261124
40
0.3756708
50
228.9024379
51
256.33135
0
ARC
8
DEFAULT_255_1_388
10
4.8482725
20
28.8130054
40
0.360344
50
193.7536029
51
228.5272638
0
ARC
8
DEFAULT_255_1_388
10
4.987529
20
28.8538463
40
0.5053599
50
184.9244437
51
194.4976052
0
ARC
8
DEFAULT_255_1_388
10
5.0091931
20
28.8578722
40
0.3700839
50
187.3596909
51
198.6733728
0
ARC
8
DEFAULT_255_1_388
10
4.8911175
20
28.8169373
40
0.2451195
50
198.4453795
51
217.7945479
0
ARC
8
DEFAULT_255_1_388
10
4.8578347
20
28.7933563
40
0.2043754
50
218.2887146
51
228.5613203
0
ARC
8
DEFAULT_255_1_388
10
4.8688354
20
28.8081902
40
0.2227819
50
228.9652423
51
258.1237049
0
ARC
8
DEFAULT_255_1_388
10
4.8919791
20
28.9072964
40
0.3245374
50
257.7260585
51
270.4013717
0
ARC
8
DEFAULT_255_1_388
10
4.8970289
20
28.8572255
40
0.2744726
50
269.4204315
51
286.420998
0
ARC
8
DEFAULT_255_1_388
10
4.9137345
20
28.7965705
40
0.2115721
50
286.7250065
51
320.6004665
0
ARC
8
DEFAULT_255_1_388
10
4.8706261
20
28.8315527
40
0.2670878
50
320.6712228
51
344.5440474
0
ARC
8
DEFAULT_255_1_388
10
4.7404974
20
28.8697394
40
0.4026927
50
344.241448
51
356.735803
0
ARC
8
DEFAULT_255_1_388
10
4.6001282
20
28.8813656
40
0.5435085
50
356.3547471
51
0.0507222
0
ARC
8
DEFAULT_255_1_388
10
4.7503547
20
28.8848812
40
0.3932934
50
359.5579289
51
12.9534322
0
ARC
8
DEFAULT_255_1_388
10
4.8690387
20
28.9136586
40
0.2711827
50
12.6489751
51
41.608121
0
ARC
8
DEFAULT_255_1_388
10
4.8949547
20
28.9356946
40
0.2371737
50
41.7851122
51
85.9892156
0
ARC
8
DEFAULT_255_1_388
10
4.8810857
20
28.8441738
40
0.3295244
50
84.6965848
51
90.0672125
0
ARC
8
DEFAULT_255_1_388
10
4.8784424
20
28.7690118
40
0.4046926
50
89.6804991
51
99.161352
0
ARC
8
DEFAULT_255_1_388
10
4.8553433
20
28.9070848
40
0.2647044
50
98.9836248
51
113.8905702
0
ARC
8
DEFAULT_255_1_388
10
4.8295108
20
28.9680118
40
0.1985386
50
114.195234
51
127.3641866
0
LINE
8
DEFAULT_255_1_388
10
5.9893727
20
29.5540987
11
5.9893727
21
29.1700838
0
LINE
8
DEFAULT_255_1_388
10
5.9893727
20
29.1700838
11
6.3562199
21
29.1700838
0
LINE
8
DEFAULT_255_1_388
10
6.3562199
20
29.1700838
11
6.3562199
21
29.0119601
0
LINE
8
DEFAULT_255_1_388
10
6.3562199
20
29.0119601
11
5.9893727
21
29.0119601
0
LINE
8
DEFAULT_255_1_388
10
5.9893727
20
29.0119601
11
5.9893727
21
28.5963204
0
LINE
8
DEFAULT_255_1_388
10
5.9893727
20
28.5963204
11
5.8213097
21
28.5963204
0
LINE
8
DEFAULT_255_1_388
10
5.8213097
20
28.5963204
11
5.8213097
21
29.0119601
0
LINE
8
DEFAULT_255_1_388
10
5.8213097
20
29.0119601
11
5.4544625
21
29.0119601
0
LINE
8
DEFAULT_255_1_388
10
5.4544625
20
29.0119601
11
5.4544625
21
29.1700838
0
LINE
8
DEFAULT_255_1_388
10
5.4544625
20
29.1700838
11
5.8213097
21
29.1700838
0
LINE
8
DEFAULT_255_1_388
10
5.8213097
20
29.1700838
11
5.8213097
21
29.5540987
0
LINE
8
DEFAULT_255_1_388
10
5.8213097
20
29.5540987
11
5.9893727
21
29.5540987
0
LINE
8
DEFAULT_255_1_388
10
4.1804367
20
37.7174898
11
4.1804367
21
36.4019
0
LINE
8
DEFAULT_255_1_388
10
4.1804367
20
36.4019
11
4.0069523
21
36.4019
0
LINE
8
DEFAULT_255_1_388
10
4.0069523
20
36.4019
11
4.0069523
21
37.7174898
0
LINE
8
DEFAULT_255_1_388
10
4.0069523
20
37.7174898
11
4.1804367
21
37.7174898
0
LINE
8
DEFAULT_255_1_388
10
5.1599005
20
37.7174898
11
5.1599005
21
36.843743
0
LINE
8
DEFAULT_255_1_388
10
5.1599005
20
36.843743
11
5.3424206
21
36.843743
0
LINE
8
DEFAULT_255_1_388
10
5.3424206
20
36.843743
11
5.3424206
21
36.7073048
0
LINE
8
DEFAULT_255_1_388
10
5.3424206
20
36.7073048
11
5.1599005
21
36.7073048
0
LINE
8
DEFAULT_255_1_388
10
5.1599005
20
36.7073048
11
5.1599005
21
36.4019
0
LINE
8
DEFAULT_255_1_388
10
5.1599005
20
36.4019
11
4.9918375
21
36.4019
0
LINE
8
DEFAULT_255_1_388
10
4.9918375
20
36.4019
11
4.9918375
21
36.7073048
0
LINE
8
DEFAULT_255_1_388
10
4.9918375
20
36.7073048
11
4.3927743
21
36.7073048
0
LINE
8
DEFAULT_255_1_388
10
4.3927743
20
36.7073048
11
4.3927743
21
36.8057933
0
LINE
8
DEFAULT_255_1_388
10
4.3927743
20
36.8057933
11
4.9818983
21
37.7174898
0
LINE
8
DEFAULT_255_1_388
10
4.9818983
20
37.7174898
11
5.1599005
21
37.7174898
0
LINE
8
DEFAULT_255_1_388
10
4.9719591
20
37.4527455
11
4.5825229
21
36.843743
0
LINE
8
DEFAULT_255_1_388
10
4.5825229
20
36.843743
11
4.9918375
21
36.843743
0
LINE
8
DEFAULT_255_1_388
10
4.9918375
20
36.843743
11
4.9918375
21
37.488888
0
LINE
8
DEFAULT_255_1_388
10
4.9918375
20
37.488888
11
4.9719591
21
37.4527455
0
LINE
8
DEFAULT_255_1_388
10
5.9893727
20
37.4915987
11
5.9893727
21
37.1075838
0
LINE
8
DEFAULT_255_1_388
10
5.9893727
20
37.1075838
11
6.3562199
21
37.1075838
0
LINE
8
DEFAULT_255_1_388
10
6.3562199
20
37.1075838
11
6.3562199
21
36.9494601
0
LINE
8
DEFAULT_255_1_388
10
6.3562199
20
36.9494601
11
5.9893727
21
36.9494601
0
LINE
8
DEFAULT_255_1_388
10
5.9893727
20
36.9494601
11
5.9893727
21
36.5338204
0
LINE
8
DEFAULT_255_1_388
10
5.9893727
20
36.5338204
11
5.8213097
21
36.5338204
0
LINE
8
DEFAULT_255_1_388
10
5.8213097
20
36.5338204
11
5.8213097
21
36.9494601
0
LINE
8
DEFAULT_255_1_388
10
5.8213097
20
36.9494601
11
5.4544625
21
36.9494601
0
LINE
8
DEFAULT_255_1_388
10
5.4544625
20
36.9494601
11
5.4544625
21
37.1075838
0
LINE
8
DEFAULT_255_1_388
10
5.4544625
20
37.1075838
11
5.8213097
21
37.1075838
0
LINE
8
DEFAULT_255_1_388
10
5.8213097
20
37.1075838
11
5.8213097
21
37.4915987
0
LINE
8
DEFAULT_255_1_388
10
5.8213097
20
37.4915987
11
5.9893727
21
37.4915987
0
LINE
8
DEFAULT_255_1_388
10
4.1804367
20
45.6549898
11
4.1804367
21
44.3394
0
LINE
8
DEFAULT_255_1_388
10
4.1804367
20
44.3394
11
4.0069523
21
44.3394
0
LINE
8
DEFAULT_255_1_388
10
4.0069523
20
44.3394
11
4.0069523
21
45.6549898
0
LINE
8
DEFAULT_255_1_388
10
4.0069523
20
45.6549898
11
4.1804367
21
45.6549898
0
LINE
8
DEFAULT_255_1_388
10
4.6972755
20
44.9420775
11
4.6972755
21
45.0785157
0
LINE
8
DEFAULT_255_1_388
10
4.6972755
20
45.0785157
11
4.822871
21
45.0785157
0
LINE
8
DEFAULT_255_1_388
10
4.6087262
20
45.3098282
11
4.4415668
21
45.3098282
0
LINE
8
DEFAULT_255_1_388
10
4.4298205
20
44.6863688
11
4.5978834
21
44.6863688
0
LINE
8
DEFAULT_255_1_388
10
4.822871
20
44.9420775
11
4.6972755
21
44.9420775
0
ARC
8
DEFAULT_255_1_388
10
4.8195936
20
45.4601922
40
0.3816905
50
270.491971
51
281.8953028
0
ARC
8
DEFAULT_255_1_388
10
4.8467363
20
45.3362199
40
0.2547877
50
281.6690378
51
301.2943765
0
ARC
8
DEFAULT_255_1_388
10
4.8658815
20
45.3011926
40
0.2149197
50
301.7834992
51
311.754567
0
ARC
8
DEFAULT_255_1_388
10
4.8761856
20
45.289765
40
0.1995326
50
311.7325027
51
354.2803031
0
ARC
8
DEFAULT_255_1_388
10
4.7944272
20
45.303828
40
0.2823461
50
353.0941646
51
0.1174696
0
ARC
8
DEFAULT_255_1_388
10
4.742583
20
45.3091874
40
0.3342238
50
359.1804452
51
15.0452323
0
ARC
8
DEFAULT_255_1_388
10
4.8939888
20
45.3533546
40
0.1765747
50
13.957816
51
77.6713812
0
ARC
8
DEFAULT_255_1_388
10
4.8505124
20
45.1975464
40
0.3381982
50
76.111571
51
90.7028736
0
ARC
8
DEFAULT_255_1_388
10
4.8438536
20
45.228325
40
0.3074046
50
89.5321574
51
103.5319393
0
ARC
8
DEFAULT_255_1_388
10
4.821292
20
45.3182443
40
0.2147041
50
103.2930114
51
133.5619756
0
ARC
8
DEFAULT_255_1_388
10
4.8162861
20
45.3249351
40
0.2064084
50
133.8349761
51
173.5343225
0
ARC
8
DEFAULT_255_1_388
10
4.8976519
20
45.3105144
40
0.2889266
50
172.5097183
51
180.1360699
0
ARC
8
DEFAULT_255_1_388
10
4.7906283
20
45.314388
40
0.3490913
50
155.3483706
51
180.7484035
0
ARC
8
DEFAULT_255_1_388
10
4.7851258
20
45.3111519
40
0.3454798
50
131.5745177
51
154.4799474
0
ARC
8
DEFAULT_255_1_388
10
4.8203541
20
45.2755422
40
0.3955058
50
96.9874487
51
131.9690874
0
ARC
8
DEFAULT_255_1_388
10
4.8450434
20
45.1354407
40
0.537622
50
89.8592909
51
97.7827481
0
ARC
8
DEFAULT_255_1_388
10
4.8504543
20
45.105936
40
0.5671399
50
78.3654493
51
90.4132586
0
ARC
8
DEFAULT_255_1_388
10
4.8907184
20
45.2925918
40
0.3762034
50
56.6229818
51
78.6387103
0
ARC
8
DEFAULT_255_1_388
10
4.9149013
20
45.3348846
40
0.3275964
50
47.0254604
51
56.085558
0
ARC
8
DEFAULT_255_1_388
10
4.9171264
20
45.3393189
40
0.3228382
50
10.9207523
51
46.777927
0
ARC
8
DEFAULT_255_1_388
10
4.7636858
20
45.3038401
40
0.4802559
50
359.6364235
51
11.6087615
0
ARC
8
DEFAULT_255_1_388
10
4.9701024
20
45.3021404
40
0.273833
50
332.3549969
51
359.7179765
0
ARC
8
DEFAULT_255_1_388
10
4.8969424
20
45.3368285
40
0.3547505
50
325.2332381
51
332.8746682
0
ARC
8
DEFAULT_255_1_388
10
4.9141007
20
45.3248763
40
0.3338396
50
292.9803892
51
325.2391113
0
ARC
8
DEFAULT_255_1_388
10
4.8830203
20
45.3853679
40
0.4016959
50
292.542178
51
293.6931461
0
ARC
8
DEFAULT_255_1_388
10
4.9273775
20
44.6588036
40
0.372079
50
57.643292
51
72.8626085
0
ARC
8
DEFAULT_255_1_388
10
4.9672609
20
44.7234273
40
0.2961455
50
36.7246661
51
57.4701329
0
ARC
8
DEFAULT_255_1_388
10
4.9659766
20
44.724847
40
0.2963321
50
8.054535
51
36.3561529
0
ARC
8
DEFAULT_255_1_388
10
4.8689439
20
44.7074073
40
0.3948682
50
359.8316595
51
8.5873361
0
ARC
8
DEFAULT_255_1_388
10
4.8266913
20
44.701997
40
0.4371398
50
343.9831631
51
0.557075
0
ARC
8
DEFAULT_255_1_388
10
4.9263962
20
44.6746963
40
0.3337749
50
311.6358204
51
343.7652116
0
ARC
8
DEFAULT_255_1_388
10
4.8838216
20
44.7226955
40
0.3979351
50
279.7829743
51
311.625622
0
ARC
8
DEFAULT_255_1_388
10
4.8499351
20
44.8843642
40
0.5630417
50
269.7285092
51
280.3857694
0
ARC
8
DEFAULT_255_1_388
10
4.8429664
20
44.8797241
40
0.5584119
50
256.6827433
51
270.4412869
0
ARC
8
DEFAULT_255_1_388
10
4.8048651
20
44.7239698
40
0.3980715
50
229.4223821
51
256.8554507
0
ARC
8
DEFAULT_255_1_388
10
4.7582204
20
44.6714683
40
0.3278564
50
181.8183354
51
229.6455015
0
ARC
8
DEFAULT_255_1_388
10
4.8751814
20
44.6861825
40
0.4453611
50
179.9760419
51
183.2330638
0
ARC
8
DEFAULT_255_1_388
10
4.8558366
20
44.6838781
40
0.2579652
50
179.4467996
51
196.2871626
0
ARC
8
DEFAULT_255_1_388
10
4.800982
20
44.6688709
40
0.2011057
50
196.5661293
51
227.7059371
0
ARC
8
DEFAULT_255_1_388
10
4.8194427
20
44.6895155
40
0.2287994
50
227.7653015
51
257.8763321
0
ARC
8
DEFAULT_255_1_388
10
4.844751
20
44.7955961
40
0.3378385
50
257.4583525
51
270.4267406
0
ARC
8
DEFAULT_255_1_388
10
4.849876
20
44.828223
40
0.3704652
50
269.5965319
51
280.8788143
0
ARC
8
DEFAULT_255_1_388
10
4.8756988
20
44.6992529
40
0.2389415
50
280.6347277
51
299.8594068
0
ARC
8
DEFAULT_255_1_388
10
4.8971757
20
44.6584736
40
0.19289
50
300.3575552
51
314.5515667
0
ARC
8
DEFAULT_255_1_388
10
4.8878433
20
44.6653025
40
0.204312
50
315.0730962
51
345.0429362
0
ARC
8
DEFAULT_255_1_388
10
4.7839941
20
44.6955539
40
0.31246
50
344.598526
51
357.9270698
0
ARC
8
DEFAULT_255_1_388
10
4.6830245
20
44.7024705
40
0.4136265
50
357.4755098
51
0.0224936
0
ARC
8
DEFAULT_255_1_388
10
4.7983123
20
44.7052099
40
0.2983498
50
359.5051035
51
13.4236939
0
ARC
8
DEFAULT_255_1_388
10
4.8958213
20
44.7301637
40
0.1977186
50
12.9497905
51
48.7550905
0
ARC
8
DEFAULT_255_1_388
10
4.8753135
20
44.7021373
40
0.2323321
50
49.509109
51
72.1832965
0
ARC
8
DEFAULT_255_1_388
10
4.8350603
20
44.5826632
40
0.358397
50
71.9008458
51
84.3555134
0
ARC
8
DEFAULT_255_1_388
10
4.8168998
20
44.4294712
40
0.512641
50
84.019632
51
89.3326067
0
LINE
8
DEFAULT_255_1_388
10
5.9893727
20
45.4290987
11
5.9893727
21
45.0450838
0
LINE
8
DEFAULT_255_1_388
10
5.9893727
20
45.0450838
11
6.3562199
21
45.0450838
0
LINE
8
DEFAULT_255_1_388
10
6.3562199
20
45.0450838
11
6.3562199
21
44.8869601
0
LINE
8
DEFAULT_255_1_388
10
6.3562199
20
44.8869601
11
5.9893727
21
44.8869601
0
LINE
8
DEFAULT_255_1_388
10
5.9893727
20
44.8869601
11
5.9893727
21
44.4713204
0
LINE
8
DEFAULT_255_1_388
10
5.9893727
20
44.4713204
11
5.8213097
21
44.4713204
0
LINE
8
DEFAULT_255_1_388
10
5.8213097
20
44.4713204
11
5.8213097
21
44.8869601
0
LINE
8
DEFAULT_255_1_388
10
5.8213097
20
44.8869601
11
5.4544625
21
44.8869601
0
LINE
8
DEFAULT_255_1_388
10
5.4544625
20
44.8869601
11
5.4544625
21
45.0450838
0
LINE
8
DEFAULT_255_1_388
10
5.4544625
20
45.0450838
11
5.8213097
21
45.0450838
0
LINE
8
DEFAULT_255_1_388
10
5.8213097
20
45.0450838
11
5.8213097
21
45.4290987
0
LINE
8
DEFAULT_255_1_388
10
5.8213097
20
45.4290987
11
5.9893727
21
45.4290987
0
LINE
8
DEFAULT_255_1_388
10
4.1804367
20
53.5924898
11
4.1804367
21
52.2769
0
LINE
8
DEFAULT_255_1_388
10
4.1804367
20
52.2769
11
4.0069523
21
52.2769
0
LINE
8
DEFAULT_255_1_388
10
4.0069523
20
52.2769
11
4.0069523
21
53.5924898
0
LINE
8
DEFAULT_255_1_388
10
4.0069523
20
53.5924898
11
4.1804367
21
53.5924898
0
LINE
8
DEFAULT_255_1_388
10
5.3162172
20
52.4133382
11
5.3162172
21
52.2769
0
LINE
8
DEFAULT_255_1_388
10
5.3162172
20
52.2769
11
4.4542167
21
52.2769
0
LINE
8
DEFAULT_255_1_388
10
4.4542167
20
52.2769
11
4.4542167
21
52.3970741
0
LINE
8
DEFAULT_255_1_388
10
4.4542167
20
52.3970741
11
4.9096132
21
52.9030702
0
LINE
8
DEFAULT_255_1_388
10
4.5960763
20
53.2048607
11
4.4289169
21
53.2048607
0
LINE
8
DEFAULT_255_1_388
10
5.0081017
20
52.795546
11
4.6557116
21
52.4133382
0
LINE
8
DEFAULT_255_1_388
10
4.6557116
20
52.4133382
11
5.3162172
21
52.4133382
0
ARC
8
DEFAULT_255_1_388
10
3.3920191
20
54.2450983
40
2.0258655
50
318.5132526
51
320.7829045
0
ARC
8
DEFAULT_255_1_388
10
3.9868148
20
53.7609929
40
1.2589638
50
320.7372878
51
323.9739031
0
ARC
8
DEFAULT_255_1_388
10
4.427708
20
53.4415554
40
0.7145141
50
323.8962701
51
328.64194
0
ARC
8
DEFAULT_255_1_388
10
4.6579338
20
53.2995545
40
0.4440242
50
328.8294576
51
331.7891185
0
ARC
8
DEFAULT_255_1_388
10
4.7701658
20
53.2416374
40
0.3177517
50
331.4254512
51
352.9365785
0
ARC
8
DEFAULT_255_1_388
10
4.7854658
20
53.238205
40
0.3021496
50
353.2257659
51
0.0166158
0
ARC
8
DEFAULT_255_1_388
10
4.8091418
20
53.2407894
40
0.2784847
50
359.486299
51
15.9343185
0
ARC
8
DEFAULT_255_1_388
10
4.8661685
20
53.2561269
40
0.2194403
50
16.1712913
51
43.5286088
0
ARC
8
DEFAULT_255_1_388
10
4.874863
20
53.2648191
40
0.2071504
50
43.4417391
51
83.1661095
0
ARC
8
DEFAULT_255_1_388
10
4.8597791
20
53.1819316
40
0.2912888
50
82.160179
51
90.1505708
0
ARC
8
DEFAULT_255_1_388
10
4.8562272
20
53.1215279
40
0.3517025
50
89.5460741
51
102.5418361
0
ARC
8
DEFAULT_255_1_388
10
4.8288992
20
53.2374933
40
0.2325748
50
102.1738499
51
129.206123
0
ARC
8
DEFAULT_255_1_388
10
4.8200446
20
53.2514664
40
0.2161591
50
129.72865
51
135.753947
0
ARC
8
DEFAULT_255_1_388
10
4.8336928
20
53.2405728
40
0.2335433
50
136.1757367
51
166.3673339
0
ARC
8
DEFAULT_255_1_388
10
4.9469616
20
53.2102148
40
0.3507873
50
165.9090694
51
178.8684636
0
ARC
8
DEFAULT_255_1_388
10
5.0445388
20
53.2049263
40
0.4484624
50
178.4391136
51
180.0083808
0
ARC
8
DEFAULT_255_1_388
10
4.8866089
20
53.2093197
40
0.4577138
50
163.2878482
51
180.5581842
0
ARC
8
DEFAULT_255_1_388
10
4.796413
20
53.2341393
40
0.3641968
50
133.4540601
51
162.947111
0
ARC
8
DEFAULT_255_1_388
10
4.8165012
20
53.2127789
40
0.3935189
50
100.7869829
51
133.4382499
0
ARC
8
DEFAULT_255_1_388
10
4.8556257
20
53.0385399
40
0.5720313
50
89.660664
51
101.3702276
0
ARC
8
DEFAULT_255_1_388
10
4.8630866
20
53.0454263
40
0.5651495
50
78.2172678
51
90.412935
0
ARC
8
DEFAULT_255_1_388
10
4.9030332
20
53.2281511
40
0.378122
50
55.9269121
51
78.4888449
0
ARC
8
DEFAULT_255_1_388
10
4.9251047
20
53.2662187
40
0.3342379
50
47.929771
51
55.4049217
0
ARC
8
DEFAULT_255_1_388
10
4.9365577
20
53.2778618
40
0.3179217
50
4.334829
51
48.0560205
0
ARC
8
DEFAULT_255_1_388
10
4.8133379
20
53.2587487
40
0.442341
50
359.9251713
51
5.5971671
0
ARC
8
DEFAULT_255_1_388
10
4.8615534
20
53.2650728
40
0.3941854
50
337.8914027
51
358.9967534
0
ARC
8
DEFAULT_255_1_388
10
4.5563104
20
53.3828295
40
0.7213271
50
326.9132501
51
338.3508308
0
ARC
8
DEFAULT_255_1_388
10
4.1079216
20
53.6702105
40
1.2538973
50
319.6471833
51
327.0959558
0
ARC
8
DEFAULT_255_1_388
10
3.6765874
20
54.026005
40
1.8129975
50
317.2588228
51
319.9045804
0
LINE
8
DEFAULT_255_1_388
10
5.9893727
20
53.3665987
11
5.9893727
21
52.9825838
0
LINE
8
DEFAULT_255_1_388
10
5.9893727
20
52.9825838
11
6.3562199
21
52.9825838
0
LINE
8
DEFAULT_255_1_388
10
6.3562199
20
52.9825838
11
6.3562199
21
52.8244601
0
LINE
8
DEFAULT_255_1_388
10
6.3562199
20
52.8244601
11
5.9893727
21
52.8244601
0
LINE
8
DEFAULT_255_1_388
10
5.9893727
20
52.8244601
11
5.9893727
21
52.4088204
0
LINE
8
DEFAULT_255_1_388
10
5.9893727
20
52.4088204
11
5.8213097
21
52.4088204
0
LINE
8
DEFAULT_255_1_388
10
5.8213097
20
52.4088204
11
5.8213097
21
52.8244601
0
LINE
8
DEFAULT_255_1_388
10
5.8213097
20
52.8244601
11
5.4544625
21
52.8244601
0
LINE
8
DEFAULT_255_1_388
10
5.4544625
20
52.8244601
11
5.4544625
21
52.9825838
0
LINE
8
DEFAULT_255_1_388
10
5.4544625
20
52.9825838
11
5.8213097
21
52.9825838
0
LINE
8
DEFAULT_255_1_388
10
5.8213097
20
52.9825838
11
5.8213097
21
53.3665987
0
LINE
8
DEFAULT_255_1_388
10
5.8213097
20
53.3665987
11
5.9893727
21
53.3665987
0
LINE
8
DEFAULT_255_1_388
10
4.1804367
20
61.5299898
11
4.1804367
21
60.2144
0
LINE
8
DEFAULT_255_1_388
10
4.1804367
20
60.2144
11
4.0069523
21
60.2144
0
LINE
8
DEFAULT_255_1_388
10
4.0069523
20
60.2144
11
4.0069523
21
61.5299898
0
LINE
8
DEFAULT_255_1_388
10
4.0069523
20
61.5299898
11
4.1804367
21
61.5299898
0
LINE
8
DEFAULT_255_1_388
10
5.0035839
20
61.5363148
11
5.0035839
21
60.2144
0
LINE
8
DEFAULT_255_1_388
10
5.0035839
20
60.2144
11
4.8355209
21
60.2144
0
LINE
8
DEFAULT_255_1_388
10
4.8355209
20
60.2144
11
4.8355209
21
61.328495
0
LINE
8
DEFAULT_255_1_388
10
4.8355209
20
61.328495
11
4.4984914
21
61.2047066
0
LINE
8
DEFAULT_255_1_388
10
4.4984914
20
61.2047066
11
4.4984914
21
61.3565055
0
LINE
8
DEFAULT_255_1_388
10
4.4984914
20
61.3565055
11
4.9773805
21
61.5363148
0
LINE
8
DEFAULT_255_1_388
10
4.9773805
20
61.5363148
11
5.0035839
21
61.5363148
0
LINE
8
DEFAULT_255_1_388
10
5.9893727
20
61.3040987
11
5.9893727
21
60.9200838
0
LINE
8
DEFAULT_255_1_388
10
5.9893727
20
60.9200838
11
6.3562199
21
60.9200838
0
LINE
8
DEFAULT_255_1_388
10
6.3562199
20
60.9200838
11
6.3562199
21
60.7619601
0
LINE
8
DEFAULT_255_1_388
10
6.3562199
20
60.7619601
11
5.9893727
21
60.7619601
0
LINE
8
DEFAULT_255_1_388
10
5.9893727
20
60.7619601
11
5.9893727
21
60.3463204
0
LINE
8
DEFAULT_255_1_388
10
5.9893727
20
60.3463204
11
5.8213097
21
60.3463204
0
LINE
8
DEFAULT_255_1_388
10
5.8213097
20
60.3463204
11
5.8213097
21
60.7619601
0
LINE
8
DEFAULT_255_1_388
10
5.8213097
20
60.7619601
11
5.4544625
21
60.7619601
0
LINE
8
DEFAULT_255_1_388
10
5.4544625
20
60.7619601
11
5.4544625
21
60.9200838
0
LINE
8
DEFAULT_255_1_388
10
5.4544625
20
60.9200838
11
5.8213097
21
60.9200838
0
LINE
8
DEFAULT_255_1_388
10
5.8213097
20
60.9200838
11
5.8213097
21
61.3040987
0
LINE
8
DEFAULT_255_1_388
10
5.8213097
20
61.3040987
11
5.9893727
21
61.3040987
0
LINE
8
DEFAULT_255_1_388
10
4.784032
20
68.5693468
11
4.9584199
21
68.5693468
0
LINE
8
DEFAULT_255_1_388
10
3.9455242
20
68.7482525
11
3.9455242
21
68.8747516
0
LINE
8
DEFAULT_255_1_388
10
4.9584199
20
69.0446217
11
4.784032
21
69.0446217
0
LINE
8
DEFAULT_255_1_388
10
4.1199121
20
68.8702337
11
4.1199121
21
68.7428312
0
ARC
8
DEFAULT_255_1_388
10
4.3418433
20
68.6365329
40
0.6202263
50
340.1774904
51
353.7812217
0
ARC
8
DEFAULT_255_1_388
10
4.5186286
20
68.5706893
40
0.4315926
50
311.4560052
51
340.4420756
0
ARC
8
DEFAULT_255_1_388
10
4.5148826
20
68.5831665
40
0.4434573
50
282.4332229
51
310.7514507
0
ARC
8
DEFAULT_255_1_388
10
4.4654644
20
68.7873703
40
0.6535262
50
269.9358869
51
282.8096729
0
ARC
8
DEFAULT_255_1_388
10
4.4596583
20
68.9386329
40
0.8048043
50
269.9995752
51
270.3612856
0
ARC
8
DEFAULT_255_1_388
10
4.4537073
20
68.6587781
40
0.5249831
50
250.7885263
51
270.6488451
0
ARC
8
DEFAULT_255_1_388
10
4.4347898
20
68.5870853
40
0.4510942
50
219.3628377
51
250.0611024
0
ARC
8
DEFAULT_255_1_388
10
4.5280772
20
68.6663653
40
0.5735046
50
193.5480293
51
219.5755675
0
ARC
8
DEFAULT_255_1_388
10
4.7948981
20
68.735652
40
0.849146
50
181.1220183
51
193.8754971
0
ARC
8
DEFAULT_255_1_388
10
5.0272214
20
68.7480914
40
1.0816971
50
179.9914644
51
181.5398227
0
ARC
8
DEFAULT_255_1_388
10
4.8195525
20
68.8789586
40
0.8740384
50
169.5837606
51
180.275782
0
ARC
8
DEFAULT_255_1_388
10
4.6128873
20
68.9171439
40
0.6638751
50
155.0367033
51
169.6002779
0
ARC
8
DEFAULT_255_1_388
10
4.4851331
20
68.9787336
40
0.5220662
50
136.7831557
51
155.2472983
0
ARC
8
DEFAULT_255_1_388
10
4.4413122
20
69.0159577
40
0.4646502
50
121.7633063
51
136.4281161
0
ARC
8
DEFAULT_255_1_388
10
4.4564962
20
68.9879049
40
0.4964979
50
95.6460018
51
121.5489589
0
ARC
8
DEFAULT_255_1_388
10
4.4741936
20
68.8631704
40
0.6223912
50
89.9245727
51
96.1375919
0
ARC
8
DEFAULT_255_1_388
10
4.4798641
20
68.8765721
40
0.6090084
50
76.6779212
51
90.456405
0
ARC
8
DEFAULT_255_1_388
10
4.5241454
20
69.055506
40
0.42469
50
47.4858803
51
76.9287069
0
ARC
8
DEFAULT_255_1_388
10
4.5076068
20
69.0442623
40
0.4441778
50
16.5424081
51
46.8934505
0
ARC
8
DEFAULT_255_1_388
10
4.3267118
20
68.9848265
40
0.6345318
50
5.4072971
51
17.0363711
0
ARC
8
DEFAULT_255_1_388
10
4.1648843
20
68.9588304
40
0.6250632
50
7.8888693
51
15.9242022
0
ARC
8
DEFAULT_255_1_388
10
4.3883828
20
69.0237309
40
0.3923364
50
15.7650676
51
27.9410069
0
ARC
8
DEFAULT_255_1_388
10
4.5125997
20
69.0902317
40
0.2514401
50
27.8167196
51
46.4007942
0
ARC
8
DEFAULT_255_1_388
10
4.5181839
20
69.0895882
40
0.2480958
50
47.4372362
51
75.0695672
0
ARC
8
DEFAULT_255_1_388
10
4.4834675
20
68.9687277
40
0.3738281
50
74.7009379
51
87.8124314
0
ARC
8
DEFAULT_255_1_388
10
4.4752292
20
68.8503659
40
0.4924321
50
87.3802571
51
90.0251599
0
ARC
8
DEFAULT_255_1_388
10
4.4708939
20
68.9823997
40
0.3604218
50
89.3451886
51
108.5744412
0
ARC
8
DEFAULT_255_1_388
10
4.4554931
20
69.0401836
40
0.3007661
50
109.2998307
51
143.3037387
0
ARC
8
DEFAULT_255_1_388
10
4.5412221
20
68.9742584
40
0.4089031
50
143.075267
51
163.1918576
0
ARC
8
DEFAULT_255_1_388
10
4.7608055
20
68.9049652
40
0.6391492
50
162.9375929
51
174.6208776
0
ARC
8
DEFAULT_255_1_388
10
5.0562437
20
68.8725711
40
0.9363344
50
174.342123
51
180.1430283
0
ARC
8
DEFAULT_255_1_388
10
4.9514978
20
68.7382117
40
0.8315986
50
179.6817261
51
189.150555
0
ARC
8
DEFAULT_255_1_388
10
4.6701727
20
68.6913559
40
0.5464044
50
188.9911061
51
203.5772363
0
ARC
8
DEFAULT_255_1_388
10
4.5487019
20
68.6409539
40
0.4149206
50
203.9075402
51
215.1312435
0
ARC
8
DEFAULT_255_1_388
10
4.4448817
20
68.5604907
40
0.2837747
50
213.9071511
51
263.8848919
0
ARC
8
DEFAULT_255_1_388
10
4.458981
20
68.6487519
40
0.3730641
50
263.1757928
51
270.1031044
0
ARC
8
DEFAULT_255_1_388
10
4.462589
20
68.7890511
40
0.5133712
50
269.6722503
51
279.0606936
0
ARC
8
DEFAULT_255_1_388
10
4.4926045
20
68.607615
40
0.3294739
50
278.8749101
51
293.6349581
0
ARC
8
DEFAULT_255_1_388
10
4.5286249
20
68.5230251
40
0.2375405
50
293.8553806
51
310.0518171
0
ARC
8
DEFAULT_255_1_388
10
4.5291758
20
68.5160021
40
0.2318463
50
311.0644687
51
332.0111037
0
ARC
8
DEFAULT_255_1_388
10
4.3950431
20
68.5899702
40
0.3850112
50
331.6586806
51
343.2877423
0
ARC
8
DEFAULT_255_1_388
10
4.1629896
20
68.6612806
40
0.6277712
50
343.1446576
51
351.0103568
0
ARC
8
DEFAULT_255_1_388
10
3.999722
20
68.6912873
40
0.7937327
50
350.71248
51
351.1626997
0
LINE
8
DEFAULT_255_1_388
10
6.207146
20
68.8503553
11
6.207146
21
68.7672274
0
LINE
8
DEFAULT_255_1_388
10
5.149072
20
68.7554811
11
5.149072
21
68.8503553
0
LINE
8
DEFAULT_255_1_388
10
6.0345652
20
68.7545775
11
6.0345652
21
68.8521625
0
LINE
8
DEFAULT_255_1_388
10
5.3216528
20
68.8639088
11
5.3216528
21
68.7672274
0
ARC
8
DEFAULT_255_1_388
10
5.2349198
20
68.7627726
40
0.9722364
50
350.4878118
51
0.2625322
0
ARC
8
DEFAULT_255_1_388
10
5.4929158
20
68.7183994
40
0.7104556
50
336.0277991
51
350.5787241
0
ARC
8
DEFAULT_255_1_388
10
5.6442265
20
68.6500243
40
0.544417
50
319.887443
51
336.1331163
0
ARC
8
DEFAULT_255_1_388
10
5.7120077
20
68.5957733
40
0.4576311
50
302.4806296
51
319.6144102
0
ARC
8
DEFAULT_255_1_388
10
5.6990699
20
68.6207067
40
0.4856183
50
275.8196423
51
302.1885521
0
ARC
8
DEFAULT_255_1_388
10
5.680356
20
68.7492466
40
0.6154183
50
269.9169897
51
276.339506
0
ARC
8
DEFAULT_255_1_388
10
5.6753161
20
68.672068
40
0.5382553
50
252.5221437
51
270.441579
0
ARC
8
DEFAULT_255_1_388
10
5.6591411
20
68.6114046
40
0.4755426
50
237.5349961
51
252.1858334
0
ARC
8
DEFAULT_255_1_388
10
5.6691787
20
68.624212
40
0.4917393
50
209.0632754
51
237.3492577
0
ARC
8
DEFAULT_255_1_388
10
5.7671113
20
68.6857104
40
0.6072464
50
205.118533
51
209.6465345
0
ARC
8
DEFAULT_255_1_388
10
5.8567115
20
68.7237174
40
0.7045164
50
188.7216633
51
204.8239753
0
ARC
8
DEFAULT_255_1_388
10
6.0813891
20
68.7615387
40
0.9323368
50
180.3722704
51
188.9253909
0
ARC
8
DEFAULT_255_1_388
10
6.0783452
20
68.8548416
40
0.929284
50
169.5253055
51
180.2766048
0
ARC
8
DEFAULT_255_1_388
10
5.8643251
20
68.8942024
40
0.7116745
50
155.8314601
51
169.5088611
0
ARC
8
DEFAULT_255_1_388
10
5.7202714
20
68.9610312
40
0.5528904
50
139.6259579
51
156.0379072
0
ARC
8
DEFAULT_255_1_388
10
5.6539248
20
69.0144143
40
0.4677708
50
122.6414784
51
139.3431662
0
ARC
8
DEFAULT_255_1_388
10
5.6652503
20
68.9937787
40
0.4912586
50
93.0224537
51
122.4556091
0
ARC
8
DEFAULT_255_1_388
10
5.6774023
20
68.8851776
40
0.6003837
50
89.9756766
51
93.6340839
0
ARC
8
DEFAULT_255_1_388
10
5.6817621
20
68.9300879
40
0.5554884
50
73.7463329
51
90.4234008
0
ARC
8
DEFAULT_255_1_388
10
5.7015094
20
69.0065772
40
0.4765353
50
57.663051
51
73.4516911
0
ARC
8
DEFAULT_255_1_388
10
5.7006132
20
69.0090108
40
0.4749629
50
29.1441355
51
57.4146687
0
ARC
8
DEFAULT_255_1_388
10
5.5953943
20
68.9433046
40
0.5988917
50
24.0985653
51
29.732054
0
ARC
8
DEFAULT_255_1_388
10
5.4791575
20
68.8951154
40
0.7246823
50
8.6654943
51
23.8241215
0
ARC
8
DEFAULT_255_1_388
10
5.2277994
20
68.8541037
40
0.9793537
50
359.7807044
51
8.8218476
0
ARC
8
DEFAULT_255_1_388
10
5.0987698
20
68.8569731
40
0.9358078
50
359.7054632
51
8.0359751
0
ARC
8
DEFAULT_255_1_388
10
5.4362749
20
68.9061252
40
0.5947474
50
7.8926278
51
20.2962188
0
ARC
8
DEFAULT_255_1_388
10
5.61936
20
68.9736367
40
0.3996117
50
20.3231056
51
36.4990255
0
ARC
8
DEFAULT_255_1_388
10
5.6964897
20
69.0330399
40
0.3022818
50
36.1436715
51
85.6627846
0
ARC
8
DEFAULT_255_1_388
10
5.6782152
20
68.9160881
40
0.4203853
50
84.3845912
51
90.076054
0
ARC
8
DEFAULT_255_1_388
10
5.6734507
20
68.9903416
40
0.346157
50
89.3037228
51
109.9046209
0
ARC
8
DEFAULT_255_1_388
10
5.663034
20
69.0333379
40
0.3022217
50
110.8229774
51
143.917961
0
ARC
8
DEFAULT_255_1_388
10
5.76807
20
68.9531455
40
0.434348
50
143.5289166
51
163.2980252
0
ARC
8
DEFAULT_255_1_388
10
5.9826987
20
68.8856685
40
0.659321
50
163.0418884
51
174.3139873
0
ARC
8
DEFAULT_255_1_388
10
6.2531951
20
68.8544378
40
0.9315905
50
174.050934
51
179.4174954
0
ARC
8
DEFAULT_255_1_388
10
6.1963895
20
68.7625382
40
0.8747493
50
179.6928582
51
188.7908948
0
ARC
8
DEFAULT_255_1_388
10
5.8967695
20
68.7146086
40
0.5713262
50
188.6328449
51
202.5630732
0
ARC
8
DEFAULT_255_1_388
10
5.7556532
20
68.6579142
40
0.4192612
50
202.8078931
51
216.1195888
0
ARC
8
DEFAULT_255_1_388
10
5.6646049
20
68.5846479
40
0.3025752
50
215.0755613
51
264.6379773
0
ARC
8
DEFAULT_255_1_388
10
5.6788887
20
68.6781376
40
0.3970284
50
263.8464302
51
270.0830805
0
ARC
8
DEFAULT_255_1_388
10
5.6835431
20
68.6490808
40
0.3679937
50
269.3649295
51
287.5149684
0
ARC
8
DEFAULT_255_1_388
10
5.7035872
20
68.5762714
40
0.2925408
50
288.0629019
51
323.8115617
0
ARC
8
DEFAULT_255_1_388
10
5.6055848
20
68.6493754
40
0.4148018
50
323.6546541
51
342.6591359
0
ARC
8
DEFAULT_255_1_388
10
5.3770506
20
68.723728
40
0.6551163
50
342.4092446
51
353.6451501
0
ARC
8
DEFAULT_255_1_388
10
5.05853
20
68.7633565
40
0.9760748
50
353.4027553
51
359.4846611
0
LINE
8
DEFAULT_255_1_388
10
6.4673726
20
69.4674898
11
6.6914565
21
69.4674898
0
LINE
8
DEFAULT_255_1_388
10
6.6914565
20
69.4674898
11
7.1215532
21
68.3940553
0
LINE
8
DEFAULT_255_1_388
10
7.1215532
20
68.3940553
11
7.5516499
21
69.4674898
0
LINE
8
DEFAULT_255_1_388
10
7.5516499
20
69.4674898
11
7.7766375
21
69.4674898
0
LINE
8
DEFAULT_255_1_388
10
7.7766375
20
69.4674898
11
7.7766375
21
68.1519
0
LINE
8
DEFAULT_255_1_388
10
7.7766375
20
68.1519
11
7.6031531
21
68.1519
0
LINE
8
DEFAULT_255_1_388
10
7.6031531
20
68.1519
11
7.6031531
21
68.664221
0
LINE
8
DEFAULT_255_1_388
10
7.6031531
20
68.664221
11
7.6194172
21
69.2172025
0
LINE
8
DEFAULT_255_1_388
10
7.6194172
20
69.2172025
11
7.1875134
21
68.1519
0
LINE
8
DEFAULT_255_1_388
10
7.1875134
20
68.1519
11
7.0546895
21
68.1519
0
LINE
8
DEFAULT_255_1_388
10
7.0546895
20
68.1519
11
6.6236892
21
69.2144918
0
LINE
8
DEFAULT_255_1_388
10
6.6236892
20
69.2144918
11
6.6408569
21
68.664221
0
LINE
8
DEFAULT_255_1_388
10
6.6408569
20
68.664221
11
6.6408569
21
68.1519
0
LINE
8
DEFAULT_255_1_388
10
6.6408569
20
68.1519
11
6.4673726
21
68.1519
0
LINE
8
DEFAULT_255_1_388
10
6.4673726
20
68.1519
11
6.4673726
21
69.4674898
0
LINE
8
DEFAULT_255_1_388
10
23.1190856
20
76.867369
11
23.1190856
21
76.6505135
0
LINE
8
DEFAULT_255_1_388
10
22.2887099
20
76.6279244
11
22.2887099
21
76.8511048
0
LINE
8
DEFAULT_255_1_388
10
22.9519262
20
76.6053353
11
22.9519262
21
76.8791153
0
LINE
8
DEFAULT_255_1_388
10
22.4558693
20
76.8917652
11
22.4558693
21
76.6243102
0
ARC
8
DEFAULT_255_1_388
10
21.741319
20
76.6450118
40
1.3777776
50
353.8440855
51
0.2287917
0
ARC
8
DEFAULT_255_1_388
10
22.2632208
20
76.5867414
40
0.852639
50
344.4934746
51
353.9763743
0
ARC
8
DEFAULT_255_1_388
10
22.5999015
20
76.4910191
40
0.5026273
50
329.2803599
51
344.7473406
0
ARC
8
DEFAULT_255_1_388
10
22.7114511
20
76.4298038
40
0.3754848
50
324.9361395
51
328.6153007
0
ARC
8
DEFAULT_255_1_388
10
22.7540161
20
76.4000586
40
0.3235566
50
280.5801797
51
324.9173226
0
ARC
8
DEFAULT_255_1_388
10
22.7088789
20
76.5880236
40
0.5167077
50
269.5979457
51
281.6732777
0
ARC
8
DEFAULT_255_1_388
10
22.7007693
20
76.5745113
40
0.5032026
50
256.6228565
51
270.5105488
0
ARC
8
DEFAULT_255_1_388
10
22.6555435
20
76.4003345
40
0.3233092
50
215.8618351
51
257.2787793
0
ARC
8
DEFAULT_255_1_388
10
22.7704142
20
76.4774106
40
0.4615831
50
197.9695203
51
215.2622745
0
ARC
8
DEFAULT_255_1_388
10
23.0499818
20
76.5717641
40
0.7566307
50
187.8816486
51
198.2346584
0
ARC
8
DEFAULT_255_1_388
10
23.4953056
20
76.6360453
40
1.2065653
50
180.8977266
51
188.0054894
0
ARC
8
DEFAULT_255_1_388
10
23.800327
20
76.64754
40
1.5117443
50
180.7434591
51
181.152202
0
ARC
8
DEFAULT_255_1_388
10
23.6328266
20
76.8565371
40
1.3441277
50
173.7674302
51
180.2315596
0
ARC
8
DEFAULT_255_1_388
10
23.1246135
20
76.9139779
40
0.8326847
50
164.3058537
51
173.9000553
0
ARC
8
DEFAULT_255_1_388
10
22.7970135
20
77.0083652
40
0.4917711
50
148.7922028
51
164.5682288
0
ARC
8
DEFAULT_255_1_388
10
22.6900872
20
77.0680457
40
0.3694204
50
144.5883979
51
148.1161588
0
ARC
8
DEFAULT_255_1_388
10
22.6513618
20
77.0950667
40
0.322202
50
101.6440149
51
144.5142619
0
ARC
8
DEFAULT_255_1_388
10
22.699181
20
76.9050337
40
0.5180451
50
89.528284
51
102.5820197
0
ARC
8
DEFAULT_255_1_388
10
22.7080802
20
76.9006376
40
0.5224441
50
77.0437914
51
90.508231
0
ARC
8
DEFAULT_255_1_388
10
22.7533055
20
77.0854272
40
0.3322297
50
48.2777708
51
77.4996087
0
ARC
8
DEFAULT_255_1_388
10
22.7614795
20
77.0999557
40
0.315966
50
36.3141586
51
47.6307332
0
ARC
8
DEFAULT_255_1_388
10
22.6637518
20
77.0341159
40
0.4337313
50
18.2931065
51
35.6770203
0
ARC
8
DEFAULT_255_1_388
10
22.3776358
20
76.9359107
40
0.7362203
50
8.0246996
51
18.5605636
0
ARC
8
DEFAULT_255_1_388
10
21.9092714
20
76.8667432
40
1.2096583
50
1.127539
51
8.1718423
0
ARC
8
DEFAULT_255_1_388
10
21.5443847
20
76.8524374
40
1.5747719
50
0.5432713
51
1.38669
0
ARC
8
DEFAULT_255_1_388
10
21.7501226
20
76.8831163
40
1.2018103
50
359.8092569
51
4.9408001
0
ARC
8
DEFAULT_255_1_388
10
22.2237807
20
76.92539
40
0.7262727
50
4.8364937
51
12.2906017
0
ARC
8
DEFAULT_255_1_388
10
22.5337272
20
76.9944485
40
0.4087324
50
12.0806994
51
23.8171225
0
ARC
8
DEFAULT_255_1_388
10
22.6657668
20
77.0503508
40
0.2653719
50
24.2874621
51
31.3934353
0
ARC
8
DEFAULT_255_1_388
10
22.7248104
20
77.0889822
40
0.1948607
50
30.7407708
51
82.4658033
0
ARC
8
DEFAULT_255_1_388
10
22.7045765
20
76.9896017
40
0.2961198
50
81.1057101
51
90.2187368
0
ARC
8
DEFAULT_255_1_388
10
22.7005577
20
77.0186421
40
0.2670929
50
89.380395
51
105.6763916
0
ARC
8
DEFAULT_255_1_388
10
22.6799299
20
77.093632
40
0.1893189
50
105.7980655
51
149.7387869
0
ARC
8
DEFAULT_255_1_388
10
22.7996439
20
77.0216719
40
0.3289892
50
149.4208441
51
163.628295
0
ARC
8
DEFAULT_255_1_388
10
23.0348668
20
76.9499345
40
0.5749004
50
163.3764549
51
172.141138
0
ARC
8
DEFAULT_255_1_388
10
23.406139
20
76.8967582
40
0.9499585
50
172.0258462
51
178.0705453
0
ARC
8
DEFAULT_255_1_388
10
23.7482943
20
76.8805682
40
1.2924734
50
177.8639301
51
179.5036263
0
ARC
8
DEFAULT_255_1_388
10
23.6263961
20
76.6202151
40
1.170534
50
179.7995545
51
185.246089
0
ARC
8
DEFAULT_255_1_388
10
23.1715554
20
76.5771404
40
0.7136613
50
185.1411911
51
193.0082205
0
ARC
8
DEFAULT_255_1_388
10
22.8741815
20
76.5068441
40
0.4080987
50
192.7897338
51
205.2507384
0
ARC
8
DEFAULT_255_1_388
10
22.7564025
20
76.4542538
40
0.2791522
50
205.8001921
51
211.2545876
0
ARC
8
DEFAULT_255_1_388
10
22.6975564
20
76.4148132
40
0.2084074
50
210.3789935
51
238.4007996
0
ARC
8
DEFAULT_255_1_388
10
22.695365
20
76.4200786
40
0.2117943
50
239.6521916
51
265.9793852
0
ARC
8
DEFAULT_255_1_388
10
22.7049499
20
76.4957358
40
0.2879689
50
265.1324455
51
270.0603288
0
ARC
8
DEFAULT_255_1_388
10
22.7081876
20
76.4592418
40
0.2514919
50
269.3314378
51
287.2180039
0
ARC
8
DEFAULT_255_1_388
10
22.7236958
20
76.4026291
40
0.1928357
50
287.7957942
51
329.0808983
0
ARC
8
DEFAULT_255_1_388
10
22.6159715
20
76.4698651
40
0.319808
50
328.6635261
51
343.3325043
0
ARC
8
DEFAULT_255_1_388
10
22.3715174
20
76.5460195
40
0.5758408
50
343.0498092
51
351.9392499
0
ARC
8
DEFAULT_255_1_388
10
21.9814496
20
76.6035205
40
0.9701202
50
351.8071632
51
357.7957897
0
ARC
8
DEFAULT_255_1_388
10
21.6179973
20
76.6223724
40
1.3340376
50
357.5870923
51
359.2682493
0
LINE
8
DEFAULT_255_1_388
10
23.4380439
20
77.4049898
11
23.8121196
21
76.3198089
0
LINE
8
DEFAULT_255_1_388
10
23.8121196
20
76.3198089
11
24.1880024
21
77.4049898
0
LINE
8
DEFAULT_255_1_388
10
24.1880024
20
77.4049898
11
24.3777509
21
77.4049898
0
LINE
8
DEFAULT_255_1_388
10
24.3777509
20
77.4049898
11
23.8898261
21
76.0894
0
LINE
8
DEFAULT_255_1_388
10
23.8898261
20
76.0894
11
23.7362202
21
76.0894
0
LINE
8
DEFAULT_255_1_388
10
23.7362202
20
76.0894
11
23.2491989
21
77.4049898
0
LINE
8
DEFAULT_255_1_388
10
23.2491989
20
77.4049898
11
23.4380439
21
77.4049898
0
ENDSEC
0
EOF