0
SECTION
2
HEADER
9
$MEASUREMENT
70
1
0
ENDSEC
0
SECTION
2
TABLES
0
TABLE
2
LTYPE
0
LTYPE
72
65
70
64
2
CONTINUOUS
3
______
73
0
40
0
0
ENDTAB
0
TABLE
2
LAYER
0
LAYER
2
DEFAULT_255_2_778
70
0
62
255
6
CONTINUOUS
0
LAYER
2
DEFAULT_255_1_234
70
0
62
255
6
CONTINUOUS
0
LAYER
2
DEFAULT_255_2_778_1
70
0
62
255
6
CONTINUOUS
0
ENDTAB
0
ENDSEC
0
SECTION
2
ENTITIES
0
ARC
8
DEFAULT_255_2_778
10
3.5700693
20
51.9926534
40
0.7914215
50
129.1312896
51
180.1450914
0
ARC
8
DEFAULT_255_2_778
10
3.5703345
20
51.9931405
40
0.7912112
50
89.854026
51
129.1684493
0
ARC
8
DEFAULT_255_2_778
10
25.7993937
20
51.992827
40
0.7915249
50
39.4792447
51
90.147911
0
ARC
8
DEFAULT_255_2_778
10
25.7999935
20
51.9926737
40
0.7911595
50
359.8533901
51
39.5154338
0
ARC
8
DEFAULT_255_2_778
10
25.7996693
20
-1.9863989
40
0.7914836
50
309.4761667
51
0.1482649
0
ARC
8
DEFAULT_255_2_778
10
25.799398
20
-1.98683
40
0.7913235
50
269.8517415
51
309.511178
0
ARC
8
DEFAULT_255_2_778
10
3.570342
20
-1.9867718
40
0.7913815
50
219.1282118
51
270.1454017
0
ARC
8
DEFAULT_255_2_778
10
3.5700247
20
-1.9863893
40
0.7913769
50
179.8524075
51
219.1641908
0
LINE
8
DEFAULT_255_2_778
10
3.5723503
20
52.7843492
11
25.7973503
21
52.7843492
0
LINE
8
DEFAULT_255_2_778
10
26.5911503
20
51.9906492
11
26.5911503
21
-1.9843508
0
LINE
8
DEFAULT_255_2_778
10
25.7973503
20
-2.7781508
11
3.5723503
21
-2.7781508
0
LINE
8
DEFAULT_255_2_778
10
2.7786503
20
-1.9843508
11
2.7786503
21
51.9906492
0
LINE
8
DEFAULT_255_1_234
10
10.3834344
20
-0.1934909
11
10.1079458
21
-0.1934909
0
LINE
8
DEFAULT_255_1_234
10
10.1079458
20
-0.1934909
11
10.1079458
21
-0.6513
0
LINE
8
DEFAULT_255_1_234
10
10.1079458
20
-0.6513
11
9.9537364
21
-0.6513
0
LINE
8
DEFAULT_255_1_234
10
9.9537364
20
-0.6513
11
9.9537364
21
0.5181211
0
LINE
8
DEFAULT_255_1_234
10
9.9537364
20
0.5181211
11
10.3850407
21
0.5181211
0
LINE
8
DEFAULT_255_1_234
10
10.1079458
20
0.3912196
11
10.1079458
21
-0.0673926
0
LINE
8
DEFAULT_255_1_234
10
10.1079458
20
-0.0673926
11
10.3850407
21
-0.0673926
0
LINE
8
DEFAULT_255_1_234
10
10.3938756
20
0.3912196
11
10.1079458
21
0.3912196
0
ARC
8
DEFAULT_255_1_234
10
10.3892534
20
-0.0877805
40
0.6059162
50
78.8378113
51
90.3983573
0
ARC
8
DEFAULT_255_1_234
10
10.4308548
20
0.1142879
40
0.3996205
50
58.9632738
51
79.0810598
0
ARC
8
DEFAULT_255_1_234
10
10.461009
20
0.1702721
40
0.3361177
50
48.0197965
51
58.447194
0
ARC
8
DEFAULT_255_1_234
10
10.4698951
20
0.1788225
40
0.3238191
50
3.3375044
51
48.1766626
0
ARC
8
DEFAULT_255_1_234
10
10.346879
20
0.1611171
40
0.4477806
50
359.9477528
51
4.6829065
0
ARC
8
DEFAULT_255_1_234
10
10.3592107
20
0.1568628
40
0.4354656
50
346.1877825
51
0.5060252
0
ARC
8
DEFAULT_255_1_234
10
10.4950975
20
0.1215731
40
0.295089
50
310.8831995
51
346.5426355
0
ARC
8
DEFAULT_255_1_234
10
10.4642395
20
0.1632695
40
0.3468331
50
286.6925341
51
310.2288297
0
ARC
8
DEFAULT_255_1_234
10
10.4073226
20
0.3422882
40
0.5346654
50
274.6850312
51
287.0245141
0
ARC
8
DEFAULT_255_1_234
10
10.3847949
20
0.5631932
40
0.7566852
50
269.8969846
51
275.018904
0
ARC
8
DEFAULT_255_1_234
10
10.387554
20
0.3552707
40
0.4226708
50
269.6593078
51
279.4153575
0
ARC
8
DEFAULT_255_1_234
10
10.4132815
20
0.2062133
40
0.2714146
50
279.2049762
51
294.9900808
0
ARC
8
DEFAULT_255_1_234
10
10.4423141
20
0.1414508
40
0.2004525
50
295.2888114
51
311.2911209
0
ARC
8
DEFAULT_255_1_234
10
10.4494035
20
0.130922
40
0.1878703
50
311.7854996
51
347.2861051
0
ARC
8
DEFAULT_255_1_234
10
10.3510194
20
0.1562092
40
0.2894234
50
346.6893224
51
0.1059443
0
ARC
8
DEFAULT_255_1_234
10
10.2755089
20
0.1590685
40
0.3649409
50
359.6350983
51
0.0053152
0
ARC
8
DEFAULT_255_1_234
10
10.3725417
20
0.1615937
40
0.2679199
50
359.4672059
51
15.5933957
0
ARC
8
DEFAULT_255_1_234
10
10.4350306
20
0.1784779
40
0.2031932
50
15.7442113
51
46.6203375
0
ARC
8
DEFAULT_255_1_234
10
10.4202527
20
0.1614484
40
0.2257226
50
46.8628658
51
75.6676503
0
ARC
8
DEFAULT_255_1_234
10
10.3908347
20
0.0555718
40
0.3355939
50
75.276167
51
88.2915297
0
ARC
8
DEFAULT_255_1_234
10
10.3850054
20
-0.0322476
40
0.4235602
50
87.8575022
51
88.8000139
0
LINE
8
DEFAULT_255_1_234
10
11.4412143
20
0.5237433
11
11.4412143
21
-0.6513
0
LINE
8
DEFAULT_255_1_234
10
11.4412143
20
-0.6513
11
11.291824
21
-0.6513
0
LINE
8
DEFAULT_255_1_234
10
11.291824
20
-0.6513
11
11.291824
21
0.3390133
0
LINE
8
DEFAULT_255_1_234
10
11.291824
20
0.3390133
11
10.9922401
21
0.2289785
0
LINE
8
DEFAULT_255_1_234
10
10.9922401
20
0.2289785
11
10.9922401
21
0.3639117
0
LINE
8
DEFAULT_255_1_234
10
10.9922401
20
0.3639117
11
11.4179223
21
0.5237433
0
LINE
8
DEFAULT_255_1_234
10
11.4179223
20
0.5237433
11
11.4412143
21
0.5237433
0
LINE
8
DEFAULT_255_1_234
10
12.2010167
20
-0.0938974
11
12.2010167
21
-0.2151766
0
LINE
8
DEFAULT_255_1_234
10
12.2010167
20
-0.2151766
11
11.8090679
21
-0.2151766
0
LINE
8
DEFAULT_255_1_234
10
11.8090679
20
-0.2151766
11
11.8090679
21
-0.0938974
0
LINE
8
DEFAULT_255_1_234
10
11.8090679
20
-0.0938974
11
12.2010167
21
-0.0938974
0
LINE
8
DEFAULT_255_1_234
10
13.0636254
20
0.0402327
11
13.0636254
21
-0.1525291
0
LINE
8
DEFAULT_255_1_234
10
12.3255087
20
-0.1726084
11
12.3255087
21
0.0257755
0
LINE
8
DEFAULT_255_1_234
10
12.9150383
20
-0.1926877
11
12.9150383
21
0.0506739
0
LINE
8
DEFAULT_255_1_234
10
12.4740958
20
0.0619184
11
12.4740958
21
-0.1758211
0
ARC
8
DEFAULT_255_1_234
10
11.8389144
20
-0.1574195
40
1.2247208
50
353.8441951
51
0.2287902
0
ARC
8
DEFAULT_255_1_234
10
12.3028648
20
-0.2092194
40
0.7578929
50
344.4934747
51
353.9765454
0
ARC
8
DEFAULT_255_1_234
10
12.6021238
20
-0.2943019
40
0.4467846
50
329.2803592
51
344.7472793
0
ARC
8
DEFAULT_255_1_234
10
12.7014063
20
-0.3487982
40
0.3336173
50
324.9352394
51
328.6160465
0
ARC
8
DEFAULT_255_1_234
10
12.7391171
20
-0.3751573
40
0.2876076
50
280.580143
51
324.9173126
0
ARC
8
DEFAULT_255_1_234
10
12.6989964
20
-0.2080901
40
0.4592847
50
269.5977311
51
281.6734359
0
ARC
8
DEFAULT_255_1_234
10
12.691787
20
-0.2200827
40
0.4472986
50
256.6228859
51
270.51044
0
ARC
8
DEFAULT_255_1_234
10
12.6515847
20
-0.3749123
40
0.2873874
50
215.8618325
51
257.2788573
0
ARC
8
DEFAULT_255_1_234
10
12.7536879
20
-0.3064023
40
0.4102928
50
197.9693508
51
215.2623606
0
ARC
8
DEFAULT_255_1_234
10
13.0021995
20
-0.2225291
40
0.6725652
50
187.8816417
51
198.2346507
0
ARC
8
DEFAULT_255_1_234
10
13.3980203
20
-0.1653921
40
1.0724845
50
180.8976217
51
188.0055519
0
ARC
8
DEFAULT_255_1_234
10
13.6780391
20
-0.1550223
40
1.3526448
50
180.7449369
51
181.1510016
0
ARC
8
DEFAULT_255_1_234
10
13.520312
20
0.0306042
40
1.1948131
50
173.7675579
51
180.231553
0
ARC
8
DEFAULT_255_1_234
10
13.0685267
20
0.0816666
40
0.7401564
50
164.3058563
51
173.9002247
0
ARC
8
DEFAULT_255_1_234
10
12.7773336
20
0.1655656
40
0.4371288
50
148.7922025
51
164.568378
0
ARC
8
DEFAULT_255_1_234
10
12.6821788
20
0.2186929
40
0.3282386
50
144.5883898
51
148.1176286
0
ARC
8
DEFAULT_255_1_234
10
12.6478686
20
0.2426315
40
0.2864044
50
101.6440918
51
144.514236
0
ARC
8
DEFAULT_255_1_234
10
12.6903752
20
0.0737069
40
0.4604934
50
89.5284041
51
102.5819763
0
ARC
8
DEFAULT_255_1_234
10
12.698284
20
0.0698018
40
0.464401
50
77.0437873
51
90.5081339
0
ARC
8
DEFAULT_255_1_234
10
12.7384842
20
0.2340615
40
0.2953195
50
48.2778575
51
77.4994676
0
ARC
8
DEFAULT_255_1_234
10
12.7457473
20
0.2469746
40
0.2808655
50
36.3142134
51
47.6305865
0
ARC
8
DEFAULT_255_1_234
10
12.658878
20
0.1884515
40
0.3855453
50
18.2931786
51
35.6769206
0
ARC
8
DEFAULT_255_1_234
10
12.4045539
20
0.1011593
40
0.654423
50
8.024666
51
18.5605216
0
ARC
8
DEFAULT_255_1_234
10
11.9882459
20
0.0396792
40
1.0752407
50
1.1274072
51
8.1718305
0
ARC
8
DEFAULT_255_1_234
10
11.664665
20
0.0269885
40
1.3990231
50
0.5424119
51
1.3863029
0
ARC
8
DEFAULT_255_1_234
10
11.8468027
20
0.0542342
40
1.0682415
50
359.8090433
51
4.9407866
0
ARC
8
DEFAULT_255_1_234
10
12.2678041
20
0.0918113
40
0.6455691
50
4.8362157
51
12.2904523
0
ARC
8
DEFAULT_255_1_234
10
12.5433156
20
0.1531965
40
0.3633074
50
12.0805627
51
23.8173984
0
ARC
8
DEFAULT_255_1_234
10
12.6606862
20
0.2028919
40
0.2358723
50
24.2871213
51
31.3935614
0
ARC
8
DEFAULT_255_1_234
10
12.7131559
20
0.2372233
40
0.1732111
50
30.7407893
51
82.4657128
0
ARC
8
DEFAULT_255_1_234
10
12.6951693
20
0.1488691
40
0.263235
50
81.1060089
51
90.2184952
0
ARC
8
DEFAULT_255_1_234
10
12.6915992
20
0.1746924
40
0.2374236
50
89.3806855
51
105.6762551
0
ARC
8
DEFAULT_255_1_234
10
12.6732623
20
0.2413567
40
0.1682847
50
105.7981136
51
149.7388061
0
ARC
8
DEFAULT_255_1_234
10
12.7796701
20
0.177395
40
0.2924306
50
149.4208916
51
163.6286378
0
ARC
8
DEFAULT_255_1_234
10
12.9887589
20
0.113625
40
0.5110213
50
163.3763315
51
172.1410975
0
ARC
8
DEFAULT_255_1_234
10
13.3188308
20
0.0663518
40
0.8444586
50
172.0259487
51
178.0703232
0
ARC
8
DEFAULT_255_1_234
10
13.6218397
20
0.0519906
40
1.1477868
50
177.8631668
51
179.5044149
0
ARC
8
DEFAULT_255_1_234
10
13.5145802
20
-0.1794611
40
1.0404907
50
179.7995573
51
185.2460446
0
ARC
8
DEFAULT_255_1_234
10
13.1102841
20
-0.2177487
40
0.6343885
50
185.1411642
51
193.0079639
0
ARC
8
DEFAULT_255_1_234
10
12.8459314
20
-0.2802359
40
0.3627568
50
192.7897626
51
205.2507664
0
ARC
8
DEFAULT_255_1_234
10
12.7412861
20
-0.3269585
40
0.2481908
50
205.8005384
51
211.2537509
0
ARC
8
DEFAULT_255_1_234
10
12.6889301
20
-0.362042
40
0.1852521
50
210.3789793
51
238.4008143
0
ARC
8
DEFAULT_255_1_234
10
12.6869823
20
-0.3573624
40
0.1882621
50
239.6520629
51
265.9793761
0
ARC
8
DEFAULT_255_1_234
10
12.6955023
20
-0.2901573
40
0.2559272
50
265.1315437
51
270.060332
0
ARC
8
DEFAULT_255_1_234
10
12.6983802
20
-0.3225466
40
0.2235528
50
269.3314664
51
287.2178029
0
ARC
8
DEFAULT_255_1_234
10
12.7121654
20
-0.3728721
40
0.1714108
50
287.7958004
51
329.080874
0
ARC
8
DEFAULT_255_1_234
10
12.6164111
20
-0.313107
40
0.2842745
50
328.6634704
51
343.3325132
0
ARC
8
DEFAULT_255_1_234
10
12.3991131
20
-0.2454137
40
0.5118644
50
343.0499468
51
351.9393422
0
ARC
8
DEFAULT_255_1_234
10
12.0524431
20
-0.1943051
40
0.8622784
50
351.8069023
51
357.7959224
0
ARC
8
DEFAULT_255_1_234
10
11.7288987
20
-0.1775279
40
1.1862365
50
357.5871873
51
359.2677531
0
LINE
8
DEFAULT_255_1_234
10
13.8812564
20
0.5181211
11
13.8812564
21
-0.258548
0
LINE
8
DEFAULT_255_1_234
10
13.8812564
20
-0.258548
11
14.0434975
21
-0.258548
0
LINE
8
DEFAULT_255_1_234
10
14.0434975
20
-0.258548
11
14.0434975
21
-0.3798272
0
LINE
8
DEFAULT_255_1_234
10
14.0434975
20
-0.3798272
11
13.8812564
21
-0.3798272
0
LINE
8
DEFAULT_255_1_234
10
13.8812564
20
-0.3798272
11
13.8812564
21
-0.6513
0
LINE
8
DEFAULT_255_1_234
10
13.8812564
20
-0.6513
11
13.7318661
21
-0.6513
0
LINE
8
DEFAULT_255_1_234
10
13.7318661
20
-0.6513
11
13.7318661
21
-0.3798272
0
LINE
8
DEFAULT_255_1_234
10
13.7318661
20
-0.3798272
11
13.1993618
21
-0.3798272
0
LINE
8
DEFAULT_255_1_234
10
13.1993618
20
-0.3798272
11
13.1993618
21
-0.2922813
0
LINE
8
DEFAULT_255_1_234
10
13.1993618
20
-0.2922813
11
13.7230312
21
0.5181211
0
LINE
8
DEFAULT_255_1_234
10
13.7230312
20
0.5181211
11
13.8812564
21
0.5181211
0
LINE
8
DEFAULT_255_1_234
10
13.7141962
20
0.2827912
11
13.3680283
21
-0.258548
0
LINE
8
DEFAULT_255_1_234
10
13.3680283
20
-0.258548
11
13.7318661
21
-0.258548
0
LINE
8
DEFAULT_255_1_234
10
13.7318661
20
-0.258548
11
13.7318661
21
0.3149181
0
LINE
8
DEFAULT_255_1_234
10
13.7318661
20
0.3149181
11
13.7141962
21
0.2827912
0
LINE
8
DEFAULT_255_1_234
10
14.9735728
20
-0.6513
11
14.8619316
21
-0.3460939
0
LINE
8
DEFAULT_255_1_234
10
14.8619316
20
-0.3460939
11
14.3719956
21
-0.3460939
0
LINE
8
DEFAULT_255_1_234
10
14.3719956
20
-0.3460939
11
14.2619608
21
-0.6513
0
LINE
8
DEFAULT_255_1_234
10
14.2619608
20
-0.6513
11
14.1029324
21
-0.6513
0
LINE
8
DEFAULT_255_1_234
10
14.1029324
20
-0.6513
11
14.549497
21
0.5181211
0
LINE
8
DEFAULT_255_1_234
10
14.549497
20
0.5181211
11
14.6844302
21
0.5181211
0
LINE
8
DEFAULT_255_1_234
10
14.6844302
20
0.5181211
11
15.131798
21
-0.6513
0
LINE
8
DEFAULT_255_1_234
10
15.131798
20
-0.6513
11
14.9735728
21
-0.6513
0
LINE
8
DEFAULT_255_1_234
10
14.6169636
20
0.3277689
11
14.4185797
21
-0.2191925
0
LINE
8
DEFAULT_255_1_234
10
14.4185797
20
-0.2191925
11
14.8161507
21
-0.2191925
0
LINE
8
DEFAULT_255_1_234
10
14.8161507
20
-0.2191925
11
14.6169636
21
0.3277689
0
LINE
8
DEFAULT_255_1_234
10
15.6128992
20
-0.6513
11
15.2892201
21
-0.6513
0
LINE
8
DEFAULT_255_1_234
10
15.2892201
20
-0.6513
11
15.2892201
21
0.5181211
0
LINE
8
DEFAULT_255_1_234
10
15.2892201
20
0.5181211
11
15.6193246
21
0.5181211
0
LINE
8
DEFAULT_255_1_234
10
16.1349622
20
-0.0272339
11
16.1349622
21
-0.1019291
0
LINE
8
DEFAULT_255_1_234
10
15.6233404
20
0.3912196
11
15.4434295
21
0.3912196
0
LINE
8
DEFAULT_255_1_234
10
15.4434295
20
0.3912196
11
15.4434295
21
-0.5252017
0
LINE
8
DEFAULT_255_1_234
10
15.4434295
20
-0.5252017
11
15.6056706
21
-0.5252017
0
LINE
8
DEFAULT_255_1_234
10
15.9823591
20
-0.0987164
11
15.9823591
21
-0.0304466
0
ARC
8
DEFAULT_255_1_234
10
15.6232188
20
-0.0684106
40
0.5865446
50
75.4101064
51
90.3804066
0
ARC
8
DEFAULT_255_1_234
10
15.6461702
20
0.0272492
40
0.4881916
50
60.145586
51
75.1888407
0
ARC
8
DEFAULT_255_1_234
10
15.6620477
20
0.0549199
40
0.4562893
50
26.5253612
51
60.1450928
0
ARC
8
DEFAULT_255_1_234
10
15.5500226
20
-0.0044842
40
0.5830602
50
7.4030428
51
26.8320788
0
ARC
8
DEFAULT_255_1_234
10
15.3905983
20
-0.0293196
40
0.7443669
50
0.1605367
51
7.7176192
0
ARC
8
DEFAULT_255_1_234
10
15.4069888
20
-0.1057566
40
0.7279835
50
348.7289388
51
0.3012466
0
ARC
8
DEFAULT_255_1_234
10
15.5726318
20
-0.1386614
40
0.559104
50
333.0706509
51
348.7181832
0
ARC
8
DEFAULT_255_1_234
10
15.6693076
20
-0.1911681
40
0.4491417
50
299.2531685
51
333.4571258
0
ARC
8
DEFAULT_255_1_234
10
15.6332215
20
-0.1226172
40
0.5265881
50
278.107187
51
299.0339503
0
ARC
8
DEFAULT_255_1_234
10
15.6076294
20
0.0281216
40
0.679442
50
270.4443897
51
278.4511052
0
ARC
8
DEFAULT_255_1_234
10
15.6097124
20
-0.0647787
40
0.4604407
50
269.4970433
51
284.0205042
0
ARC
8
DEFAULT_255_1_234
10
15.6452425
20
-0.2013022
40
0.3193797
50
283.7700273
51
318.1555492
0
ARC
8
DEFAULT_255_1_234
10
15.6115183
20
-0.1760633
40
0.3613588
50
318.7415601
51
343.6873628
0
ARC
8
DEFAULT_255_1_234
10
15.4311207
20
-0.1197168
40
0.5503313
50
343.3325091
51
355.8548958
0
ARC
8
DEFAULT_255_1_234
10
15.2212891
20
-0.0997681
40
0.7610708
50
355.4988528
51
0.0791727
0
ARC
8
DEFAULT_255_1_234
10
15.2995514
20
-0.026222
40
0.6828208
50
359.6455037
51
9.8607896
0
ARC
8
DEFAULT_255_1_234
10
15.5356211
20
0.0164099
40
0.4429406
50
9.6571907
51
26.1932807
0
ARC
8
DEFAULT_255_1_234
10
15.62842
20
0.0595118
40
0.3406537
50
26.5777228
51
40.1532208
0
ARC
8
DEFAULT_255_1_234
10
15.6539927
20
0.0794619
40
0.308246
50
40.3840491
51
80.1431104
0
ARC
8
DEFAULT_255_1_234
10
15.6213044
20
-0.0654667
40
0.4566909
50
79.2152159
51
89.7445637
0
LINE
8
DEFAULT_255_1_234
10
16.5228951
20
0.5181211
11
16.5228951
21
-0.5252017
0
LINE
8
DEFAULT_255_1_234
10
16.5228951
20
-0.5252017
11
17.0770851
21
-0.5252017
0
LINE
8
DEFAULT_255_1_234
10
17.0770851
20
-0.5252017
11
17.0770851
21
-0.6513
0
LINE
8
DEFAULT_255_1_234
10
17.0770851
20
-0.6513
11
16.3678826
21
-0.6513
0
LINE
8
DEFAULT_255_1_234
10
16.3678826
20
-0.6513
11
16.3678826
21
0.5181211
0
LINE
8
DEFAULT_255_1_234
10
16.3678826
20
0.5181211
11
16.5228951
21
0.5181211
0
LINE
8
DEFAULT_255_1_234
10
17.53891
20
-0.0938974
11
17.53891
21
-0.2151766
0
LINE
8
DEFAULT_255_1_234
10
17.53891
20
-0.2151766
11
17.1469612
21
-0.2151766
0
LINE
8
DEFAULT_255_1_234
10
17.1469612
20
-0.2151766
11
17.1469612
21
-0.0938974
0
LINE
8
DEFAULT_255_1_234
10
17.1469612
20
-0.0938974
11
17.53891
21
-0.0938974
0
LINE
8
DEFAULT_255_1_234
10
18.1565507
20
0.5237433
11
18.1565507
21
-0.6513
0
LINE
8
DEFAULT_255_1_234
10
18.1565507
20
-0.6513
11
18.0071604
21
-0.6513
0
LINE
8
DEFAULT_255_1_234
10
18.0071604
20
-0.6513
11
18.0071604
21
0.3390133
0
LINE
8
DEFAULT_255_1_234
10
18.0071604
20
0.3390133
11
17.7075765
21
0.2289785
0
LINE
8
DEFAULT_255_1_234
10
17.7075765
20
0.2289785
11
17.7075765
21
0.3639117
0
LINE
8
DEFAULT_255_1_234
10
17.7075765
20
0.3639117
11
18.1332586
21
0.5237433
0
LINE
8
DEFAULT_255_1_234
10
18.1332586
20
0.5237433
11
18.1565507
21
0.5237433
0
ARC
8
DEFAULT_255_2_778
10
8.509117
20
50.3183756
40
0.4373747
50
56.3665942
51
72.7074496
0
ARC
8
DEFAULT_255_2_778
10
8.5463845
20
50.4319358
40
0.3178747
50
73.036784
51
89.7973226
0
ARC
8
DEFAULT_255_2_778
10
8.5537306
20
50.409549
40
0.3403165
50
91.0475309
51
125.5485458
0
ARC
8
DEFAULT_255_2_778
10
8.7194697
20
50.1606905
40
0.6392287
50
124.6669492
51
139.114563
0
ARC
8
DEFAULT_255_2_778
10
8.9609112
20
49.9372799
40
0.9680575
50
138.4713305
51
142.1157612
0
ARC
8
DEFAULT_255_2_778
10
8.583458
20
49.9680121
40
0.5212765
50
117.7453356
51
135.8758074
0
ARC
8
DEFAULT_255_2_778
10
8.486317
20
50.1503596
40
0.3146729
50
90.4656379
51
117.5483702
0
ARC
8
DEFAULT_255_2_778
10
8.4802065
20
50.1350957
40
0.3299454
50
64.3679478
51
89.3829577
0
ARC
8
DEFAULT_255_2_778
10
8.4478855
20
50.0535224
40
0.4175182
50
64.8738747
51
65.2115951
0
LINE
8
DEFAULT_255_2_778
10
8.1968689
20
50.5317331
11
8.1968689
21
50.7077331
0
LINE
8
DEFAULT_255_2_778
10
8.1968689
20
50.7077331
11
7.8565689
21
50.7077331
0
LINE
8
DEFAULT_255_2_778
10
7.8565689
20
50.7077331
11
7.8565689
21
49.4890331
0
LINE
8
DEFAULT_255_2_778
10
7.8565689
20
49.4890331
11
8.2219689
21
49.4890331
0
LINE
8
DEFAULT_255_2_778
10
8.2219689
20
49.4890331
11
8.2092689
21
50.3309331
0
LINE
8
DEFAULT_255_2_778
10
8.6251689
20
50.4315331
11
8.7513689
21
50.6825331
0
LINE
8
DEFAULT_255_2_778
10
15.2045689
20
49.4887331
11
15.2045689
21
50.7201331
0
LINE
8
DEFAULT_255_2_778
10
15.2045689
20
50.7201331
11
15.5702689
21
50.7201331
0
LINE
8
DEFAULT_255_2_778
10
15.5702689
20
50.7201331
11
15.5702689
21
49.4887331
0
LINE
8
DEFAULT_255_2_778
10
15.5702689
20
49.4887331
11
15.2045689
21
49.4887331
0
ARC
8
DEFAULT_255_2_778
10
15.3896435
20
51.112866
40
0.1978332
50
90.7257917
51
180.9507563
0
ARC
8
DEFAULT_255_2_778
10
15.3846161
20
51.1129493
40
0.1977501
50
359.0247012
51
89.2694187
0
ARC
8
DEFAULT_255_2_778
10
15.3846161
20
51.1062174
40
0.1977501
50
270.7305813
51
0.9752988
0
ARC
8
DEFAULT_255_2_778
10
15.3896435
20
51.1063007
40
0.1978332
50
179.0492437
51
269.2742083
0
LINE
8
DEFAULT_255_2_778
10
15.1918375
20
51.1095833
11
15.1918375
21
51.1095833
0
LINE
8
DEFAULT_255_2_778
10
16.8978729
20
49.4854854
11
16.8978729
21
50.7168854
0
LINE
8
DEFAULT_255_2_778
10
16.8978729
20
50.7168854
11
17.2635729
21
50.7168854
0
LINE
8
DEFAULT_255_2_778
10
17.2635729
20
50.7168854
11
17.2635729
21
49.4854854
0
LINE
8
DEFAULT_255_2_778
10
17.2635729
20
49.4854854
11
16.8978729
21
49.4854854
0
ARC
8
DEFAULT_255_2_778
10
17.0829435
20
51.109666
40
0.1978332
50
90.7257917
51
180.9507563
0
ARC
8
DEFAULT_255_2_778
10
17.0778509
20
51.109686
40
0.1978142
50
359.0433553
51
89.2507851
0
ARC
8
DEFAULT_255_2_778
10
17.077851
20
51.1030805
40
0.197814
50
270.7491796
51
0.9566796
0
ARC
8
DEFAULT_255_2_778
10
17.0829435
20
51.1031007
40
0.1978332
50
179.0492437
51
269.2742083
0
LINE
8
DEFAULT_255_2_778
10
16.8851375
20
51.1063833
11
16.8851375
21
51.1063833
0
ARC
8
DEFAULT_255_2_778
10
22.0788624
20
49.3679788
40
0.399929
50
186.2090497
51
214.6438559
0
ARC
8
DEFAULT_255_2_778
10
21.9921847
20
49.328124
40
0.3064065
50
217.727985
51
266.8306819
0
ARC
8
DEFAULT_255_2_778
10
22.0316252
20
49.5384571
40
0.5193404
50
263.7675625
51
266.8049274
0
ARC
8
DEFAULT_255_2_778
10
22.0082454
20
49.3446919
40
0.2399325
50
195.4006145
51
268.6707088
0
ARC
8
DEFAULT_255_2_778
10
22.2805996
20
49.470676
40
0.5382116
50
193.3258898
51
200.6383232
0
ARC
8
DEFAULT_255_2_778
10
22.0638429
20
49.31769
40
0.3083241
50
141.9083968
51
174.6152863
0
ARC
8
DEFAULT_255_2_778
10
22.0026746
20
49.3436305
40
0.2447935
50
89.9988769
51
137.8510912
0
ARC
8
DEFAULT_255_2_778
10
21.9982309
20
49.3613687
40
0.3117869
50
89.1824841
51
162.3459304
0
ARC
8
DEFAULT_255_2_778
10
22.258036
20
49.2294629
40
0.6011919
50
157.8713755
51
162.5920001
0
ARC
8
DEFAULT_255_2_778
10
13.7766756
20
49.8984305
40
0.434232
50
284.0737984
51
307.1283935
0
ARC
8
DEFAULT_255_2_778
10
13.6851625
20
50.235007
40
0.7829896
50
272.5675489
51
284.5802087
0
ARC
8
DEFAULT_255_2_778
10
13.6592437
20
50.5939017
40
1.1427274
50
269.9523961
51
273.0596894
0
ARC
8
DEFAULT_255_2_778
10
13.6631315
20
50.9755793
40
1.5244123
50
264.3721605
51
269.8181894
0
ARC
8
DEFAULT_255_2_778
10
13.7276162
20
51.6473534
40
2.1992727
50
260.3040359
51
264.4165702
0
ARC
8
DEFAULT_255_2_778
10
13.8169183
20
52.1997771
40
2.75885
50
259.2299789
51
260.4081406
0
ARC
8
DEFAULT_255_2_778
10
13.5378686
20
50.0493398
40
0.6077178
50
188.8927198
51
247.0988028
0
ARC
8
DEFAULT_255_2_778
10
13.8804177
20
50.1404831
40
0.9609548
50
185.1081288
51
191.1050073
0
ARC
8
DEFAULT_255_2_778
10
13.7482073
20
50.0679785
40
0.8250312
50
161.5072483
51
180.9066349
0
ARC
8
DEFAULT_255_2_778
10
13.4992734
20
50.1467242
40
0.5639907
50
120.4701872
51
161.0725957
0
ARC
8
DEFAULT_255_2_778
10
13.5849214
20
50.0799885
40
0.6661417
50
90.0499347
51
123.9108507
0
ARC
8
DEFAULT_255_2_778
10
13.5978311
20
49.9234595
40
0.8227812
50
89.9974966
51
90.9394619
0
ARC
8
DEFAULT_255_2_778
10
13.5918811
20
49.7624209
40
0.9838382
50
77.8335832
51
89.6513936
0
ARC
8
DEFAULT_255_2_778
10
13.5043967
20
49.3445168
40
1.4107957
50
69.8093959
51
77.9373312
0
ARC
8
DEFAULT_255_2_778
10
13.4008346
20
49.0427522
40
1.7297745
50
69.0266426
51
70.0397415
0
ARC
8
DEFAULT_255_2_778
10
13.559202
20
49.0646779
40
1.4359408
50
73.9178594
51
79.2452957
0
ARC
8
DEFAULT_255_2_778
10
13.6567017
20
49.5849721
40
0.9065925
50
79.1629935
51
86.6049203
0
ARC
8
DEFAULT_255_2_778
10
13.6747301
20
49.8362944
40
0.654651
50
86.8774046
51
89.9568351
0
ARC
8
DEFAULT_255_2_778
10
13.6672581
20
50.073564
40
0.4174572
50
88.9067133
51
108.0688095
0
ARC
8
DEFAULT_255_2_778
10
13.6100304
20
50.2473074
40
0.2345328
50
107.942404
51
152.2459688
0
ARC
8
DEFAULT_255_2_778
10
14.3241597
20
49.9170486
40
1.0210941
50
154.5072776
51
162.5682748
0
ARC
8
DEFAULT_255_2_778
10
13.952215
20
50.0317929
40
0.6318603
50
162.3915767
51
174.8213024
0
ARC
8
DEFAULT_255_2_778
10
13.787072
20
50.0506035
40
0.4657093
50
175.2922289
51
179.9490984
0
ARC
8
DEFAULT_255_2_778
10
13.6599161
20
50.0432143
40
0.338643
50
178.6796766
51
234.9381893
0
ARC
8
DEFAULT_255_2_778
10
13.6575594
20
50.0548791
40
0.3469445
50
236.3635337
51
264.9414885
0
ARC
8
DEFAULT_255_2_778
10
13.6836236
20
50.2303656
40
0.5241505
50
263.7947872
51
270.1188666
0
ARC
8
DEFAULT_255_2_778
10
13.6783507
20
50.4677527
40
0.7615633
50
270.4785196
51
281.0719661
0
ARC
8
DEFAULT_255_2_778
10
13.5940398
20
50.9216133
40
1.2231753
50
280.8649891
51
287.2606546
0
ARC
8
DEFAULT_255_2_778
10
14.6487772
20
51.7545389
40
2.2970478
50
276.5245429
51
279.5045514
0
ARC
8
DEFAULT_255_2_778
10
14.7141671
20
51.1769037
40
1.7157236
50
272.7759418
51
276.5469051
0
ARC
8
DEFAULT_255_2_778
10
14.7339562
20
50.7966464
40
1.3349546
50
270.0439674
51
272.7180028
0
ARC
8
DEFAULT_255_2_778
10
14.7253399
20
50.3284869
40
0.8668484
50
258.6359382
51
270.6372354
0
ARC
8
DEFAULT_255_2_778
10
14.6326818
20
49.8925616
40
0.4212409
50
235.5405817
51
259.3086539
0
ARC
8
DEFAULT_255_2_778
10
14.5715943
20
49.7852304
40
0.2983588
50
181.5929591
51
233.550276
0
ARC
8
DEFAULT_255_2_778
10
14.7698134
20
49.8151912
40
0.4979343
50
179.9387066
51
184.4062155
0
ARC
8
DEFAULT_255_2_778
10
14.863071
20
49.9111312
40
0.2330741
50
194.3604277
51
259.8152315
0
ARC
8
DEFAULT_255_2_778
10
14.9677954
20
50.276728
40
0.6126343
50
256.2189254
51
270.9017933
0
ARC
8
DEFAULT_255_2_778
10
14.9769331
20
50.6440407
40
0.9798713
50
270.0294871
51
272.2486365
0
LINE
8
DEFAULT_255_2_778
10
15.6204794
20
50.7137239
11
15.9670794
21
50.7137239
0
LINE
8
DEFAULT_255_2_778
10
15.9670794
20
50.7137239
11
16.2379794
21
49.9724239
0
LINE
8
DEFAULT_255_2_778
10
16.2379794
20
49.9724239
11
16.5088794
21
50.7198239
0
LINE
8
DEFAULT_255_2_778
10
16.5088794
20
50.7198239
11
16.8176794
21
50.7198239
0
LINE
8
DEFAULT_255_2_778
10
16.8176794
20
50.7198239
11
16.3133794
21
49.4696239
0
LINE
8
DEFAULT_255_2_778
10
16.3133794
20
49.4696239
11
16.0926794
21
49.4696239
0
LINE
8
DEFAULT_255_2_778
10
16.0926794
20
49.4696239
11
15.6204794
21
50.7137239
0
LINE
8
DEFAULT_255_2_778
10
19.3386794
20
50.0729239
11
19.3605794
21
49.9911239
0
LINE
8
DEFAULT_255_2_778
10
19.3605794
20
49.9911239
11
19.4960794
21
50.0634239
0
LINE
8
DEFAULT_255_2_778
10
19.4960794
20
50.0634239
11
19.4960794
21
49.4069239
0
LINE
8
DEFAULT_255_2_778
10
19.4960794
20
49.4069239
11
19.5968794
21
49.4069239
0
LINE
8
DEFAULT_255_2_778
10
19.5968794
20
49.4069239
11
19.5904794
21
50.1544239
0
LINE
8
DEFAULT_255_2_778
10
19.5904794
20
50.1544239
11
19.5023794
21
50.1544239
0
LINE
8
DEFAULT_255_2_778
10
19.5023794
20
50.1544239
11
19.3386794
21
50.0729239
0
LINE
8
DEFAULT_255_2_778
10
6.2430794
20
51.3421239
11
6.3250794
21
51.3421239
0
LINE
8
DEFAULT_255_2_778
10
6.3250794
20
51.3421239
11
6.3250794
21
49.3852239
0
LINE
8
DEFAULT_255_2_778
10
6.3250794
20
49.3852239
11
18.5318794
21
49.3821239
0
LINE
8
DEFAULT_255_2_778
10
18.5318794
20
49.3821239
11
18.5350794
21
49.3003239
0
LINE
8
DEFAULT_255_2_778
10
18.5350794
20
49.3003239
11
6.2430794
21
49.3003239
0
LINE
8
DEFAULT_255_2_778
10
6.2430794
20
49.3003239
11
6.2430794
21
51.3358239
0
LINE
8
DEFAULT_255_2_778
10
19.0753794
20
49.4125239
11
19.0753794
21
49.3247239
0
LINE
8
DEFAULT_255_2_778
10
19.0753794
20
49.3247239
11
21.6812794
21
49.3247239
0
LINE
8
DEFAULT_255_2_778
10
22.0026794
20
49.0199239
11
22.0026794
21
49.1048239
0
LINE
8
DEFAULT_255_2_778
10
22.0026794
20
49.5884239
11
22.0026794
21
49.6731239
0
LINE
8
DEFAULT_255_2_778
10
21.6843794
20
49.4093239
11
19.0816794
21
49.4093239
0
LINE
8
DEFAULT_255_2_778
10
13.9630794
20
49.7533239
11
14.0387794
21
49.5522239
0
LINE
8
DEFAULT_255_2_778
10
14.0199794
20
50.6579239
11
13.9569794
21
50.4444239
0
LINE
8
DEFAULT_255_2_778
10
14.2718794
20
49.8157239
11
14.2718794
21
50.5065239
0
LINE
8
DEFAULT_255_2_778
10
14.2718794
20
50.5065239
11
14.0826794
21
50.5065239
0
LINE
8
DEFAULT_255_2_778
10
14.0826794
20
50.5065239
11
14.0826794
21
50.7201239
0
LINE
8
DEFAULT_255_2_778
10
14.0826794
20
50.7201239
11
14.2718794
21
50.7201239
0
LINE
8
DEFAULT_255_2_778
10
14.2718794
20
50.7201239
11
14.4104794
21
51.2225239
0
LINE
8
DEFAULT_255_2_778
10
14.4104794
20
51.2225239
11
14.6247794
21
51.2225239
0
LINE
8
DEFAULT_255_2_778
10
14.6247794
20
51.2225239
11
14.6374794
21
50.7201239
0
LINE
8
DEFAULT_255_2_778
10
14.6374794
20
50.7201239
11
14.9777794
21
50.7201239
0
LINE
8
DEFAULT_255_2_778
10
14.9777794
20
50.7201239
11
14.9777794
21
50.5065239
0
LINE
8
DEFAULT_255_2_778
10
14.9777794
20
50.5065239
11
14.6372794
21
50.5065239
0
LINE
8
DEFAULT_255_2_778
10
14.6372794
20
50.5065239
11
14.6372794
21
49.8533239
0
LINE
8
DEFAULT_255_2_778
10
15.0153794
20
49.6649239
11
15.0280794
21
49.4890239
0
ARC
8
DEFAULT_255_2_778
10
18.3024027
20
49.3482006
40
0.5885618
50
314.1425413
51
331.9270918
0
ARC
8
DEFAULT_255_2_778
10
18.4398834
20
49.2080729
40
0.3922584
50
269.0322425
51
313.9868193
0
ARC
8
DEFAULT_255_2_778
10
18.4381885
20
49.4003771
40
0.5845273
50
255.6360648
51
269.5167247
0
ARC
8
DEFAULT_255_2_778
10
18.5134055
20
49.7038721
40
0.8971981
50
246.6811795
51
255.790956
0
ARC
8
DEFAULT_255_2_778
10
18.6382092
20
50.0069441
40
1.224929
50
243.4462224
51
246.9319367
0
ARC
8
DEFAULT_255_2_778
10
18.3621687
20
49.4364307
40
0.3648127
50
238.6960142
51
269.7522384
0
ARC
8
DEFAULT_255_2_778
10
18.3585706
20
49.4704979
40
0.3988816
50
270.2902271
51
286.0302682
0
ARC
8
DEFAULT_255_2_778
10
18.3439528
20
49.2921393
40
0.2399938
50
301.3239159
51
328.5484084
0
ARC
8
DEFAULT_255_2_778
10
17.8593662
20
49.6183932
40
0.8240117
50
326.7768178
51
337.3925755
0
ARC
8
DEFAULT_255_2_778
10
16.8007869
20
50.0770542
40
1.9776351
50
336.9149998
51
342.1307954
0
ARC
8
DEFAULT_255_2_778
10
18.1252835
20
49.8816636
40
0.1954042
50
190.120766
51
263.958695
0
ARC
8
DEFAULT_255_2_778
10
18.2014334
20
50.1842827
40
0.5062622
50
258.9866291
51
270.5697296
0
ARC
8
DEFAULT_255_2_778
10
18.204321
20
50.5017145
40
0.8236717
50
270.1493118
51
275.0745303
0
ARC
8
DEFAULT_255_2_778
10
18.1872931
20
50.7188127
40
1.0414275
50
274.9512067
51
276.4741818
0
ARC
8
DEFAULT_255_2_778
10
17.9114118
20
51.9750729
40
2.5197089
50
276.512457
51
279.4178429
0
ARC
8
DEFAULT_255_2_778
10
17.9872799
20
51.3047245
40
1.8450814
50
272.9002784
51
276.532699
0
ARC
8
DEFAULT_255_2_778
10
18.0109581
20
50.8624216
40
1.4021477
50
270.0528156
51
272.8484525
0
ARC
8
DEFAULT_255_2_778
10
18.0029255
20
50.3536315
40
0.8934054
50
259.5071449
51
270.5980454
0
ARC
8
DEFAULT_255_2_778
10
17.912813
20
49.8926743
40
0.4237716
50
238.7101736
51
260.1371304
0
ARC
8
DEFAULT_255_2_778
10
17.8289731
20
49.7462213
40
0.2551147
50
181.256628
51
237.7180126
0
LINE
8
DEFAULT_255_2_778
10
18.0906198
20
48.9112265
11
18.1726198
21
49.1247265
0
LINE
8
DEFAULT_255_2_778
10
18.6830198
20
49.4702265
11
18.2544198
21
50.5005265
0
LINE
8
DEFAULT_255_2_778
10
18.2544198
20
50.5005265
11
17.9329198
21
50.5005265
0
LINE
8
DEFAULT_255_2_778
10
17.9329198
20
50.5005265
11
17.9329198
21
49.8473265
0
LINE
8
DEFAULT_255_2_778
10
18.3047198
20
49.6840265
11
18.3237198
21
49.4893265
0
LINE
8
DEFAULT_255_2_778
10
17.5739198
20
49.7406265
11
17.5612198
21
50.5071265
0
LINE
8
DEFAULT_255_2_778
10
17.5612198
20
50.5071265
11
17.3720198
21
50.5071265
0
LINE
8
DEFAULT_255_2_778
10
17.3720198
20
50.5071265
11
17.3720198
21
50.7207265
0
LINE
8
DEFAULT_255_2_778
10
17.3720198
20
50.7207265
11
17.5736198
21
50.7207265
0
LINE
8
DEFAULT_255_2_778
10
17.5736198
20
50.7207265
11
17.6996198
21
51.2231265
0
LINE
8
DEFAULT_255_2_778
10
17.6996198
20
51.2231265
11
17.9139198
21
51.2231265
0
LINE
8
DEFAULT_255_2_778
10
17.9139198
20
51.2231265
11
17.9265198
21
50.7207265
0
LINE
8
DEFAULT_255_2_778
10
17.9265198
20
50.7207265
11
18.5568198
21
50.7207265
0
LINE
8
DEFAULT_255_2_778
10
18.5568198
20
50.7207265
11
18.8592198
21
49.8915265
0
LINE
8
DEFAULT_255_2_778
10
18.8592198
20
49.8915265
11
19.1616198
21
50.7207265
0
LINE
8
DEFAULT_255_2_778
10
19.1616198
20
50.7207265
11
19.4768198
21
50.7207265
0
LINE
8
DEFAULT_255_2_778
10
19.4768198
20
50.7207265
11
18.8214198
21
49.0747265
0
ARC
8
DEFAULT_255_2_778
10
20.4886862
20
49.7854313
40
0.5325132
50
158.8117849
51
180.8166314
0
ARC
8
DEFAULT_255_2_778
10
20.1842351
20
49.9115458
40
0.2032019
50
123.934274
51
160.9412119
0
ARC
8
DEFAULT_255_2_778
10
20.1146708
20
50.0045343
40
0.0874105
50
90.4874929
51
120.1257683
0
ARC
8
DEFAULT_255_2_778
10
20.1002562
20
49.9661743
40
0.1265082
50
24.4554496
51
83.7963195
0
ARC
8
DEFAULT_255_2_778
10
19.838393
20
49.8099289
40
0.4308905
50
5.6598625
51
28.957143
0
ARC
8
DEFAULT_255_2_778
10
19.6526819
20
49.7783841
40
0.6189454
50
359.9497817
51
6.8703696
0
ARC
8
DEFAULT_255_2_778
10
19.739561
20
49.7703406
40
0.532119
50
338.804197
51
0.8077062
0
ARC
8
DEFAULT_255_2_778
10
20.0434041
20
49.6443836
40
0.2034314
50
303.9637337
51
340.9394474
0
ARC
8
DEFAULT_255_2_778
10
20.1131773
20
49.5511817
40
0.0873432
50
270.4918639
51
300.1560267
0
ARC
8
DEFAULT_255_2_778
10
20.1275984
20
49.5896157
40
0.1265149
50
204.4617097
51
263.7964427
0
ARC
8
DEFAULT_255_2_778
10
20.3893028
20
49.7458099
40
0.4307345
50
185.6642403
51
208.9631817
0
ARC
8
DEFAULT_255_2_778
10
20.5745796
20
49.7773017
40
0.6183526
50
179.9499665
51
186.873664
0
ARC
8
DEFAULT_255_2_778
10
20.3794104
20
49.7819257
40
0.5240325
50
152.511927
51
180.7855003
0
ARC
8
DEFAULT_255_2_778
10
20.153316
20
49.9098056
40
0.264594
50
107.9689651
51
154.4798484
0
ARC
8
DEFAULT_255_2_778
10
20.1171586
20
49.9876433
40
0.1796984
50
90.01006
51
104.6572928
0
ARC
8
DEFAULT_255_2_778
10
20.1028885
20
49.936523
40
0.2312574
50
28.2083535
51
86.4700607
0
ARC
8
DEFAULT_255_2_778
10
19.8816202
20
49.7893591
40
0.4964429
50
2.8146136
51
31.1060953
0
ARC
8
DEFAULT_255_2_778
10
19.7786343
20
49.7748264
40
0.6000928
50
359.9919055
51
3.7176902
0
ARC
8
DEFAULT_255_2_778
10
19.8537274
20
49.7675993
40
0.5250483
50
332.6664514
51
0.7794307
0
ARC
8
DEFAULT_255_2_778
10
20.0799829
20
49.6404762
40
0.2658372
50
288.4439106
51
334.6152105
0
ARC
8
DEFAULT_255_2_778
10
20.1170892
20
49.5618069
40
0.1797652
50
270.012078
51
285.1556488
0
ARC
8
DEFAULT_255_2_778
10
20.1313807
20
49.6129594
40
0.2313572
50
208.2191033
51
266.4678588
0
ARC
8
DEFAULT_255_2_778
10
20.3525546
20
49.7601219
40
0.4964632
50
182.8162116
51
211.116011
0
ARC
8
DEFAULT_255_2_778
10
20.4554662
20
49.7746534
40
0.6000391
50
179.9915681
51
183.7193211
0
LINE
8
DEFAULT_255_2_778
10
19.9562271
20
49.7778417
11
19.9562271
21
49.7778417
0
LINE
8
DEFAULT_255_2_778
10
19.8554271
20
49.7747417
11
19.8554271
21
49.7747417
0
ARC
8
DEFAULT_255_2_778
10
21.0810862
20
49.7854313
40
0.5325132
50
158.8117849
51
180.8166314
0
ARC
8
DEFAULT_255_2_778
10
20.7766351
20
49.9115458
40
0.2032019
50
123.934274
51
160.9412119
0
ARC
8
DEFAULT_255_2_778
10
20.7070708
20
50.0045343
40
0.0874105
50
90.4874929
51
120.1257683
0
ARC
8
DEFAULT_255_2_778
10
20.6926562
20
49.9661743
40
0.1265082
50
24.4554496
51
83.7963195
0
ARC
8
DEFAULT_255_2_778
10
20.430793
20
49.8099289
40
0.4308905
50
5.6598625
51
28.957143
0
ARC
8
DEFAULT_255_2_778
10
20.2450819
20
49.7783841
40
0.6189454
50
359.9497817
51
6.8703696
0
ARC
8
DEFAULT_255_2_778
10
20.331961
20
49.7703406
40
0.532119
50
338.804197
51
0.8077062
0
ARC
8
DEFAULT_255_2_778
10
20.6358041
20
49.6443836
40
0.2034314
50
303.9637337
51
340.9394474
0
ARC
8
DEFAULT_255_2_778
10
20.7055773
20
49.5511817
40
0.0873432
50
270.4918639
51
300.1560267
0
ARC
8
DEFAULT_255_2_778
10
20.7199984
20
49.5896157
40
0.1265149
50
204.4617097
51
263.7964427
0
ARC
8
DEFAULT_255_2_778
10
20.9817028
20
49.7458099
40
0.4307345
50
185.6642403
51
208.9631817
0
ARC
8
DEFAULT_255_2_778
10
21.1669796
20
49.7773017
40
0.6183526
50
179.9499665
51
186.873664
0
ARC
8
DEFAULT_255_2_778
10
20.9718104
20
49.7819257
40
0.5240325
50
152.511927
51
180.7855003
0
ARC
8
DEFAULT_255_2_778
10
20.745716
20
49.9098056
40
0.264594
50
107.9689651
51
154.4798484
0
ARC
8
DEFAULT_255_2_778
10
20.7095586
20
49.9876433
40
0.1796984
50
90.01006
51
104.6572928
0
ARC
8
DEFAULT_255_2_778
10
20.6952885
20
49.936523
40
0.2312574
50
28.2083535
51
86.4700607
0
ARC
8
DEFAULT_255_2_778
10
20.4740202
20
49.7893591
40
0.4964429
50
2.8146136
51
31.1060953
0
ARC
8
DEFAULT_255_2_778
10
20.3710343
20
49.7748264
40
0.6000928
50
359.9919055
51
3.7176902
0
ARC
8
DEFAULT_255_2_778
10
20.4461274
20
49.7675993
40
0.5250483
50
332.6664514
51
0.7794307
0
ARC
8
DEFAULT_255_2_778
10
20.6723829
20
49.6404762
40
0.2658372
50
288.4439106
51
334.6152105
0
ARC
8
DEFAULT_255_2_778
10
20.7094892
20
49.5618069
40
0.1797652
50
270.012078
51
285.1556488
0
ARC
8
DEFAULT_255_2_778
10
20.7237807
20
49.6129594
40
0.2313572
50
208.2191033
51
266.4678588
0
ARC
8
DEFAULT_255_2_778
10
20.9449546
20
49.7601219
40
0.4964632
50
182.8162116
51
211.116011
0
ARC
8
DEFAULT_255_2_778
10
21.0478662
20
49.7746534
40
0.6000391
50
179.9915681
51
183.7193211
0
LINE
8
DEFAULT_255_2_778
10
20.5486271
20
49.7778417
11
20.5486271
21
49.7778417
0
LINE
8
DEFAULT_255_2_778
10
20.4478271
20
49.7747417
11
20.4478271
21
49.7747417
0
ARC
8
DEFAULT_255_2_778
10
21.6734862
20
49.7854313
40
0.5325132
50
158.8117849
51
180.8166314
0
ARC
8
DEFAULT_255_2_778
10
21.3690351
20
49.9115458
40
0.2032019
50
123.934274
51
160.9412119
0
ARC
8
DEFAULT_255_2_778
10
21.2994708
20
50.0045343
40
0.0874105
50
90.4874929
51
120.1257683
0
ARC
8
DEFAULT_255_2_778
10
21.2850562
20
49.9661743
40
0.1265082
50
24.4554496
51
83.7963195
0
ARC
8
DEFAULT_255_2_778
10
21.023193
20
49.8099289
40
0.4308905
50
5.6598625
51
28.957143
0
ARC
8
DEFAULT_255_2_778
10
20.8374819
20
49.7783841
40
0.6189454
50
359.9497817
51
6.8703696
0
ARC
8
DEFAULT_255_2_778
10
20.924361
20
49.7703406
40
0.532119
50
338.804197
51
0.8077062
0
ARC
8
DEFAULT_255_2_778
10
21.2282041
20
49.6443836
40
0.2034314
50
303.9637337
51
340.9394474
0
ARC
8
DEFAULT_255_2_778
10
21.2979773
20
49.5511817
40
0.0873432
50
270.4918639
51
300.1560267
0
ARC
8
DEFAULT_255_2_778
10
21.3123984
20
49.5896157
40
0.1265149
50
204.4617097
51
263.7964427
0
ARC
8
DEFAULT_255_2_778
10
21.5741028
20
49.7458099
40
0.4307345
50
185.6642403
51
208.9631817
0
ARC
8
DEFAULT_255_2_778
10
21.7593796
20
49.7773017
40
0.6183526
50
179.9499665
51
186.873664
0
ARC
8
DEFAULT_255_2_778
10
21.5642104
20
49.7819257
40
0.5240325
50
152.511927
51
180.7855003
0
ARC
8
DEFAULT_255_2_778
10
21.338116
20
49.9098056
40
0.264594
50
107.9689651
51
154.4798484
0
ARC
8
DEFAULT_255_2_778
10
21.3019586
20
49.9876433
40
0.1796984
50
90.01006
51
104.6572928
0
ARC
8
DEFAULT_255_2_778
10
21.2876885
20
49.936523
40
0.2312574
50
28.2083535
51
86.4700607
0
ARC
8
DEFAULT_255_2_778
10
21.0664202
20
49.7893591
40
0.4964429
50
2.8146136
51
31.1060953
0
ARC
8
DEFAULT_255_2_778
10
20.9634343
20
49.7748264
40
0.6000928
50
359.9919055
51
3.7176902
0
ARC
8
DEFAULT_255_2_778
10
21.0385274
20
49.7675993
40
0.5250483
50
332.6664514
51
0.7794307
0
ARC
8
DEFAULT_255_2_778
10
21.2647829
20
49.6404762
40
0.2658372
50
288.4439106
51
334.6152105
0
ARC
8
DEFAULT_255_2_778
10
21.3018892
20
49.5618069
40
0.1797652
50
270.012078
51
285.1556488
0
ARC
8
DEFAULT_255_2_778
10
21.3161807
20
49.6129594
40
0.2313572
50
208.2191033
51
266.4678588
0
ARC
8
DEFAULT_255_2_778
10
21.5373546
20
49.7601219
40
0.4964632
50
182.8162116
51
211.116011
0
ARC
8
DEFAULT_255_2_778
10
21.6402662
20
49.7746534
40
0.6000391
50
179.9915681
51
183.7193211
0
LINE
8
DEFAULT_255_2_778
10
21.1410271
20
49.7778417
11
21.1410271
21
49.7778417
0
LINE
8
DEFAULT_255_2_778
10
21.0402271
20
49.7747417
11
21.0402271
21
49.7747417
0
ARC
8
DEFAULT_255_2_778
10
9.3873819
20
50.1108426
40
0.1950108
50
91.6788031
51
181.813939
0
ARC
8
DEFAULT_255_2_778
10
9.375889
20
50.1107798
40
0.1950756
50
358.2051219
51
88.3021655
0
ARC
8
DEFAULT_255_2_778
10
9.3758891
20
50.0985596
40
0.1950754
50
271.6978133
51
1.7949071
0
ARC
8
DEFAULT_255_2_778
10
9.3873819
20
50.0984969
40
0.1950108
50
178.186061
51
268.3211969
0
ARC
8
DEFAULT_255_2_778
10
9.5333727
20
50.1114309
40
0.4668529
50
145.043768
51
180.8298084
0
ARC
8
DEFAULT_255_2_778
10
9.3902029
20
50.2191132
40
0.287883
50
91.6987406
51
146.2830079
0
ARC
8
DEFAULT_255_2_778
10
9.3664457
20
50.2021621
40
0.3050877
50
23.4934874
51
87.1398977
0
ARC
8
DEFAULT_255_2_778
10
9.2119732
20
50.1082629
40
0.484809
50
359.5753549
51
26.3944218
0
ARC
8
DEFAULT_255_2_778
10
9.2302375
20
50.09792
40
0.4665802
50
325.0256173
51
0.8288991
0
ARC
8
DEFAULT_255_2_778
10
9.3731106
20
49.9903699
40
0.2879274
50
271.7032906
51
326.2656695
0
ARC
8
DEFAULT_255_2_778
10
9.3969078
20
50.0074987
40
0.3053095
50
203.3271307
51
267.1389871
0
ARC
8
DEFAULT_255_2_778
10
9.5516258
20
50.101093
40
0.4850703
50
179.5775117
51
206.2433806
0
ARC
8
DEFAULT_255_2_778
10
9.3711242
20
50.0857025
40
0.6700752
50
95.9615992
51
178.9168048
0
ARC
8
DEFAULT_255_2_778
10
9.3941457
20
50.0176302
40
0.7403396
50
89.982733
51
97.186551
0
ARC
8
DEFAULT_255_2_778
10
9.3986015
20
50.0478279
40
0.7101545
50
48.1622127
51
90.3414937
0
ARC
8
DEFAULT_255_2_778
10
9.4447028
20
50.0968697
40
0.6428678
50
0.1336951
51
48.3079447
0
ARC
8
DEFAULT_255_2_778
10
9.4177539
20
50.1109035
40
0.6699322
50
275.9543621
51
358.9279918
0
ARC
8
DEFAULT_255_2_778
10
9.3945956
20
50.1797114
40
0.7409416
50
269.9824665
51
277.1836307
0
ARC
8
DEFAULT_255_2_778
10
9.3901051
20
50.1492743
40
0.7105173
50
228.7495498
51
270.3438303
0
ARC
8
DEFAULT_255_2_778
10
9.3444767
20
50.0998952
40
0.6433097
50
180.1358579
51
228.9051204
0
LINE
8
DEFAULT_255_2_778
10
11.1149688
20
50.4443698
11
11.1149688
21
49.8160698
0
ARC
8
DEFAULT_255_2_778
10
10.4507178
20
51.0092512
40
1.3656176
50
292.8223416
51
299.1049387
0
ARC
8
DEFAULT_255_2_778
10
10.7172229
20
50.3675623
40
0.6708024
50
282.4794629
51
293.1002978
0
ARC
8
DEFAULT_255_2_778
10
10.7905801
20
50.0420416
40
0.3371233
50
270.5838487
51
282.2615078
0
ARC
8
DEFAULT_255_2_778
10
10.7886817
20
49.875428
40
0.1705756
50
241.3798642
51
271.7918735
0
ARC
8
DEFAULT_255_2_778
10
10.7725697
20
49.838612
40
0.1305871
50
222.8095502
51
239.8477433
0
ARC
8
DEFAULT_255_2_778
10
10.8632448
20
49.9631648
40
0.2833162
50
195.5923976
51
228.8379937
0
ARC
8
DEFAULT_255_2_778
10
11.2482514
20
50.0869125
40
0.6875956
50
182.8988217
51
196.901328
0
ARC
8
DEFAULT_255_2_778
10
11.7546763
20
50.1290595
40
1.1956176
50
179.9089191
51
183.6886871
0
ARC
8
DEFAULT_255_2_778
10
12.1230229
20
50.1294544
40
1.5639636
50
177.2544012
51
179.9448392
0
LINE
8
DEFAULT_255_2_778
10
10.5608547
20
50.2043705
11
10.5608688
21
50.2046698
0
ARC
8
DEFAULT_255_2_778
10
11.0254754
20
50.1397208
40
0.4691244
50
149.0121274
51
172.0420019
0
ARC
8
DEFAULT_255_2_778
10
10.8596413
20
50.2301494
40
0.280511
50
88.5440138
51
147.4067729
0
ARC
8
DEFAULT_255_2_778
10
10.7906193
20
49.6799864
40
0.8340669
50
72.0203436
51
84.7616527
0
ARC
8
DEFAULT_255_2_778
10
10.9080282
20
50.0580191
40
0.4382821
50
61.8252032
51
71.3646611
0
ARC
8
DEFAULT_255_2_778
10
10.4986962
20
50.7284032
40
1.2918982
50
287.0682731
51
298.4915226
0
ARC
8
DEFAULT_255_2_778
10
10.6577818
20
50.2054772
40
0.7453122
50
270.6811176
51
287.1763457
0
ARC
8
DEFAULT_255_2_778
10
10.6665525
20
50.0394494
40
0.5792318
50
267.7358327
51
270.0088232
0
ARC
8
DEFAULT_255_2_778
10
10.6470952
20
49.8798768
40
0.4192211
50
203.9093897
51
269.5317059
0
ARC
8
DEFAULT_255_2_778
10
11.1145726
20
50.1392122
40
0.9528801
50
192.6009015
51
206.7737237
0
ARC
8
DEFAULT_255_2_778
10
11.5163822
20
50.2475427
40
1.3687639
50
192.6165694
51
193.3570279
0
ARC
8
DEFAULT_255_2_778
10
11.2164444
20
50.1417151
40
1.05363
50
182.6356817
51
190.5628607
0
ARC
8
DEFAULT_255_2_778
10
11.0629576
20
50.1321692
40
0.89987
50
180.0135228
51
182.4779265
0
ARC
8
DEFAULT_255_2_778
10
10.8371185
20
50.1480664
40
0.6742234
50
136.7456723
51
181.3691273
0
ARC
8
DEFAULT_255_2_778
10
10.687757
20
50.2368873
40
0.5059802
50
89.2314975
51
132.4774114
0
ARC
8
DEFAULT_255_2_778
10
10.6944571
20
50.1261601
40
0.6166618
50
87.8056342
51
89.9919799
0
ARC
8
DEFAULT_255_2_778
10
10.7056164
20
49.5844717
40
1.157965
50
70.3175508
51
89.3838437
0
ARC
8
DEFAULT_255_2_778
10
10.6142508
20
49.2769874
40
1.4783609
50
70.2024224
51
70.9971735
0
ARC
8
DEFAULT_255_2_778
10
6.8356463
20
50.7953908
40
0.4410946
50
358.399361
51
20.0218069
0
ARC
8
DEFAULT_255_2_778
10
7.0501301
20
50.8714859
40
0.2135292
50
20.5419455
51
86.7410997
0
ARC
8
DEFAULT_255_2_778
10
6.965547
20
50.8314555
40
0.314717
50
287.8983612
51
351.2113386
0
ARC
8
DEFAULT_255_2_778
10
7.0636919
20
50.7802198
40
0.618465
50
4.9299985
51
29.9140029
0
ARC
8
DEFAULT_255_2_778
10
7.1679648
20
50.8210178
40
0.5080106
50
31.7908677
51
73.6304902
0
ARC
8
DEFAULT_255_2_778
10
7.032524
20
50.4389821
40
0.9130031
50
72.2320975
51
84.9703096
0
ARC
8
DEFAULT_255_2_778
10
6.9980565
20
51.2037673
40
0.9427779
50
276.9765222
51
292.3131775
0
ARC
8
DEFAULT_255_2_778
10
7.177357
20
50.7962302
40
0.4978062
50
291.0302401
51
353.4987619
0
ARC
8
DEFAULT_255_2_778
10
6.907836
20
50.8515679
40
0.7722473
50
351.6832812
51
358.6496898
0
LINE
8
DEFAULT_255_2_778
10
9.1924688
20
50.1046698
11
9.1924688
21
50.1046698
0
LINE
8
DEFAULT_255_2_778
10
9.0665688
20
50.1046698
11
9.0665688
21
50.1046698
0
LINE
8
DEFAULT_255_2_778
10
8.7011688
20
50.0983698
11
8.7011688
21
50.0983698
0
LINE
8
DEFAULT_255_2_778
10
11.1149688
20
50.4443698
11
11.1149688
21
50.4443698
0
LINE
8
DEFAULT_255_2_778
10
11.1149688
20
50.6677698
11
11.1149688
21
51.4201698
0
LINE
8
DEFAULT_255_2_778
10
11.1149688
20
51.4201698
11
11.4787688
21
51.4614698
0
LINE
8
DEFAULT_255_2_778
10
11.4787688
20
51.4614698
11
11.4787688
21
49.4937698
0
LINE
8
DEFAULT_255_2_778
10
11.4787688
20
49.4937698
11
11.1231688
21
49.4937698
0
LINE
8
DEFAULT_255_2_778
10
11.1231688
20
49.4937698
11
11.1149688
21
49.5929698
0
LINE
8
DEFAULT_255_2_778
10
11.1149688
20
50.6679698
11
11.1149688
21
50.6677698
0
LINE
8
DEFAULT_255_2_778
10
7.0622688
20
51.0846698
11
6.7977688
21
51.0846698
0
LINE
8
DEFAULT_255_2_778
10
6.7977688
20
51.0846698
11
6.7977688
21
50.5319698
0
LINE
8
DEFAULT_255_2_778
10
6.7977688
20
50.5319698
11
7.0622688
21
50.5319698
0
LINE
8
DEFAULT_255_2_778
10
7.2765688
20
50.7833698
11
7.2765688
21
50.7830698
0
LINE
8
DEFAULT_255_2_778
10
7.1125688
20
51.3484698
11
6.4066688
21
51.3484698
0
LINE
8
DEFAULT_255_2_778
10
6.4066688
20
51.3484698
11
6.4066688
21
49.4889698
0
LINE
8
DEFAULT_255_2_778
10
6.4066688
20
49.4889698
11
6.7974688
21
49.4889698
0
LINE
8
DEFAULT_255_2_778
10
6.7974688
20
49.4889698
11
6.7974688
21
50.2679698
0
LINE
8
DEFAULT_255_2_778
10
6.7974688
20
50.2679698
11
7.1125688
21
50.2679698
0
LINE
8
DEFAULT_255_2_778
10
7.6798688
20
50.8333698
11
7.6798688
21
50.8333698
0
ARC
8
DEFAULT_255_2_778
10
19.7178096
20
50.7184316
40
0.1241506
50
90.5265294
51
180.7174335
0
ARC
8
DEFAULT_255_2_778
10
19.7156079
20
50.7184112
40
0.1241704
50
359.2920777
51
89.5104656
0
ARC
8
DEFAULT_255_2_778
10
19.7156079
20
50.7153429
40
0.1241704
50
270.4895344
51
0.7079223
0
ARC
8
DEFAULT_255_2_778
10
19.7178097
20
50.7153225
40
0.1241507
50
179.2825375
51
269.4734631
0
LINE
8
DEFAULT_255_2_778
10
19.5936688
20
50.7168771
11
19.5936688
21
50.7168771
0
ARC
8
DEFAULT_255_2_778
10
19.7159834
20
50.7171527
40
0.1600856
50
89.815832
51
180.0770398
0
ARC
8
DEFAULT_255_2_778
10
19.7170125
20
50.7171527
40
0.1600856
50
359.9229602
51
90.184168
0
ARC
8
DEFAULT_255_2_778
10
19.7169913
20
50.7166436
40
0.1601069
50
269.8234249
51
0.1051606
0
ARC
8
DEFAULT_255_2_778
10
19.7160045
20
50.7166437
40
0.160107
50
179.8948697
51
270.1765625
0
LINE
8
DEFAULT_255_2_778
10
19.5558979
20
50.7169375
11
19.5558979
21
50.7169375
0
ARC
8
DEFAULT_255_2_778
10
19.7173671
20
50.674243
40
0.0239886
50
28.4465281
51
103.4267637
0
ARC
8
DEFAULT_255_2_778
10
19.6923938
20
50.4619542
40
0.2364193
50
85.2923939
51
90.3233848
0
ARC
8
DEFAULT_255_2_778
10
19.7079096
20
50.0622581
40
0.7359887
50
91.4445043
51
94.5082143
0
ARC
8
DEFAULT_255_2_778
10
19.7011498
20
50.2876121
40
0.510537
50
90.0204411
51
91.3236595
0
ARC
8
DEFAULT_255_2_778
10
19.7067649
20
50.5632216
40
0.234999
50
77.9191012
51
91.4136047
0
ARC
8
DEFAULT_255_2_778
10
19.7539008
20
50.7594791
40
0.0335995
50
19.4828986
51
86.5059996
0
ARC
8
DEFAULT_255_2_778
10
19.7648421
20
50.7670932
40
0.0210433
50
359.8753665
51
9.8287108
0
ARC
8
DEFAULT_255_2_778
10
19.7362646
20
50.7719597
40
0.0498633
50
318.6549341
51
354.3463421
0
ARC
8
DEFAULT_255_2_778
10
19.6181615
20
50.8596366
40
0.1968255
50
312.3913188
51
322.2071703
0
ARC
8
DEFAULT_255_2_778
10
19.7323609
20
50.6714106
40
0.0466808
50
7.8211356
51
66.6544263
0
ARC
8
DEFAULT_255_2_778
10
19.5988118
20
50.6435628
40
0.1830194
50
4.3516874
51
10.7699648
0
ARC
8
DEFAULT_255_2_778
10
19.8039496
20
50.6537234
40
0.0229506
50
170.6553415
51
230.4661874
0
ARC
8
DEFAULT_255_2_778
10
19.7917715
20
50.6441989
40
0.0085297
50
253.4430888
51
270.5900942
0
ARC
8
DEFAULT_255_2_778
10
19.7115119
20
50.7406272
40
0.0341371
50
13.1090465
51
106.1583193
0
ARC
8
DEFAULT_255_2_778
10
19.6946118
20
50.5955504
40
0.1780193
50
87.6176468
51
90.0490737
0
ARC
8
DEFAULT_255_2_778
10
19.704515
20
50.7914726
40
0.0658749
50
261.2196532
51
305.0769943
0
ARC
8
DEFAULT_255_2_778
10
19.7330859
20
50.7451224
40
0.0119745
50
320.847334
51
0.7046022
0
LINE
8
DEFAULT_255_2_778
10
19.7921594
20
50.6354697
11
19.7511594
21
50.6354697
0
LINE
8
DEFAULT_255_2_778
10
19.7511594
20
50.6354697
11
19.7384594
21
50.6856697
0
LINE
8
DEFAULT_255_2_778
10
19.6910594
20
50.6983697
11
19.6910594
21
50.6356697
0
LINE
8
DEFAULT_255_2_778
10
19.6910594
20
50.6356697
11
19.6532594
21
50.6356697
0
LINE
8
DEFAULT_255_2_778
10
19.6532594
20
50.6356697
11
19.6500594
21
50.7959697
0
LINE
8
DEFAULT_255_2_778
10
19.7918594
20
50.6356697
11
19.7921594
21
50.6354697
0
LINE
8
DEFAULT_255_2_778
10
19.6944594
20
50.7735697
11
19.6944594
21
50.7263697
0
ARC
8
DEFAULT_255_2_778
10
22.0516426
20
49.3514609
40
0.1859656
50
91.2045372
51
181.4098501
0
ARC
8
DEFAULT_255_2_778
10
22.04384
20
49.3513785
40
0.1860476
50
358.6161552
51
88.8008978
0
ARC
8
DEFAULT_255_2_778
10
22.0437755
20
49.3424541
40
0.1861106
50
271.2185606
51
1.3643499
0
ARC
8
DEFAULT_255_2_778
10
22.0517085
20
49.3420751
40
0.1857322
50
178.57764
51
268.7736356
0
ARC
8
DEFAULT_255_2_778
10
22.9491426
20
49.3636609
40
0.1859656
50
91.2045372
51
181.4098501
0
ARC
8
DEFAULT_255_2_778
10
22.9413241
20
49.3636609
40
0.1859656
50
358.5901499
51
88.7954628
0
ARC
8
DEFAULT_255_2_778
10
22.9413241
20
49.3545099
40
0.1859656
50
271.2045372
51
1.4098501
0
ARC
8
DEFAULT_255_2_778
10
22.9491047
20
49.3542712
40
0.1857262
50
178.6072549
51
268.8056271
0
ARC
8
DEFAULT_255_2_778
10
22.5004267
20
49.3513785
40
0.1860476
50
91.1991022
51
181.3838448
0
ARC
8
DEFAULT_255_2_778
10
22.4926241
20
49.3514609
40
0.1859656
50
358.5901499
51
88.7954628
0
ARC
8
DEFAULT_255_2_778
10
22.4925595
20
49.3423716
40
0.1860286
50
271.2240081
51
1.3903789
0
ARC
8
DEFAULT_255_2_778
10
22.5004923
20
49.3421574
40
0.1858142
50
178.6036506
51
268.7791685
0
LINE
8
DEFAULT_255_2_778
10
21.8660334
20
49.3466854
11
21.8657334
21
49.3468854
0
LINE
8
DEFAULT_255_2_778
10
22.7634334
20
49.3587854
11
22.7632334
21
49.3590854
0
LINE
8
DEFAULT_255_2_778
10
22.3147334
20
49.3466854
11
22.3144334
21
49.3468854
0
ARC
8
DEFAULT_255_2_778
10
12.2412908
20
50.1121179
40
0.3756367
50
270.2518229
51
277.9224239
0
ARC
8
DEFAULT_255_2_778
10
12.2267567
20
49.8996058
40
0.163922
50
191.9135594
51
275.6664103
0
ARC
8
DEFAULT_255_2_778
10
12.2912552
20
50.0271972
40
0.6680449
50
207.8643513
51
221.7718618
0
ARC
8
DEFAULT_255_2_778
10
12.0737789
20
49.8207613
40
0.3684417
50
220.3588923
51
270.0277924
0
ARC
8
DEFAULT_255_2_778
10
12.0683238
20
49.9528085
40
0.5005206
50
270.6449322
51
287.6494066
0
ARC
8
DEFAULT_255_2_778
10
11.977822
20
50.2487608
40
0.8099892
50
287.4026496
51
297.6988649
0
ARC
8
DEFAULT_255_2_778
10
11.7698217
20
50.6519576
40
1.2636684
50
297.5514274
51
304.3018591
0
ARC
8
DEFAULT_255_2_778
10
12.3708589
20
49.8763997
40
0.1058286
50
290.4109967
51
338.4144294
0
ARC
8
DEFAULT_255_2_778
10
12.1869241
20
50.2455041
40
0.5177505
50
282.5203845
51
295.2483499
0
LINE
8
DEFAULT_255_2_778
10
12.0663656
20
49.8657664
11
12.0599656
21
50.7137664
0
LINE
8
DEFAULT_255_2_778
10
12.0599656
20
50.7137664
11
11.7006656
21
50.7137664
0
LINE
8
DEFAULT_255_2_778
10
11.7006656
20
50.7137664
11
11.7006656
21
49.7149664
0
LINE
8
DEFAULT_255_2_778
10
12.4819656
20
49.6080664
11
12.4946656
21
49.4950664
0
LINE
8
DEFAULT_255_2_778
10
12.4946656
20
49.4950664
11
12.8349656
21
49.4950664
0
LINE
8
DEFAULT_255_2_778
10
12.8349656
20
49.4950664
11
12.8349656
21
50.7264664
0
LINE
8
DEFAULT_255_2_778
10
12.8349656
20
50.7264664
11
12.4692656
21
50.7264664
0
LINE
8
DEFAULT_255_2_778
10
12.4692656
20
50.7264664
11
12.4692656
21
49.8342664
0
LINE
8
DEFAULT_255_1_234
10
8.5458344
20
46.7700091
11
8.2703458
21
46.7700091
0
LINE
8
DEFAULT_255_1_234
10
8.2703458
20
46.7700091
11
8.2703458
21
46.3122
0
LINE
8
DEFAULT_255_1_234
10
8.2703458
20
46.3122
11
8.1161364
21
46.3122
0
LINE
8
DEFAULT_255_1_234
10
8.1161364
20
46.3122
11
8.1161364
21
47.4816211
0
LINE
8
DEFAULT_255_1_234
10
8.1161364
20
47.4816211
11
8.5474407
21
47.4816211
0
LINE
8
DEFAULT_255_1_234
10
8.2703458
20
47.3547196
11
8.2703458
21
46.8961074
0
LINE
8
DEFAULT_255_1_234
10
8.2703458
20
46.8961074
11
8.5474407
21
46.8961074
0
LINE
8
DEFAULT_255_1_234
10
8.5562756
20
47.3547196
11
8.2703458
21
47.3547196
0
ARC
8
DEFAULT_255_1_234
10
8.5516534
20
46.8757195
40
0.6059162
50
78.8378113
51
90.3983573
0
ARC
8
DEFAULT_255_1_234
10
8.5932548
20
47.0777879
40
0.3996205
50
58.9632738
51
79.0810598
0
ARC
8
DEFAULT_255_1_234
10
8.623409
20
47.1337721
40
0.3361177
50
48.0197965
51
58.447194
0
ARC
8
DEFAULT_255_1_234
10
8.6322951
20
47.1423225
40
0.3238191
50
3.3375044
51
48.1766626
0
ARC
8
DEFAULT_255_1_234
10
8.509279
20
47.1246171
40
0.4477806
50
359.9477528
51
4.6829065
0
ARC
8
DEFAULT_255_1_234
10
8.5216107
20
47.1203628
40
0.4354656
50
346.1877825
51
0.5060252
0
ARC
8
DEFAULT_255_1_234
10
8.6574975
20
47.0850731
40
0.295089
50
310.8831995
51
346.5426355
0
ARC
8
DEFAULT_255_1_234
10
8.6266395
20
47.1267695
40
0.3468331
50
286.6925341
51
310.2288297
0
ARC
8
DEFAULT_255_1_234
10
8.5697226
20
47.3057882
40
0.5346654
50
274.6850312
51
287.0245141
0
ARC
8
DEFAULT_255_1_234
10
8.5471949
20
47.5266932
40
0.7566852
50
269.8969846
51
275.018904
0
ARC
8
DEFAULT_255_1_234
10
8.549954
20
47.3187707
40
0.4226708
50
269.6593078
51
279.4153575
0
ARC
8
DEFAULT_255_1_234
10
8.5756815
20
47.1697133
40
0.2714146
50
279.2049762
51
294.9900808
0
ARC
8
DEFAULT_255_1_234
10
8.6047141
20
47.1049508
40
0.2004525
50
295.2888114
51
311.2911209
0
ARC
8
DEFAULT_255_1_234
10
8.6118035
20
47.094422
40
0.1878703
50
311.7854996
51
347.2861051
0
ARC
8
DEFAULT_255_1_234
10
8.5134194
20
47.1197092
40
0.2894234
50
346.6893224
51
0.1059443
0
ARC
8
DEFAULT_255_1_234
10
8.4379089
20
47.1225685
40
0.3649409
50
359.6350983
51
0.0053152
0
ARC
8
DEFAULT_255_1_234
10
8.5349417
20
47.1250937
40
0.2679199
50
359.4672059
51
15.5933957
0
ARC
8
DEFAULT_255_1_234
10
8.5974306
20
47.1419779
40
0.2031932
50
15.7442113
51
46.6203375
0
ARC
8
DEFAULT_255_1_234
10
8.5826527
20
47.1249484
40
0.2257226
50
46.8628658
51
75.6676503
0
ARC
8
DEFAULT_255_1_234
10
8.5532347
20
47.0190718
40
0.3355939
50
75.276167
51
88.2915297
0
ARC
8
DEFAULT_255_1_234
10
8.5474054
20
46.9312524
40
0.4235602
50
87.8575022
51
88.8000139
0
LINE
8
DEFAULT_255_1_234
10
9.5506048
20
47.1860531
11
9.5506048
21
47.0479072
0
LINE
8
DEFAULT_255_1_234
10
9.2791321
20
46.9290375
11
9.2791321
21
46.3122
0
LINE
8
DEFAULT_255_1_234
10
9.2791321
20
46.3122
11
9.1305449
21
46.3122
0
LINE
8
DEFAULT_255_1_234
10
9.1305449
20
46.3122
11
9.1305449
21
47.1812341
0
LINE
8
DEFAULT_255_1_234
10
9.1305449
20
47.1812341
11
9.2751162
21
47.1812341
0
LINE
8
DEFAULT_255_1_234
10
9.2751162
20
47.1812341
11
9.2775257
21
47.0808374
0
ARC
8
DEFAULT_255_1_234
10
9.4839454
20
46.6419342
40
0.4114092
50
80.6754243
51
86.8932892
0
ARC
8
DEFAULT_255_1_234
10
9.4778988
20
46.54517
40
0.5083596
50
86.8038578
51
90.0431435
0
ARC
8
DEFAULT_255_1_234
10
9.4741969
20
46.7908866
40
0.2626638
50
89.2759698
51
106.6213787
0
ARC
8
DEFAULT_255_1_234
10
9.4537533
20
46.865183
40
0.1856317
50
107.1346045
51
157.6458115
0
ARC
8
DEFAULT_255_1_234
10
9.5229134
20
46.8268311
40
0.2643398
50
155.6586782
51
157.2539184
0
ARC
8
DEFAULT_255_1_234
10
9.5024337
20
46.9437157
40
0.2634121
50
127.8165941
51
148.6302098
0
ARC
8
DEFAULT_255_1_234
10
9.4770806
20
46.9697218
40
0.2273596
50
91.3329982
51
126.7875809
0
ARC
8
DEFAULT_255_1_234
10
9.4846746
20
46.8982195
40
0.299078
50
89.986594
51
92.4688449
0
ARC
8
DEFAULT_255_1_234
10
9.4855141
20
46.9257078
40
0.2715908
50
85.3589899
51
90.1623399
0
ARC
8
DEFAULT_255_1_234
10
9.4939657
20
47.0261164
40
0.1708278
50
78.401942
51
85.4594656
0
ARC
8
DEFAULT_255_1_234
10
9.5084541
20
47.0952236
40
0.1002194
50
67.7858312
51
78.5728455
0
ARC
8
DEFAULT_255_1_234
10
9.5192393
20
47.1231887
40
0.0702548
50
63.4835954
51
67.3062642
0
LINE
8
DEFAULT_255_1_234
10
9.6317254
20
46.7443075
11
9.6317254
21
46.7547488
0
LINE
8
DEFAULT_255_1_234
10
10.4228516
20
46.7475202
11
10.4228516
21
46.737079
0
ARC
8
DEFAULT_255_1_234
10
10.1903433
20
46.7579837
40
0.5586273
50
166.3003825
51
180.3317926
0
ARC
8
DEFAULT_255_1_234
10
10.1040593
20
46.7772964
40
0.4702272
50
153.8608245
51
166.0967125
0
ARC
8
DEFAULT_255_1_234
10
10.0374995
20
46.812975
40
0.3947658
50
135.1316692
51
154.253643
0
ARC
8
DEFAULT_255_1_234
10
10.0096555
20
46.8375666
40
0.3576898
50
121.7044358
51
134.776924
0
ARC
8
DEFAULT_255_1_234
10
10.0163548
20
46.8246867
40
0.3721701
50
93.4002104
51
121.5398234
0
ARC
8
DEFAULT_255_1_234
10
10.0258504
20
46.7421228
40
0.4551749
50
89.9706281
51
93.9769836
0
ARC
8
DEFAULT_255_1_234
10
10.0305596
20
46.7811362
40
0.4161854
50
71.3323442
51
90.6161982
0
ARC
8
DEFAULT_255_1_234
10
10.0468293
20
46.8413578
40
0.3539455
50
41.1815071
51
70.707185
0
ARC
8
DEFAULT_255_1_234
10
9.9990693
20
46.7979919
40
0.4184468
50
12.1971897
51
41.3445735
0
ARC
8
DEFAULT_255_1_234
10
9.80647
20
46.7521425
40
0.616399
50
359.5703439
51
12.5804035
0
ARC
8
DEFAULT_255_1_234
10
9.8537775
20
46.7339116
40
0.5690829
50
347.0197749
51
0.3188898
0
ARC
8
DEFAULT_255_1_234
10
9.9496277
20
46.7132808
40
0.4710501
50
334.3504053
51
346.846361
0
ARC
8
DEFAULT_255_1_234
10
10.0341701
20
46.6693805
40
0.3758475
50
310.422922
51
334.8045033
0
ARC
8
DEFAULT_255_1_234
10
10.0423526
20
46.6629782
40
0.3656736
50
301.8486886
51
310.097356
0
ARC
8
DEFAULT_255_1_234
10
10.0391252
20
46.6705638
40
0.3738224
50
274.307774
51
301.655379
0
ARC
8
DEFAULT_255_1_234
10
10.028056
20
46.7583361
40
0.4621997
50
269.9546461
51
274.8588071
0
ARC
8
DEFAULT_255_1_234
10
10.0231493
20
46.7082249
40
0.4121134
50
250.888809
51
270.631312
0
ARC
8
DEFAULT_255_1_234
10
10.0081413
20
46.6523277
40
0.3544073
50
221.1701932
51
250.2227191
0
ARC
8
DEFAULT_255_1_234
10
10.0565568
20
46.6964439
40
0.4198961
50
191.6263638
51
221.3526367
0
ARC
8
DEFAULT_255_1_234
10
10.2453563
20
46.7401329
40
0.6136451
50
179.610213
51
192.0693181
0
ARC
8
DEFAULT_255_1_234
10
10.2876791
20
46.7338633
40
0.5065736
50
179.636298
51
190.6162791
0
ARC
8
DEFAULT_255_1_234
10
10.1234459
20
46.701859
40
0.3392576
50
190.4136628
51
208.7170242
0
ARC
8
DEFAULT_255_1_234
10
10.0724084
20
46.6765366
40
0.2823401
50
209.1867941
51
217.4225593
0
ARC
8
DEFAULT_255_1_234
10
10.0194918
20
46.6299558
40
0.2120636
50
216.1156896
51
265.2575835
0
ARC
8
DEFAULT_255_1_234
10
10.0274066
20
46.6873109
40
0.2698952
50
264.5897417
51
270.0601757
0
ARC
8
DEFAULT_255_1_234
10
10.0307127
20
46.6493185
40
0.2319225
50
269.2532621
51
291.8792492
0
ARC
8
DEFAULT_255_1_234
10
10.0336348
20
46.6315238
40
0.2143562
50
292.9269754
51
323.1776747
0
ARC
8
DEFAULT_255_1_234
10
9.994317
20
46.6663452
40
0.2667346
50
322.2518483
51
323.0930371
0
ARC
8
DEFAULT_255_1_234
10
9.9648829
20
46.684499
40
0.3011886
50
323.6941278
51
343.8493282
0
ARC
8
DEFAULT_255_1_234
10
9.8070372
20
46.732535
40
0.4661719
50
343.5748474
51
355.0079071
0
ARC
8
DEFAULT_255_1_234
10
9.6062618
20
46.7533424
40
0.6680042
50
354.7285225
51
0.1206288
0
ARC
8
DEFAULT_255_1_234
10
9.7831084
20
46.7579751
40
0.4911667
50
359.623636
51
11.2015604
0
ARC
8
DEFAULT_255_1_234
10
9.9365311
20
46.789564
40
0.3345323
50
10.9989411
51
30.8319188
0
ARC
8
DEFAULT_255_1_234
10
9.9761184
20
46.8104297
40
0.2898553
50
31.3008956
51
37.3959224
0
ARC
8
DEFAULT_255_1_234
10
10.0257762
20
46.8523653
40
0.2249582
50
36.5915954
51
62.2442953
0
ARC
8
DEFAULT_255_1_234
10
10.0304216
20
46.8520602
40
0.2231053
50
63.3365542
51
89.7195421
0
ARC
8
DEFAULT_255_1_234
10
10.0261069
20
46.7951884
40
0.2800267
50
88.8936788
51
90.0047485
0
ARC
8
DEFAULT_255_1_234
10
10.0229429
20
46.8524787
40
0.2227586
50
89.1921125
51
114.7099455
0
ARC
8
DEFAULT_255_1_234
10
10.0258193
20
46.8562628
40
0.2205633
50
115.7997161
51
142.2900762
0
ARC
8
DEFAULT_255_1_234
10
10.0696925
20
46.8172658
40
0.2791541
50
141.4658779
51
142.3795754
0
ARC
8
DEFAULT_255_1_234
10
10.080583
20
46.8129557
40
0.2904292
50
143.0175714
51
163.234115
0
ARC
8
DEFAULT_255_1_234
10
10.2384002
20
46.7630054
40
0.4559523
50
162.9447461
51
174.3732162
0
ARC
8
DEFAULT_255_1_234
10
10.4529816
20
46.7389143
40
0.6718682
50
174.1228657
51
180.1565175
0
LINE
8
DEFAULT_255_1_234
10
10.5730451
20
46.7427012
11
10.5730451
21
46.7539456
0
LINE
8
DEFAULT_255_1_234
10
11.1577557
20
47.092885
11
11.1577557
21
47.545875
0
LINE
8
DEFAULT_255_1_234
10
11.1577557
20
47.545875
11
11.3063428
21
47.545875
0
LINE
8
DEFAULT_255_1_234
10
11.3063428
20
47.545875
11
11.3063428
21
46.3122
0
LINE
8
DEFAULT_255_1_234
10
11.3063428
20
46.3122
11
11.1698033
21
46.3122
0
LINE
8
DEFAULT_255_1_234
10
11.1698033
20
46.3122
11
11.1625747
21
46.4053682
0
LINE
8
DEFAULT_255_1_234
10
11.1577557
20
46.5491363
11
11.1577557
21
46.9483137
0
ARC
8
DEFAULT_255_1_234
10
11.2605605
20
46.7583457
40
0.6875294
50
169.1661407
51
180.3666851
0
ARC
8
DEFAULT_255_1_234
10
11.040925
20
46.8021387
40
0.4635805
50
150.2838427
51
169.3798909
0
ARC
8
DEFAULT_255_1_234
10
10.9775867
20
46.8345238
40
0.392532
50
142.1062393
51
149.806405
0
ARC
8
DEFAULT_255_1_234
10
10.9203599
20
46.8843749
40
0.3167807
50
118.4283255
51
142.8643566
0
ARC
8
DEFAULT_255_1_234
10
10.9104944
20
46.8906137
40
0.3066506
50
89.9199246
51
117.3621547
0
ARC
8
DEFAULT_255_1_234
10
10.9159923
20
46.8148731
40
0.3824245
50
89.9987914
51
90.7595231
0
ARC
8
DEFAULT_255_1_234
10
10.9197314
20
46.8383667
40
0.3589502
50
72.8978905
51
90.5955712
0
ARC
8
DEFAULT_255_1_234
10
10.9395262
20
46.9098123
40
0.2848505
50
39.9932841
51
72.477307
0
ARC
8
DEFAULT_255_1_234
10
10.936601
20
46.5885579
40
0.2908996
50
275.084999
51
320.969419
0
ARC
8
DEFAULT_255_1_234
10
10.915173
20
46.7152893
40
0.4191533
50
269.8935077
51
276.4672393
0
ARC
8
DEFAULT_255_1_234
10
10.9083745
20
46.5885703
40
0.2924958
50
222.0839186
51
271.1792213
0
ARC
8
DEFAULT_255_1_234
10
10.9694255
20
46.6510816
40
0.3797413
50
217.5160585
51
222.9101888
0
ARC
8
DEFAULT_255_1_234
10
11.0188094
20
46.6850781
40
0.4396261
50
193.0962774
51
217.1109254
0
ARC
8
DEFAULT_255_1_234
10
11.2145193
20
46.7339128
40
0.6413192
50
181.1070734
51
193.3838631
0
ARC
8
DEFAULT_255_1_234
10
11.3811252
20
46.7425869
40
0.8080801
50
179.9919009
51
181.4937549
0
ARC
8
DEFAULT_255_1_234
10
11.2994854
20
46.733972
40
0.5778615
50
179.6919417
51
188.6549204
0
ARC
8
DEFAULT_255_1_234
10
11.097527
20
46.7021672
40
0.3734182
50
188.4936033
51
202.2187731
0
ARC
8
DEFAULT_255_1_234
10
11.0007978
20
46.6638391
40
0.2693801
50
202.4517848
51
215.9307642
0
ARC
8
DEFAULT_255_1_234
10
10.9415424
20
46.6166191
40
0.1937215
50
214.9062306
51
264.2077075
0
ARC
8
DEFAULT_255_1_234
10
10.9509252
20
46.676415
40
0.2541804
50
263.4637896
51
270.0934907
0
ARC
8
DEFAULT_255_1_234
10
10.9549169
20
46.6672045
40
0.2449958
50
269.1634649
51
291.0931088
0
ARC
8
DEFAULT_255_1_234
10
10.9630874
20
46.6339994
40
0.2111194
50
292.2674853
51
328.1937478
0
ARC
8
DEFAULT_255_1_234
10
10.8939292
20
46.6839026
40
0.2962539
50
327.0410354
51
332.9414029
0
ARC
8
DEFAULT_255_1_234
10
10.935249
20
46.8315886
40
0.2512647
50
27.6811062
51
48.7893196
0
ARC
8
DEFAULT_255_1_234
10
10.9635771
20
46.8576916
40
0.2130039
50
49.8959006
51
87.010286
0
ARC
8
DEFAULT_255_1_234
10
10.9531629
20
46.7789504
40
0.292249
50
85.7764096
51
90.0424572
0
ARC
8
DEFAULT_255_1_234
10
10.9502345
20
46.8449006
40
0.2263149
50
89.313423
51
109.4265906
0
ARC
8
DEFAULT_255_1_234
10
10.9428056
20
46.8753962
40
0.1951098
50
110.3478057
51
145.1577858
0
ARC
8
DEFAULT_255_1_234
10
11.0081849
20
46.827775
40
0.2759807
50
144.7982748
51
162.8715388
0
ARC
8
DEFAULT_255_1_234
10
11.1776499
20
46.7732842
40
0.453983
50
162.5984223
51
173.3418672
0
ARC
8
DEFAULT_255_1_234
10
11.4444277
20
46.7401851
40
0.7228019
50
173.1877442
51
180.2462216
0
LINE
8
DEFAULT_255_1_234
10
12.0765865
20
46.3122
11
12.0733738
21
46.3981396
0
LINE
8
DEFAULT_255_1_234
10
11.533641
20
46.6157997
11
11.533641
21
47.1812341
0
LINE
8
DEFAULT_255_1_234
10
11.533641
20
47.1812341
11
11.6822282
21
47.1812341
0
LINE
8
DEFAULT_255_1_234
10
11.6822282
20
47.1812341
11
11.6822282
21
46.6198156
0
LINE
8
DEFAULT_255_1_234
10
12.069358
20
46.5491363
11
12.069358
21
47.1812341
0
LINE
8
DEFAULT_255_1_234
10
12.069358
20
47.1812341
11
12.2179451
21
47.1812341
0
LINE
8
DEFAULT_255_1_234
10
12.2179451
20
47.1812341
11
12.2179451
21
46.3122
0
LINE
8
DEFAULT_255_1_234
10
12.2179451
20
46.3122
11
12.0765865
21
46.3122
0
ARC
8
DEFAULT_255_1_234
10
11.8618203
20
46.579906
40
0.2789157
50
282.5436552
51
319.3308843
0
ARC
8
DEFAULT_255_1_234
10
11.8231036
20
46.7305137
40
0.4343667
50
269.8917857
51
283.214153
0
ARC
8
DEFAULT_255_1_234
10
11.8187721
20
46.8465183
40
0.5503818
50
269.9995424
51
270.3655186
0
ARC
8
DEFAULT_255_1_234
10
11.8157197
20
46.677453
40
0.3813286
50
257.7355913
51
270.4579866
0
ARC
8
DEFAULT_255_1_234
10
11.7859896
20
46.5475503
40
0.2480795
50
233.3384413
51
258.0721298
0
ARC
8
DEFAULT_255_1_234
10
11.7725503
20
46.5256041
40
0.2224626
50
221.9626381
51
232.7401232
0
ARC
8
DEFAULT_255_1_234
10
11.8005552
20
46.547133
40
0.2576959
50
197.9450831
51
221.3585622
0
ARC
8
DEFAULT_255_1_234
10
11.9400747
20
46.5947997
40
0.4051213
50
185.8088195
51
198.2790125
0
ARC
8
DEFAULT_255_1_234
10
12.129255
20
46.6172963
40
0.5956158
50
180.1439627
51
186.1199408
0
ARC
8
DEFAULT_255_1_234
10
12.0391418
20
46.616256
40
0.3569313
50
179.4285986
51
191.0735588
0
ARC
8
DEFAULT_255_1_234
10
11.8707846
20
46.5815017
40
0.1850421
50
190.5251661
51
212.6990766
0
ARC
8
DEFAULT_255_1_234
10
11.8243639
20
46.555883
40
0.1321852
50
214.2246197
51
264.4398755
0
ARC
8
DEFAULT_255_1_234
10
11.8420975
20
46.6468426
40
0.224609
50
262.1850223
51
270.1952455
0
ARC
8
DEFAULT_255_1_234
10
11.8462865
20
46.7744524
40
0.3522342
50
269.4431043
51
282.9585023
0
ARC
8
DEFAULT_255_1_234
10
11.8799555
20
46.6374561
40
0.2111871
50
282.391263
51
311.9722193
0
ARC
8
DEFAULT_255_1_234
10
11.8807152
20
46.6301809
40
0.2053153
50
313.1724425
51
336.7506893
0
LINE
8
DEFAULT_255_1_234
10
12.9970237
20
46.5860823
11
13.1375792
21
46.5860823
0
LINE
8
DEFAULT_255_1_234
10
12.4050846
20
46.7386853
11
12.4050846
21
46.7635837
0
LINE
8
DEFAULT_255_1_234
10
13.1375792
20
46.8824534
11
12.9970237
21
46.8824534
0
LINE
8
DEFAULT_255_1_234
10
12.5536718
20
46.7579615
11
12.5536718
21
46.7298504
0
ARC
8
DEFAULT_255_1_234
10
12.7958273
20
46.6314121
40
0.2140268
50
269.0327816
51
309.2224514
0
ARC
8
DEFAULT_255_1_234
10
12.8168027
20
46.6099108
40
0.1841255
50
308.396669
51
329.6984113
0
ARC
8
DEFAULT_255_1_234
10
12.8305882
20
46.599482
40
0.166974
50
330.401383
51
355.3970571
0
ARC
8
DEFAULT_255_1_234
10
12.8762748
20
46.6012082
40
0.2617417
50
329.2357853
51
356.6870514
0
ARC
8
DEFAULT_255_1_234
10
12.821277
20
46.6302971
40
0.3238945
50
324.8706984
51
329.7905871
0
ARC
8
DEFAULT_255_1_234
10
12.8134489
20
46.6370106
40
0.3341614
50
298.8769168
51
324.7016144
0
ARC
8
DEFAULT_255_1_234
10
12.780268
20
46.6898917
40
0.3965068
50
296.9023738
51
299.385174
0
ARC
8
DEFAULT_255_1_234
10
12.7932294
20
46.6611422
40
0.365007
50
269.8406811
51
297.1299281
0
ARC
8
DEFAULT_255_1_234
10
12.787895
20
46.7249407
40
0.4288259
50
253.315473
51
270.5771285
0
ARC
8
DEFAULT_255_1_234
10
12.7631985
20
46.6355739
40
0.3361372
50
221.1002312
51
252.9744583
0
ARC
8
DEFAULT_255_1_234
10
12.8091983
20
46.675059
40
0.3967576
50
194.5394537
51
221.0302238
0
ARC
8
DEFAULT_255_1_234
10
12.9940804
20
46.7265952
40
0.5886672
50
182.0499201
51
194.8773585
0
ARC
8
DEFAULT_255_1_234
10
13.1711002
20
46.738406
40
0.7660157
50
179.9791086
51
182.4591564
0
ARC
8
DEFAULT_255_1_234
10
12.9973046
20
46.7665498
40
0.5922274
50
168.614861
51
180.2869651
0
ARC
8
DEFAULT_255_1_234
10
12.8771191
20
46.7901269
40
0.4697532
50
154.9162259
51
168.5402336
0
ARC
8
DEFAULT_255_1_234
10
12.7849699
20
46.835663
40
0.3669966
50
133.5746694
51
155.2558665
0
ARC
8
DEFAULT_255_1_234
10
12.7686857
20
46.8495467
40
0.3457206
50
122.0165146
51
133.2055214
0
ARC
8
DEFAULT_255_1_234
10
12.7722696
20
46.8407361
40
0.355095
50
97.8731644
51
121.7531281
0
ARC
8
DEFAULT_255_1_234
10
12.7901779
20
46.7350159
40
0.4622833
50
89.8471353
51
98.2769494
0
ARC
8
DEFAULT_255_1_234
10
12.7950531
20
46.7960091
40
0.401305
50
73.3760412
51
90.5199766
0
ARC
8
DEFAULT_255_1_234
10
12.8146895
20
46.8682516
40
0.3264695
50
47.7085968
51
73.0509704
0
ARC
8
DEFAULT_255_1_234
10
12.8276765
20
46.8795128
40
0.309407
50
3.7443473
51
48.0843753
0
ARC
8
DEFAULT_255_1_234
10
12.7289714
20
46.8637614
40
0.4090351
50
2.6192045
51
5.0432185
0
ARC
8
DEFAULT_255_1_234
10
12.7746568
20
46.8677592
40
0.2228519
50
3.780656
51
23.9356886
0
ARC
8
DEFAULT_255_1_234
10
12.7975184
20
46.8758155
40
0.198697
50
24.4869552
51
46.9440088
0
ARC
8
DEFAULT_255_1_234
10
12.7976034
20
46.8781484
40
0.1969404
50
46.498716
51
89.3298174
0
ARC
8
DEFAULT_255_1_234
10
12.7914388
20
46.8186723
40
0.2565428
50
88.1083975
51
90.0061569
0
ARC
8
DEFAULT_255_1_234
10
12.7886818
20
46.8240759
40
0.251154
50
89.3773333
51
107.2071161
0
ARC
8
DEFAULT_255_1_234
10
12.7743941
20
46.875819
40
0.1975072
50
107.6883219
51
143.3583002
0
ARC
8
DEFAULT_255_1_234
10
12.8311325
20
46.8331873
40
0.2684762
50
143.2846717
51
162.935323
0
ARC
8
DEFAULT_255_1_234
10
12.9816926
20
46.7848652
40
0.4265927
50
162.6650068
51
174.0805419
0
ARC
8
DEFAULT_255_1_234
10
13.1959766
20
46.7599636
40
0.6423078
50
173.8423985
51
180.1785963
0
ARC
8
DEFAULT_255_1_234
10
13.1411866
20
46.7268039
40
0.5875227
50
179.7028978
51
188.2277152
0
ARC
8
DEFAULT_255_1_234
10
12.9310167
20
46.6953247
40
0.3750127
50
188.0629871
51
201.1160002
0
ARC
8
DEFAULT_255_1_234
10
12.8212366
20
46.6534238
40
0.2575093
50
201.2187293
51
216.9761968
0
ARC
8
DEFAULT_255_1_234
10
12.7760929
20
46.6195993
40
0.2010998
50
217.0135981
51
265.2056839
0
ARC
8
DEFAULT_255_1_234
10
12.7916788
20
46.7117695
40
0.2943543
50
263.681807
51
270.104251
0
LINE
8
DEFAULT_255_1_234
10
13.3576488
20
47.3916656
11
13.5062359
21
47.3916656
0
LINE
8
DEFAULT_255_1_234
10
13.5062359
20
47.3916656
11
13.5062359
21
47.1812341
0
LINE
8
DEFAULT_255_1_234
10
13.5062359
20
47.1812341
11
13.6684771
21
47.1812341
0
LINE
8
DEFAULT_255_1_234
10
13.6684771
20
47.1812341
11
13.6684771
21
47.0663802
0
LINE
8
DEFAULT_255_1_234
10
13.6684771
20
47.0663802
11
13.5062359
21
47.0663802
0
LINE
8
DEFAULT_255_1_234
10
13.5062359
20
47.0663802
11
13.5062359
21
46.5274506
0
LINE
8
DEFAULT_255_1_234
10
13.6724929
20
46.4326761
11
13.6724929
21
46.3122
0
LINE
8
DEFAULT_255_1_234
10
13.3576488
20
46.5274506
11
13.3576488
21
47.0663802
0
LINE
8
DEFAULT_255_1_234
10
13.3576488
20
47.0663802
11
13.1994235
21
47.0663802
0
LINE
8
DEFAULT_255_1_234
10
13.1994235
20
47.0663802
11
13.1994235
21
47.1812341
0
LINE
8
DEFAULT_255_1_234
10
13.1994235
20
47.1812341
11
13.3576488
21
47.1812341
0
LINE
8
DEFAULT_255_1_234
10
13.3576488
20
47.1812341
11
13.3576488
21
47.3916656
0
ARC
8
DEFAULT_255_1_234
10
13.7069862
20
46.5264084
40
0.200753
50
179.7025659
51
187.917967
0
ARC
8
DEFAULT_255_1_234
10
13.6323888
20
46.5156724
40
0.1253883
50
187.7545981
51
200.2447476
0
ARC
8
DEFAULT_255_1_234
10
13.5903209
20
46.4999859
40
0.0804913
50
200.130383
51
219.174133
0
ARC
8
DEFAULT_255_1_234
10
13.5767386
20
46.4907515
40
0.0641445
50
220.4434483
51
249.6172
0
ARC
8
DEFAULT_255_1_234
10
13.5922236
20
46.5296968
40
0.1060489
50
249.1032952
51
262.775154
0
ARC
8
DEFAULT_255_1_234
10
13.6010408
20
46.5925715
40
0.1695354
50
262.4913187
51
270.2611758
0
ARC
8
DEFAULT_255_1_234
10
13.6007825
20
46.6141103
40
0.191075
50
270.3091804
51
275.6625139
0
ARC
8
DEFAULT_255_1_234
10
13.586505
20
46.7642435
40
0.3418851
50
275.5610264
51
279.0879356
0
ARC
8
DEFAULT_255_1_234
10
13.5534927
20
46.9737699
40
0.5539959
50
279.0365489
51
281.5011378
0
ARC
8
DEFAULT_255_1_234
10
13.5178004
20
47.1541423
40
0.7378639
50
281.4243939
51
282.1017894
0
ARC
8
DEFAULT_255_1_234
10
13.5521251
20
46.7459858
40
0.4501761
50
275.2597045
51
285.5083879
0
ARC
8
DEFAULT_255_1_234
10
13.5582576
20
46.6903606
40
0.3942242
50
270.0268409
51
275.1132796
0
ARC
8
DEFAULT_255_1_234
10
13.5562541
20
46.5576614
40
0.261534
50
257.3573315
51
270.479383
0
ARC
8
DEFAULT_255_1_234
10
13.5349431
20
46.4678406
40
0.1692304
50
230.8037497
51
257.741658
0
ARC
8
DEFAULT_255_1_234
10
13.5281335
20
46.4568777
40
0.1564393
50
219.974146
51
230.1990686
0
ARC
8
DEFAULT_255_1_234
10
13.5613281
20
46.4822579
40
0.1981916
50
196.5084186
51
219.4318458
0
ARC
8
DEFAULT_255_1_234
10
13.6628727
20
46.5141194
40
0.3046086
50
184.6404872
51
196.8269686
0
ARC
8
DEFAULT_255_1_234
10
13.7873791
20
46.5266908
40
0.4297309
50
179.8986958
51
184.9681077
0
LINE
8
DEFAULT_255_1_234
10
14.0034005
20
47.1812341
11
14.0034005
21
46.3122
0
LINE
8
DEFAULT_255_1_234
10
14.0034005
20
46.3122
11
13.8548134
21
46.3122
0
LINE
8
DEFAULT_255_1_234
10
13.8548134
20
46.3122
11
13.8548134
21
47.1812341
0
LINE
8
DEFAULT_255_1_234
10
13.8548134
20
47.1812341
11
14.0034005
21
47.1812341
0
ARC
8
DEFAULT_255_1_234
10
13.9406282
20
47.4126889
40
0.097867
50
161.415052
51
180.5526306
0
ARC
8
DEFAULT_255_1_234
10
13.9282061
20
47.4161077
40
0.0850062
50
138.1827368
51
160.9307106
0
ARC
8
DEFAULT_255_1_234
10
13.9172006
20
47.4256588
40
0.0704362
50
104.6368899
51
138.0039868
0
ARC
8
DEFAULT_255_1_234
10
13.9279161
20
47.3889963
40
0.1086221
50
92.0600725
51
105.2189128
0
ARC
8
DEFAULT_255_1_234
10
13.9302509
20
47.3547117
40
0.1429728
50
89.9756393
51
92.5012496
0
ARC
8
DEFAULT_255_1_234
10
13.9312529
20
47.3772731
40
0.1204151
50
78.0235316
51
90.4478182
0
ARC
8
DEFAULT_255_1_234
10
13.9404621
20
47.4186295
40
0.0780493
50
55.051506
51
78.3369085
0
ARC
8
DEFAULT_255_1_234
10
13.9454895
20
47.4270711
40
0.0682538
50
42.0501187
51
54.4513741
0
ARC
8
DEFAULT_255_1_234
10
13.9319762
20
47.4146798
40
0.0865878
50
1.7497075
51
42.1496013
0
ARC
8
DEFAULT_255_1_234
10
13.9065095
20
47.4117738
40
0.1121515
50
359.9852656
51
2.8364544
0
ARC
8
DEFAULT_255_1_234
10
13.9231087
20
47.4108229
40
0.0955566
50
342.1070653
51
0.552888
0
ARC
8
DEFAULT_255_1_234
10
13.9373784
20
47.4068904
40
0.0807713
50
316.7107116
51
341.6516965
0
ARC
8
DEFAULT_255_1_234
10
13.9440822
20
47.4008823
40
0.0717724
50
285.4397031
51
316.5324284
0
ARC
8
DEFAULT_255_1_234
10
13.9330739
20
47.4374554
40
0.1099597
50
272.3547054
51
285.8953117
0
ARC
8
DEFAULT_255_1_234
10
13.9303897
20
47.4740048
40
0.1465932
50
269.9695369
51
272.8160237
0
ARC
8
DEFAULT_255_1_234
10
13.9294078
20
47.4520863
40
0.1246779
50
258.8431134
51
270.4153935
0
ARC
8
DEFAULT_255_1_234
10
13.920412
20
47.4085414
40
0.0802162
50
238.5431189
51
259.1288175
0
ARC
8
DEFAULT_255_1_234
10
13.9136005
20
47.3961856
40
0.0661247
50
222.5062634
51
237.9906969
0
ARC
8
DEFAULT_255_1_234
10
13.9263593
20
47.4077889
40
0.0833707
50
184.1069131
51
222.460413
0
ARC
8
DEFAULT_255_1_234
10
13.9532833
20
47.4116349
40
0.1105176
50
179.9429482
51
185.0960898
0
LINE
8
DEFAULT_255_1_234
10
14.3070002
20
47.1812341
11
14.527873
21
46.5137966
0
LINE
8
DEFAULT_255_1_234
10
14.527873
20
46.5137966
11
14.7431236
21
47.1812341
0
LINE
8
DEFAULT_255_1_234
10
14.7431236
20
47.1812341
11
14.8949235
21
47.1812341
0
LINE
8
DEFAULT_255_1_234
10
14.8949235
20
47.1812341
11
14.583292
21
46.3122
0
LINE
8
DEFAULT_255_1_234
10
14.583292
20
46.3122
11
14.4700445
21
46.3122
0
LINE
8
DEFAULT_255_1_234
10
14.4700445
20
46.3122
11
14.1552004
21
47.1812341
0
LINE
8
DEFAULT_255_1_234
10
14.1552004
20
47.1812341
11
14.3070002
21
47.1812341
0
LINE
8
DEFAULT_255_1_234
10
15.1993264
20
47.1812341
11
15.1993264
21
46.3122
0
LINE
8
DEFAULT_255_1_234
10
15.1993264
20
46.3122
11
15.0507392
21
46.3122
0
LINE
8
DEFAULT_255_1_234
10
15.0507392
20
46.3122
11
15.0507392
21
47.1812341
0
LINE
8
DEFAULT_255_1_234
10
15.0507392
20
47.1812341
11
15.1993264
21
47.1812341
0
ARC
8
DEFAULT_255_1_234
10
15.1365541
20
47.4126889
40
0.097867
50
161.415052
51
180.5526306
0
ARC
8
DEFAULT_255_1_234
10
15.1241319
20
47.4161077
40
0.0850062
50
138.1827368
51
160.9307106
0
ARC
8
DEFAULT_255_1_234
10
15.1131265
20
47.4256588
40
0.0704362
50
104.6368899
51
138.0039868
0
ARC
8
DEFAULT_255_1_234
10
15.1238419
20
47.3889963
40
0.1086221
50
92.0600725
51
105.2189128
0
ARC
8
DEFAULT_255_1_234
10
15.1261768
20
47.3547117
40
0.1429728
50
89.9756393
51
92.5012496
0
ARC
8
DEFAULT_255_1_234
10
15.1271787
20
47.3772731
40
0.1204151
50
78.0235316
51
90.4478182
0
ARC
8
DEFAULT_255_1_234
10
15.1363879
20
47.4186295
40
0.0780493
50
55.051506
51
78.3369085
0
ARC
8
DEFAULT_255_1_234
10
15.1414153
20
47.4270711
40
0.0682538
50
42.0501187
51
54.4513741
0
ARC
8
DEFAULT_255_1_234
10
15.127902
20
47.4146798
40
0.0865878
50
1.7497075
51
42.1496013
0
ARC
8
DEFAULT_255_1_234
10
15.1024353
20
47.4117738
40
0.1121515
50
359.9852656
51
2.8364544
0
ARC
8
DEFAULT_255_1_234
10
15.1190345
20
47.4108229
40
0.0955566
50
342.1070653
51
0.552888
0
ARC
8
DEFAULT_255_1_234
10
15.1333043
20
47.4068904
40
0.0807713
50
316.7107116
51
341.6516965
0
ARC
8
DEFAULT_255_1_234
10
15.140008
20
47.4008823
40
0.0717724
50
285.4397031
51
316.5324284
0
ARC
8
DEFAULT_255_1_234
10
15.1289997
20
47.4374554
40
0.1099597
50
272.3547054
51
285.8953117
0
ARC
8
DEFAULT_255_1_234
10
15.1263155
20
47.4740048
40
0.1465932
50
269.9695369
51
272.8160237
0
ARC
8
DEFAULT_255_1_234
10
15.1253336
20
47.4520863
40
0.1246779
50
258.8431134
51
270.4153935
0
ARC
8
DEFAULT_255_1_234
10
15.1163379
20
47.4085414
40
0.0802162
50
238.5431189
51
259.1288175
0
ARC
8
DEFAULT_255_1_234
10
15.1095264
20
47.3961856
40
0.0661247
50
222.5062634
51
237.9906969
0
ARC
8
DEFAULT_255_1_234
10
15.1222851
20
47.4077889
40
0.0833707
50
184.1069131
51
222.460413
0
ARC
8
DEFAULT_255_1_234
10
15.1492092
20
47.4116349
40
0.1105176
50
179.9429482
51
185.0960898
0
LINE
8
DEFAULT_255_1_234
10
15.4900753
20
47.3916656
11
15.6386625
21
47.3916656
0
LINE
8
DEFAULT_255_1_234
10
15.6386625
20
47.3916656
11
15.6386625
21
47.1812341
0
LINE
8
DEFAULT_255_1_234
10
15.6386625
20
47.1812341
11
15.8009036
21
47.1812341
0
LINE
8
DEFAULT_255_1_234
10
15.8009036
20
47.1812341
11
15.8009036
21
47.0663802
0
LINE
8
DEFAULT_255_1_234
10
15.8009036
20
47.0663802
11
15.6386625
21
47.0663802
0
LINE
8
DEFAULT_255_1_234
10
15.6386625
20
47.0663802
11
15.6386625
21
46.5274506
0
LINE
8
DEFAULT_255_1_234
10
15.8049194
20
46.4326761
11
15.8049194
21
46.3122
0
LINE
8
DEFAULT_255_1_234
10
15.4900753
20
46.5274506
11
15.4900753
21
47.0663802
0
LINE
8
DEFAULT_255_1_234
10
15.4900753
20
47.0663802
11
15.33185
21
47.0663802
0
LINE
8
DEFAULT_255_1_234
10
15.33185
20
47.0663802
11
15.33185
21
47.1812341
0
LINE
8
DEFAULT_255_1_234
10
15.33185
20
47.1812341
11
15.4900753
21
47.1812341
0
LINE
8
DEFAULT_255_1_234
10
15.4900753
20
47.1812341
11
15.4900753
21
47.3916656
0
ARC
8
DEFAULT_255_1_234
10
15.8394127
20
46.5264084
40
0.200753
50
179.7025659
51
187.917967
0
ARC
8
DEFAULT_255_1_234
10
15.7648153
20
46.5156724
40
0.1253883
50
187.7545981
51
200.2447476
0
ARC
8
DEFAULT_255_1_234
10
15.7227474
20
46.4999859
40
0.0804913
50
200.130383
51
219.174133
0
ARC
8
DEFAULT_255_1_234
10
15.7091651
20
46.4907515
40
0.0641445
50
220.4434483
51
249.6172
0
ARC
8
DEFAULT_255_1_234
10
15.7246501
20
46.5296968
40
0.1060489
50
249.1032952
51
262.775154
0
ARC
8
DEFAULT_255_1_234
10
15.7334673
20
46.5925715
40
0.1695354
50
262.4913187
51
270.2611758
0
ARC
8
DEFAULT_255_1_234
10
15.7332091
20
46.6141103
40
0.191075
50
270.3091804
51
275.6625139
0
ARC
8
DEFAULT_255_1_234
10
15.7189315
20
46.7642435
40
0.3418851
50
275.5610264
51
279.0879356
0
ARC
8
DEFAULT_255_1_234
10
15.6859192
20
46.9737699
40
0.5539959
50
279.0365489
51
281.5011378
0
ARC
8
DEFAULT_255_1_234
10
15.6502269
20
47.1541423
40
0.7378639
50
281.4243939
51
282.1017894
0
ARC
8
DEFAULT_255_1_234
10
15.6845516
20
46.7459858
40
0.4501761
50
275.2597045
51
285.5083879
0
ARC
8
DEFAULT_255_1_234
10
15.6906841
20
46.6903606
40
0.3942242
50
270.0268409
51
275.1132796
0
ARC
8
DEFAULT_255_1_234
10
15.6886806
20
46.5576614
40
0.261534
50
257.3573315
51
270.479383
0
ARC
8
DEFAULT_255_1_234
10
15.6673697
20
46.4678406
40
0.1692304
50
230.8037497
51
257.741658
0
ARC
8
DEFAULT_255_1_234
10
15.66056
20
46.4568777
40
0.1564393
50
219.974146
51
230.1990686
0
ARC
8
DEFAULT_255_1_234
10
15.6937546
20
46.4822579
40
0.1981916
50
196.5084186
51
219.4318458
0
ARC
8
DEFAULT_255_1_234
10
15.7952992
20
46.5141194
40
0.3046086
50
184.6404872
51
196.8269686
0
ARC
8
DEFAULT_255_1_234
10
15.9198056
20
46.5266908
40
0.4297309
50
179.8986958
51
184.9681077
0
LINE
8
DEFAULT_255_1_234
10
16.0418557
20
47.1812341
11
16.2587126
21
46.5298601
0
LINE
8
DEFAULT_255_1_234
10
16.2587126
20
46.5298601
11
16.4611125
21
47.1812341
0
LINE
8
DEFAULT_255_1_234
10
16.4611125
20
47.1812341
11
16.6201409
21
47.1812341
0
LINE
8
DEFAULT_255_1_234
10
16.6201409
20
47.1812341
11
16.2707603
21
46.17807
0
LINE
8
DEFAULT_255_1_234
10
16.0129415
20
45.961213
11
15.9848304
21
45.9636226
0
LINE
8
DEFAULT_255_1_234
10
15.9848304
20
45.9636226
11
15.9294114
21
45.9740638
0
LINE
8
DEFAULT_255_1_234
10
15.9294114
20
45.9740638
11
15.9294114
21
46.0945399
0
LINE
8
DEFAULT_255_1_234
10
15.9294114
20
46.0945399
11
15.9695701
21
46.0913272
0
LINE
8
DEFAULT_255_1_234
10
16.1567096
20
46.233489
11
16.1896397
21
46.3218381
0
LINE
8
DEFAULT_255_1_234
10
16.1896397
20
46.3218381
11
15.8796146
21
47.1812341
0
LINE
8
DEFAULT_255_1_234
10
15.8796146
20
47.1812341
11
16.0418557
21
47.1812341
0
ARC
8
DEFAULT_255_1_234
10
15.8072945
20
46.3465403
40
0.4931356
50
327.7224013
51
340.0237316
0
ARC
8
DEFAULT_255_1_234
10
15.9825161
20
46.233372
40
0.2845645
50
305.2163759
51
328.1469174
0
ARC
8
DEFAULT_255_1_234
10
16.0170212
20
46.1924893
40
0.2313123
50
268.9893887
51
304.0733175
0
ARC
8
DEFAULT_255_1_234
10
15.9710414
20
46.3948864
40
0.3035628
50
269.7222887
51
278.0404605
0
ARC
8
DEFAULT_255_1_234
10
15.9866237
20
46.2888823
40
0.1964222
50
277.8648378
51
290.8634365
0
ARC
8
DEFAULT_255_1_234
10
16.0074226
20
46.2333422
40
0.1371168
50
291.0076295
51
305.5967213
0
ARC
8
DEFAULT_255_1_234
10
16.0055417
20
46.2317702
40
0.1369553
50
306.6194038
51
324.1023288
0
ARC
8
DEFAULT_255_1_234
10
15.9308231
20
46.28722
40
0.2299972
50
323.8264381
51
334.2987676
0
ARC
8
DEFAULT_255_1_234
10
15.806434
20
46.3483087
40
0.3685747
50
334.1277399
51
340.8153554
0
ARC
8
DEFAULT_255_1_234
10
15.7088275
20
46.3842465
40
0.4725741
50
340.5889714
51
341.3967148
0
LINE
8
DEFAULT_255_1_234
10
17.2257339
20
47.4872433
11
17.2257339
21
46.3122
0
LINE
8
DEFAULT_255_1_234
10
17.2257339
20
46.3122
11
17.0763436
21
46.3122
0
LINE
8
DEFAULT_255_1_234
10
17.0763436
20
46.3122
11
17.0763436
21
47.3025133
0
LINE
8
DEFAULT_255_1_234
10
17.0763436
20
47.3025133
11
16.7767598
21
47.1924785
0
LINE
8
DEFAULT_255_1_234
10
16.7767598
20
47.1924785
11
16.7767598
21
47.3274117
0
LINE
8
DEFAULT_255_1_234
10
16.7767598
20
47.3274117
11
17.2024419
21
47.4872433
0
LINE
8
DEFAULT_255_1_234
10
17.2024419
20
47.4872433
11
17.2257339
21
47.4872433
0
LINE
8
DEFAULT_255_1_234
10
18.3943519
20
47.0037327
11
18.3943519
21
46.8109709
0
LINE
8
DEFAULT_255_1_234
10
17.6562351
20
46.7908916
11
17.6562351
21
46.9892755
0
LINE
8
DEFAULT_255_1_234
10
18.2457647
20
46.7708123
11
18.2457647
21
47.0141739
0
LINE
8
DEFAULT_255_1_234
10
17.8048223
20
47.0254184
11
17.8048223
21
46.7876789
0
ARC
8
DEFAULT_255_1_234
10
17.1696408
20
46.8060805
40
1.2247208
50
353.8441951
51
0.2287902
0
ARC
8
DEFAULT_255_1_234
10
17.6335912
20
46.7542806
40
0.7578929
50
344.4934747
51
353.9765454
0
ARC
8
DEFAULT_255_1_234
10
17.9328502
20
46.6691981
40
0.4467846
50
329.2803592
51
344.7472793
0
ARC
8
DEFAULT_255_1_234
10
18.0321327
20
46.6147018
40
0.3336173
50
324.9352394
51
328.6160465
0
ARC
8
DEFAULT_255_1_234
10
18.0698436
20
46.5883427
40
0.2876076
50
280.580143
51
324.9173126
0
ARC
8
DEFAULT_255_1_234
10
18.0297228
20
46.7554099
40
0.4592847
50
269.5977311
51
281.6734359
0
ARC
8
DEFAULT_255_1_234
10
18.0225134
20
46.7434173
40
0.4472986
50
256.6228859
51
270.51044
0
ARC
8
DEFAULT_255_1_234
10
17.9823112
20
46.5885877
40
0.2873874
50
215.8618325
51
257.2788573
0
ARC
8
DEFAULT_255_1_234
10
18.0844143
20
46.6570977
40
0.4102928
50
197.9693508
51
215.2623606
0
ARC
8
DEFAULT_255_1_234
10
18.3329259
20
46.7409709
40
0.6725652
50
187.8816417
51
198.2346507
0
ARC
8
DEFAULT_255_1_234
10
18.7287467
20
46.7981079
40
1.0724845
50
180.8976217
51
188.0055519
0
ARC
8
DEFAULT_255_1_234
10
19.0087655
20
46.8084777
40
1.3526448
50
180.7449369
51
181.1510016
0
ARC
8
DEFAULT_255_1_234
10
18.8510384
20
46.9941042
40
1.1948131
50
173.7675579
51
180.231553
0
ARC
8
DEFAULT_255_1_234
10
18.3992531
20
47.0451666
40
0.7401564
50
164.3058563
51
173.9002247
0
ARC
8
DEFAULT_255_1_234
10
18.10806
20
47.1290656
40
0.4371288
50
148.7922025
51
164.568378
0
ARC
8
DEFAULT_255_1_234
10
18.0129052
20
47.1821929
40
0.3282386
50
144.5883898
51
148.1176286
0
ARC
8
DEFAULT_255_1_234
10
17.978595
20
47.2061315
40
0.2864044
50
101.6440918
51
144.514236
0
ARC
8
DEFAULT_255_1_234
10
18.0211017
20
47.0372069
40
0.4604934
50
89.5284041
51
102.5819763
0
ARC
8
DEFAULT_255_1_234
10
18.0290104
20
47.0333018
40
0.464401
50
77.0437873
51
90.5081339
0
ARC
8
DEFAULT_255_1_234
10
18.0692106
20
47.1975615
40
0.2953195
50
48.2778575
51
77.4994676
0
ARC
8
DEFAULT_255_1_234
10
18.0764737
20
47.2104746
40
0.2808655
50
36.3142134
51
47.6305865
0
ARC
8
DEFAULT_255_1_234
10
17.9896044
20
47.1519515
40
0.3855453
50
18.2931786
51
35.6769206
0
ARC
8
DEFAULT_255_1_234
10
17.7352803
20
47.0646593
40
0.654423
50
8.024666
51
18.5605216
0
ARC
8
DEFAULT_255_1_234
10
17.3189723
20
47.0031792
40
1.0752407
50
1.1274072
51
8.1718305
0
ARC
8
DEFAULT_255_1_234
10
16.9953914
20
46.9904885
40
1.3990231
50
0.5424119
51
1.3863029
0
ARC
8
DEFAULT_255_1_234
10
17.1775292
20
47.0177342
40
1.0682415
50
359.8090433
51
4.9407866
0
ARC
8
DEFAULT_255_1_234
10
17.5985306
20
47.0553113
40
0.6455691
50
4.8362157
51
12.2904523
0
ARC
8
DEFAULT_255_1_234
10
17.874042
20
47.1166965
40
0.3633074
50
12.0805627
51
23.8173984
0
ARC
8
DEFAULT_255_1_234
10
17.9914126
20
47.1663919
40
0.2358723
50
24.2871213
51
31.3935614
0
ARC
8
DEFAULT_255_1_234
10
18.0438823
20
47.2007233
40
0.1732111
50
30.7407893
51
82.4657128
0
ARC
8
DEFAULT_255_1_234
10
18.0258957
20
47.1123691
40
0.263235
50
81.1060089
51
90.2184952
0
ARC
8
DEFAULT_255_1_234
10
18.0223256
20
47.1381924
40
0.2374236
50
89.3806855
51
105.6762551
0
ARC
8
DEFAULT_255_1_234
10
18.0039887
20
47.2048567
40
0.1682847
50
105.7981136
51
149.7388061
0
ARC
8
DEFAULT_255_1_234
10
18.1103965
20
47.140895
40
0.2924306
50
149.4208916
51
163.6286378
0
ARC
8
DEFAULT_255_1_234
10
18.3194853
20
47.077125
40
0.5110213
50
163.3763315
51
172.1410975
0
ARC
8
DEFAULT_255_1_234
10
18.6495572
20
47.0298518
40
0.8444586
50
172.0259487
51
178.0703232
0
ARC
8
DEFAULT_255_1_234
10
18.9525662
20
47.0154906
40
1.1477868
50
177.8631668
51
179.5044149
0
ARC
8
DEFAULT_255_1_234
10
18.8453066
20
46.7840389
40
1.0404907
50
179.7995573
51
185.2460446
0
ARC
8
DEFAULT_255_1_234
10
18.4410105
20
46.7457513
40
0.6343885
50
185.1411642
51
193.0079639
0
ARC
8
DEFAULT_255_1_234
10
18.1766578
20
46.6832641
40
0.3627568
50
192.7897626
51
205.2507664
0
ARC
8
DEFAULT_255_1_234
10
18.0720125
20
46.6365415
40
0.2481908
50
205.8005384
51
211.2537509
0
ARC
8
DEFAULT_255_1_234
10
18.0196565
20
46.601458
40
0.1852521
50
210.3789793
51
238.4008143
0
ARC
8
DEFAULT_255_1_234
10
18.0177087
20
46.6061376
40
0.1882621
50
239.6520629
51
265.9793761
0
ARC
8
DEFAULT_255_1_234
10
18.0262288
20
46.6733427
40
0.2559272
50
265.1315437
51
270.060332
0
ARC
8
DEFAULT_255_1_234
10
18.0291066
20
46.6409534
40
0.2235528
50
269.3314664
51
287.2178029
0
ARC
8
DEFAULT_255_1_234
10
18.0428918
20
46.5906279
40
0.1714108
50
287.7958004
51
329.080874
0
ARC
8
DEFAULT_255_1_234
10
17.9471375
20
46.650393
40
0.2842745
50
328.6634704
51
343.3325132
0
ARC
8
DEFAULT_255_1_234
10
17.7298395
20
46.7180863
40
0.5118644
50
343.0499468
51
351.9393422
0
ARC
8
DEFAULT_255_1_234
10
17.3831695
20
46.7691949
40
0.8622784
50
351.8069023
51
357.7959224
0
ARC
8
DEFAULT_255_1_234
10
17.0596251
20
46.7859721
40
1.1862365
50
357.5871873
51
359.2677531
0
LINE
8
DEFAULT_255_1_234
10
19.3180018
20
47.0037327
11
19.3180018
21
46.8109709
0
LINE
8
DEFAULT_255_1_234
10
18.579885
20
46.7908916
11
18.579885
21
46.9892755
0
LINE
8
DEFAULT_255_1_234
10
19.1694146
20
46.7708123
11
19.1694146
21
47.0141739
0
LINE
8
DEFAULT_255_1_234
10
18.7284722
20
47.0254184
11
18.7284722
21
46.7876789
0
ARC
8
DEFAULT_255_1_234
10
18.0932907
20
46.8060805
40
1.2247208
50
353.8441951
51
0.2287902
0
ARC
8
DEFAULT_255_1_234
10
18.5572411
20
46.7542806
40
0.7578929
50
344.4934747
51
353.9765454
0
ARC
8
DEFAULT_255_1_234
10
18.8565001
20
46.6691981
40
0.4467846
50
329.2803592
51
344.7472793
0
ARC
8
DEFAULT_255_1_234
10
18.9557826
20
46.6147018
40
0.3336173
50
324.9352394
51
328.6160465
0
ARC
8
DEFAULT_255_1_234
10
18.9934935
20
46.5883427
40
0.2876076
50
280.580143
51
324.9173126
0
ARC
8
DEFAULT_255_1_234
10
18.9533727
20
46.7554099
40
0.4592847
50
269.5977311
51
281.6734359
0
ARC
8
DEFAULT_255_1_234
10
18.9461633
20
46.7434173
40
0.4472986
50
256.6228859
51
270.51044
0
ARC
8
DEFAULT_255_1_234
10
18.9059611
20
46.5885877
40
0.2873874
50
215.8618325
51
257.2788573
0
ARC
8
DEFAULT_255_1_234
10
19.0080642
20
46.6570977
40
0.4102928
50
197.9693508
51
215.2623606
0
ARC
8
DEFAULT_255_1_234
10
19.2565758
20
46.7409709
40
0.6725652
50
187.8816417
51
198.2346507
0
ARC
8
DEFAULT_255_1_234
10
19.6523966
20
46.7981079
40
1.0724845
50
180.8976217
51
188.0055519
0
ARC
8
DEFAULT_255_1_234
10
19.9324154
20
46.8084777
40
1.3526448
50
180.7449369
51
181.1510016
0
ARC
8
DEFAULT_255_1_234
10
19.7746883
20
46.9941042
40
1.1948131
50
173.7675579
51
180.231553
0
ARC
8
DEFAULT_255_1_234
10
19.322903
20
47.0451666
40
0.7401564
50
164.3058563
51
173.9002247
0
ARC
8
DEFAULT_255_1_234
10
19.0317099
20
47.1290656
40
0.4371288
50
148.7922025
51
164.568378
0
ARC
8
DEFAULT_255_1_234
10
18.9365551
20
47.1821929
40
0.3282386
50
144.5883898
51
148.1176286
0
ARC
8
DEFAULT_255_1_234
10
18.9022449
20
47.2061315
40
0.2864044
50
101.6440918
51
144.514236
0
ARC
8
DEFAULT_255_1_234
10
18.9447516
20
47.0372069
40
0.4604934
50
89.5284041
51
102.5819763
0
ARC
8
DEFAULT_255_1_234
10
18.9526603
20
47.0333018
40
0.464401
50
77.0437873
51
90.5081339
0
ARC
8
DEFAULT_255_1_234
10
18.9928605
20
47.1975615
40
0.2953195
50
48.2778575
51
77.4994676
0
ARC
8
DEFAULT_255_1_234
10
19.0001236
20
47.2104746
40
0.2808655
50
36.3142134
51
47.6305865
0
ARC
8
DEFAULT_255_1_234
10
18.9132543
20
47.1519515
40
0.3855453
50
18.2931786
51
35.6769206
0
ARC
8
DEFAULT_255_1_234
10
18.6589302
20
47.0646593
40
0.654423
50
8.024666
51
18.5605216
0
ARC
8
DEFAULT_255_1_234
10
18.2426222
20
47.0031792
40
1.0752407
50
1.1274072
51
8.1718305
0
ARC
8
DEFAULT_255_1_234
10
17.9190413
20
46.9904885
40
1.3990231
50
0.5424119
51
1.3863029
0
ARC
8
DEFAULT_255_1_234
10
18.1011791
20
47.0177342
40
1.0682415
50
359.8090433
51
4.9407866
0
ARC
8
DEFAULT_255_1_234
10
18.5221805
20
47.0553113
40
0.6455691
50
4.8362157
51
12.2904523
0
ARC
8
DEFAULT_255_1_234
10
18.797692
20
47.1166965
40
0.3633074
50
12.0805627
51
23.8173984
0
ARC
8
DEFAULT_255_1_234
10
18.9150625
20
47.1663919
40
0.2358723
50
24.2871213
51
31.3935614
0
ARC
8
DEFAULT_255_1_234
10
18.9675322
20
47.2007233
40
0.1732111
50
30.7407893
51
82.4657128
0
ARC
8
DEFAULT_255_1_234
10
18.9495456
20
47.1123691
40
0.263235
50
81.1060089
51
90.2184952
0
ARC
8
DEFAULT_255_1_234
10
18.9459755
20
47.1381924
40
0.2374236
50
89.3806855
51
105.6762551
0
ARC
8
DEFAULT_255_1_234
10
18.9276386
20
47.2048567
40
0.1682847
50
105.7981136
51
149.7388061
0
ARC
8
DEFAULT_255_1_234
10
19.0340464
20
47.140895
40
0.2924306
50
149.4208916
51
163.6286378
0
ARC
8
DEFAULT_255_1_234
10
19.2431352
20
47.077125
40
0.5110213
50
163.3763315
51
172.1410975
0
ARC
8
DEFAULT_255_1_234
10
19.5732071
20
47.0298518
40
0.8444586
50
172.0259487
51
178.0703232
0
ARC
8
DEFAULT_255_1_234
10
19.8762161
20
47.0154906
40
1.1477868
50
177.8631668
51
179.5044149
0
ARC
8
DEFAULT_255_1_234
10
19.7689565
20
46.7840389
40
1.0404907
50
179.7995573
51
185.2460446
0
ARC
8
DEFAULT_255_1_234
10
19.3646604
20
46.7457513
40
0.6343885
50
185.1411642
51
193.0079639
0
ARC
8
DEFAULT_255_1_234
10
19.1003077
20
46.6832641
40
0.3627568
50
192.7897626
51
205.2507664
0
ARC
8
DEFAULT_255_1_234
10
18.9956624
20
46.6365415
40
0.2481908
50
205.8005384
51
211.2537509
0
ARC
8
DEFAULT_255_1_234
10
18.9433064
20
46.601458
40
0.1852521
50
210.3789793
51
238.4008143
0
ARC
8
DEFAULT_255_1_234
10
18.9413586
20
46.6061376
40
0.1882621
50
239.6520629
51
265.9793761
0
ARC
8
DEFAULT_255_1_234
10
18.9498787
20
46.6733427
40
0.2559272
50
265.1315437
51
270.060332
0
ARC
8
DEFAULT_255_1_234
10
18.9527565
20
46.6409534
40
0.2235528
50
269.3314664
51
287.2178029
0
ARC
8
DEFAULT_255_1_234
10
18.9665417
20
46.5906279
40
0.1714108
50
287.7958004
51
329.080874
0
ARC
8
DEFAULT_255_1_234
10
18.8707874
20
46.650393
40
0.2842745
50
328.6634704
51
343.3325132
0
ARC
8
DEFAULT_255_1_234
10
18.6534894
20
46.7180863
40
0.5118644
50
343.0499468
51
351.9393422
0
ARC
8
DEFAULT_255_1_234
10
18.3068194
20
46.7691949
40
0.8622784
50
351.8069023
51
357.7959224
0
ARC
8
DEFAULT_255_1_234
10
17.983275
20
46.7859721
40
1.1862365
50
357.5871873
51
359.2677531
0
LINE
8
DEFAULT_255_1_234
10
20.2416517
20
47.0037327
11
20.2416517
21
46.8109709
0
LINE
8
DEFAULT_255_1_234
10
19.5035349
20
46.7908916
11
19.5035349
21
46.9892755
0
LINE
8
DEFAULT_255_1_234
10
20.0930645
20
46.7708123
11
20.0930645
21
47.0141739
0
LINE
8
DEFAULT_255_1_234
10
19.6521221
20
47.0254184
11
19.6521221
21
46.7876789
0
ARC
8
DEFAULT_255_1_234
10
19.0169406
20
46.8060805
40
1.2247208
50
353.8441951
51
0.2287902
0
ARC
8
DEFAULT_255_1_234
10
19.480891
20
46.7542806
40
0.7578929
50
344.4934747
51
353.9765454
0
ARC
8
DEFAULT_255_1_234
10
19.78015
20
46.6691981
40
0.4467846
50
329.2803592
51
344.7472793
0
ARC
8
DEFAULT_255_1_234
10
19.8794325
20
46.6147018
40
0.3336173
50
324.9352394
51
328.6160465
0
ARC
8
DEFAULT_255_1_234
10
19.9171434
20
46.5883427
40
0.2876076
50
280.580143
51
324.9173126
0
ARC
8
DEFAULT_255_1_234
10
19.8770226
20
46.7554099
40
0.4592847
50
269.5977311
51
281.6734359
0
ARC
8
DEFAULT_255_1_234
10
19.8698132
20
46.7434173
40
0.4472986
50
256.6228859
51
270.51044
0
ARC
8
DEFAULT_255_1_234
10
19.829611
20
46.5885877
40
0.2873874
50
215.8618325
51
257.2788573
0
ARC
8
DEFAULT_255_1_234
10
19.9317141
20
46.6570977
40
0.4102928
50
197.9693508
51
215.2623606
0
ARC
8
DEFAULT_255_1_234
10
20.1802257
20
46.7409709
40
0.6725652
50
187.8816417
51
198.2346507
0
ARC
8
DEFAULT_255_1_234
10
20.5760465
20
46.7981079
40
1.0724845
50
180.8976217
51
188.0055519
0
ARC
8
DEFAULT_255_1_234
10
20.8560653
20
46.8084777
40
1.3526448
50
180.7449369
51
181.1510016
0
ARC
8
DEFAULT_255_1_234
10
20.6983382
20
46.9941042
40
1.1948131
50
173.7675579
51
180.231553
0
ARC
8
DEFAULT_255_1_234
10
20.2465529
20
47.0451666
40
0.7401564
50
164.3058563
51
173.9002247
0
ARC
8
DEFAULT_255_1_234
10
19.9553598
20
47.1290656
40
0.4371288
50
148.7922025
51
164.568378
0
ARC
8
DEFAULT_255_1_234
10
19.860205
20
47.1821929
40
0.3282386
50
144.5883898
51
148.1176286
0
ARC
8
DEFAULT_255_1_234
10
19.8258948
20
47.2061315
40
0.2864044
50
101.6440918
51
144.514236
0
ARC
8
DEFAULT_255_1_234
10
19.8684015
20
47.0372069
40
0.4604934
50
89.5284041
51
102.5819763
0
ARC
8
DEFAULT_255_1_234
10
19.8763102
20
47.0333018
40
0.464401
50
77.0437873
51
90.5081339
0
ARC
8
DEFAULT_255_1_234
10
19.9165104
20
47.1975615
40
0.2953195
50
48.2778575
51
77.4994676
0
ARC
8
DEFAULT_255_1_234
10
19.9237735
20
47.2104746
40
0.2808655
50
36.3142134
51
47.6305865
0
ARC
8
DEFAULT_255_1_234
10
19.8369042
20
47.1519515
40
0.3855453
50
18.2931786
51
35.6769206
0
ARC
8
DEFAULT_255_1_234
10
19.5825801
20
47.0646593
40
0.654423
50
8.024666
51
18.5605216
0
ARC
8
DEFAULT_255_1_234
10
19.1662721
20
47.0031792
40
1.0752407
50
1.1274072
51
8.1718305
0
ARC
8
DEFAULT_255_1_234
10
18.8426912
20
46.9904885
40
1.3990231
50
0.5424119
51
1.3863029
0
ARC
8
DEFAULT_255_1_234
10
19.024829
20
47.0177342
40
1.0682415
50
359.8090433
51
4.9407866
0
ARC
8
DEFAULT_255_1_234
10
19.4458304
20
47.0553113
40
0.6455691
50
4.8362157
51
12.2904523
0
ARC
8
DEFAULT_255_1_234
10
19.7213419
20
47.1166965
40
0.3633074
50
12.0805627
51
23.8173984
0
ARC
8
DEFAULT_255_1_234
10
19.8387124
20
47.1663919
40
0.2358723
50
24.2871213
51
31.3935614
0
ARC
8
DEFAULT_255_1_234
10
19.8911821
20
47.2007233
40
0.1732111
50
30.7407893
51
82.4657128
0
ARC
8
DEFAULT_255_1_234
10
19.8731955
20
47.1123691
40
0.263235
50
81.1060089
51
90.2184952
0
ARC
8
DEFAULT_255_1_234
10
19.8696254
20
47.1381924
40
0.2374236
50
89.3806855
51
105.6762551
0
ARC
8
DEFAULT_255_1_234
10
19.8512885
20
47.2048567
40
0.1682847
50
105.7981136
51
149.7388061
0
ARC
8
DEFAULT_255_1_234
10
19.9576963
20
47.140895
40
0.2924306
50
149.4208916
51
163.6286378
0
ARC
8
DEFAULT_255_1_234
10
20.1667851
20
47.077125
40
0.5110213
50
163.3763315
51
172.1410975
0
ARC
8
DEFAULT_255_1_234
10
20.496857
20
47.0298518
40
0.8444586
50
172.0259487
51
178.0703232
0
ARC
8
DEFAULT_255_1_234
10
20.799866
20
47.0154906
40
1.1477868
50
177.8631668
51
179.5044149
0
ARC
8
DEFAULT_255_1_234
10
20.6926064
20
46.7840389
40
1.0404907
50
179.7995573
51
185.2460446
0
ARC
8
DEFAULT_255_1_234
10
20.2883104
20
46.7457513
40
0.6343885
50
185.1411642
51
193.0079639
0
ARC
8
DEFAULT_255_1_234
10
20.0239576
20
46.6832641
40
0.3627568
50
192.7897626
51
205.2507664
0
ARC
8
DEFAULT_255_1_234
10
19.9193123
20
46.6365415
40
0.2481908
50
205.8005384
51
211.2537509
0
ARC
8
DEFAULT_255_1_234
10
19.8669564
20
46.601458
40
0.1852521
50
210.3789793
51
238.4008143
0
ARC
8
DEFAULT_255_1_234
10
19.8650085
20
46.6061376
40
0.1882621
50
239.6520629
51
265.9793761
0
ARC
8
DEFAULT_255_1_234
10
19.8735286
20
46.6733427
40
0.2559272
50
265.1315437
51
270.060332
0
ARC
8
DEFAULT_255_1_234
10
19.8764064
20
46.6409534
40
0.2235528
50
269.3314664
51
287.2178029
0
ARC
8
DEFAULT_255_1_234
10
19.8901916
20
46.5906279
40
0.1714108
50
287.7958004
51
329.080874
0
ARC
8
DEFAULT_255_1_234
10
19.7944373
20
46.650393
40
0.2842745
50
328.6634704
51
343.3325132
0
ARC
8
DEFAULT_255_1_234
10
19.5771393
20
46.7180863
40
0.5118644
50
343.0499468
51
351.9393422
0
ARC
8
DEFAULT_255_1_234
10
19.2304693
20
46.7691949
40
0.8622784
50
351.8069023
51
357.7959224
0
ARC
8
DEFAULT_255_1_234
10
18.9069249
20
46.7859721
40
1.1862365
50
357.5871873
51
359.2677531
0
LINE
8
DEFAULT_255_2_778
10
9.3932417
20
36.9093831
11
10.7161417
21
36.9093831
0
LINE
8
DEFAULT_255_2_778
10
10.7161417
20
36.9093831
11
10.7161417
21
23.6801831
0
LINE
8
DEFAULT_255_2_778
10
9.3932834
20
23.6802333
11
12.0390834
21
23.6802333
0
LINE
8
DEFAULT_255_2_778
10
12.0390834
20
23.6802333
11
12.0390834
21
18.3885333
0
LINE
8
DEFAULT_255_2_778
10
12.0390834
20
18.3885333
11
9.3932834
21
18.3885333
0
LINE
8
DEFAULT_255_2_778
10
9.3932834
20
18.3885333
11
9.3932834
21
23.6802333
0
ARC
8
DEFAULT_255_2_778_1
10
13.1931093
20
18.4904014
40
4.8170853
50
120.9433603
51
122.3507015
0
ARC
8
DEFAULT_255_2_778_1
10
12.7461038
20
19.1946847
40
3.9829221
50
122.3397244
51
124.1937515
0
ARC
8
DEFAULT_255_2_778_1
10
12.3065747
20
19.8406798
40
3.2015802
50
124.1846593
51
126.4326997
0
ARC
8
DEFAULT_255_2_778_1
10
11.9203674
20
20.3638048
40
2.5513373
50
126.4315193
51
128.8866284
0
ARC
8
DEFAULT_255_2_778_1
10
11.5855558
20
20.7782163
40
2.0185751
50
128.8737413
51
131.8715456
0
ARC
8
DEFAULT_255_2_778_1
10
11.288321
20
21.1093578
40
1.5735995
50
131.8602881
51
135.4159792
0
ARC
8
DEFAULT_255_2_778_1
10
11.0256267
20
21.367444
40
1.2053382
50
135.3881787
51
139.9675704
0
ARC
8
DEFAULT_255_2_778_1
10
10.7927929
20
21.5622514
40
0.9017578
50
139.9292361
51
145.9248399
0
ARC
8
DEFAULT_255_2_778_1
10
10.5965937
20
21.6943002
40
0.6652613
50
145.8774658
51
153.8137102
0
ARC
8
DEFAULT_255_2_778_1
10
10.4445289
20
21.7686584
40
0.4959902
50
153.7699933
51
164.3475994
0
ARC
8
DEFAULT_255_2_778_1
10
10.3431712
20
21.7968709
40
0.3907795
50
164.3211971
51
179.8086094
0
ARC
8
DEFAULT_255_2_778_1
10
10.364224
20
21.8050045
40
0.4118868
50
180.9498805
51
213.8115801
0
ARC
8
DEFAULT_255_2_778_1
10
10.6401277
20
21.9745791
40
0.7355981
50
212.8273456
51
224.258786
0
ARC
8
DEFAULT_255_2_778_1
10
11.0230021
20
22.3439447
40
1.2675939
50
224.1380843
51
231.4510938
0
ARC
8
DEFAULT_255_2_778_1
10
11.6656086
20
23.1468497
40
2.2959891
50
231.3959152
51
236.1261501
0
ARC
8
DEFAULT_255_2_778_1
10
13.4977386
20
25.8931226
40
5.5973037
50
236.2236313
51
239.1319841
0
ARC
8
DEFAULT_255_2_778_1
10
25.44793
20
45.6216296
40
28.6628078
50
238.8610976
51
239.0715198
0
ARC
8
DEFAULT_255_2_778_1
10
6.2759964
20
13.524401
40
8.7244052
50
57.2424849
51
59.4068306
0
ARC
8
DEFAULT_255_2_778_1
10
9.5034336
20
18.5550081
40
2.7475194
50
52.8293541
51
57.0795464
0
ARC
8
DEFAULT_255_2_778_1
10
10.2780944
20
19.5753614
40
1.4664186
50
46.3045833
51
52.860304
0
ARC
8
DEFAULT_255_2_778_1
10
10.7102649
20
20.0254451
40
0.8424453
50
36.2180257
51
46.4093296
0
ARC
8
DEFAULT_255_2_778_1
10
10.994804
20
20.2303061
40
0.4918506
50
17.4004011
51
36.5495579
0
ARC
8
DEFAULT_255_2_778_1
10
11.1088821
20
20.270164
40
0.3710943
50
0.067873
51
16.7952822
0
ARC
8
DEFAULT_255_2_778_1
10
11.0878458
20
20.2720332
40
0.3921328
50
343.8036427
51
359.7911248
0
ARC
8
DEFAULT_255_2_778_1
10
10.9815867
20
20.3025038
40
0.502674
50
333.2506199
51
343.8466729
0
ARC
8
DEFAULT_255_2_778_1
10
10.8277744
20
20.3792168
40
0.6745539
50
325.6600211
51
333.3122631
0
ARC
8
DEFAULT_255_2_778_1
10
10.6323392
20
20.5120073
40
0.9108335
50
319.7561437
51
325.6977425
0
ARC
8
DEFAULT_255_2_778_1
10
10.4042094
20
20.7037727
40
1.2088543
50
315.4577629
51
319.8038562
0
ARC
8
DEFAULT_255_2_778_1
10
10.1408322
20
20.9626077
40
1.578128
50
311.7299879
51
315.4672579
0
ARC
8
DEFAULT_255_2_778_1
10
9.8318145
20
21.3081549
40
2.0416949
50
308.7231184
51
311.7471999
0
ARC
8
DEFAULT_255_2_778_1
10
9.4777678
20
21.7491927
40
2.6072594
50
306.1164816
51
308.7302597
0
ARC
8
DEFAULT_255_2_778_1
10
9.0747329
20
22.3005635
40
3.2902284
50
303.9558771
51
306.1266851
0
ARC
8
DEFAULT_255_2_778_1
10
8.6627948
20
22.910378
40
4.0261398
50
302.373487
51
303.9711747
0
ARC
8
DEFAULT_255_2_778_1
10
8.243509
20
23.5713653
40
4.8088943
50
300.9435453
51
302.3758968
0
LINE
8
DEFAULT_255_2_778
10
10.7161417
20
18.3885831
11
10.7161417
21
5.1593831
0
LINE
8
DEFAULT_255_2_778
10
10.7161417
20
5.1593831
11
9.3932417
21
5.1593831
0
LINE
8
DEFAULT_255_1_234
10
4.9274119
20
44.4491792
11
4.9274119
21
44.3279
0
LINE
8
DEFAULT_255_1_234
10
4.9274119
20
44.3279
11
4.161184
21
44.3279
0
LINE
8
DEFAULT_255_1_234
10
4.161184
20
44.3279
11
4.161184
21
44.4347221
0
LINE
8
DEFAULT_255_1_234
10
4.161184
20
44.4347221
11
4.5659836
21
44.8844995
0
LINE
8
DEFAULT_255_1_234
10
4.2872823
20
45.1527595
11
4.1386952
21
45.1527595
0
LINE
8
DEFAULT_255_1_234
10
4.6535296
20
44.7889218
11
4.3402918
21
44.4491792
0
LINE
8
DEFAULT_255_1_234
10
4.3402918
20
44.4491792
11
4.9274119
21
44.4491792
0
ARC
8
DEFAULT_255_1_234
10
3.216967
20
46.0774527
40
1.8008286
50
318.5132453
51
320.7828378
0
ARC
8
DEFAULT_255_1_234
10
3.7456644
20
45.6471426
40
1.1191493
50
320.7372736
51
323.9737074
0
ARC
8
DEFAULT_255_1_234
10
4.1376501
20
45.3631361
40
0.6350923
50
323.8961724
51
328.6421089
0
ARC
8
DEFAULT_255_1_234
10
4.3423096
20
45.2369031
40
0.3946393
50
328.8299013
51
331.789948
0
ARC
8
DEFAULT_255_1_234
10
4.4420274
20
45.1854509
40
0.2824501
50
331.4255242
51
352.9364833
0
ARC
8
DEFAULT_255_1_234
10
4.4556775
20
45.1823976
40
0.2685315
50
353.2248685
51
0.0169286
0
ARC
8
DEFAULT_255_1_234
10
4.4766652
20
45.184695
40
0.2475536
50
359.4866256
51
15.9339782
0
ARC
8
DEFAULT_255_1_234
10
4.5273637
20
45.1983286
40
0.1950618
50
16.1714718
51
43.5284424
0
ARC
8
DEFAULT_255_1_234
10
4.5350946
20
45.2060573
40
0.184134
50
43.4415429
51
83.1661404
0
ARC
8
DEFAULT_255_1_234
10
4.5216864
20
45.1323771
40
0.258926
50
82.160215
51
90.1505798
0
ARC
8
DEFAULT_255_1_234
10
4.5185291
20
45.0786865
40
0.3126255
50
89.5460705
51
102.5418777
0
ARC
8
DEFAULT_255_1_234
10
4.4942377
20
45.1817665
40
0.2067346
50
102.1739365
51
129.2061916
0
ARC
8
DEFAULT_255_1_234
10
4.4863449
20
45.1942094
40
0.1921118
50
129.7279328
51
135.7542026
0
ARC
8
DEFAULT_255_1_234
10
4.4984977
20
45.1845045
40
0.2075944
50
136.175737
51
166.3674722
0
ARC
8
DEFAULT_255_1_234
10
4.5991896
20
45.1575182
40
0.3118201
50
165.9092917
51
178.8683903
0
ARC
8
DEFAULT_255_1_234
10
4.6856757
20
45.1528179
40
0.3983935
50
178.438168
51
180.0083905
0
ARC
8
DEFAULT_255_1_234
10
4.5455359
20
45.1567231
40
0.4068601
50
163.2878735
51
180.5581814
0
ARC
8
DEFAULT_255_1_234
10
4.4653621
20
45.178784
40
0.3237344
50
133.454115
51
162.9470031
0
ARC
8
DEFAULT_255_1_234
10
4.4832162
20
45.1598
40
0.349795
50
100.7869394
51
133.4384016
0
ARC
8
DEFAULT_255_1_234
10
4.5179934
20
45.0049319
40
0.5084616
50
89.6605301
51
101.3704185
0
ARC
8
DEFAULT_255_1_234
10
4.5246273
20
45.0110496
40
0.502348
50
78.2171172
51
90.4130393
0
ARC
8
DEFAULT_255_1_234
10
4.5601351
20
45.1734637
40
0.3361092
50
55.9268222
51
78.4888551
0
ARC
8
DEFAULT_255_1_234
10
4.5797791
20
45.2073324
40
0.2970617
50
47.9292255
51
55.4054003
0
ARC
8
DEFAULT_255_1_234
10
4.5899352
20
45.2176502
40
0.2825983
50
4.3347696
51
48.0560701
0
ARC
8
DEFAULT_255_1_234
10
4.4803745
20
45.2006601
40
0.393225
50
359.925209
51
5.5967654
0
ARC
8
DEFAULT_255_1_234
10
4.5232637
20
45.2062816
40
0.3503892
50
337.8914096
51
358.9967724
0
ARC
8
DEFAULT_255_1_234
10
4.2519049
20
45.3109706
40
0.6412172
50
326.9135351
51
338.3505194
0
ARC
8
DEFAULT_255_1_234
10
3.8533353
20
45.5664284
40
1.1146189
50
319.6472867
51
327.095818
0
ARC
8
DEFAULT_255_1_234
10
3.4700356
20
45.8826
40
1.6114559
50
317.2586784
51
319.9046139
0
LINE
8
DEFAULT_255_1_234
10
5.7121127
20
45.4973211
11
5.7121127
21
44.720652
0
LINE
8
DEFAULT_255_1_234
10
5.7121127
20
44.720652
11
5.8743538
21
44.720652
0
LINE
8
DEFAULT_255_1_234
10
5.8743538
20
44.720652
11
5.8743538
21
44.5993728
0
LINE
8
DEFAULT_255_1_234
10
5.8743538
20
44.5993728
11
5.7121127
21
44.5993728
0
LINE
8
DEFAULT_255_1_234
10
5.7121127
20
44.5993728
11
5.7121127
21
44.3279
0
LINE
8
DEFAULT_255_1_234
10
5.7121127
20
44.3279
11
5.5627224
21
44.3279
0
LINE
8
DEFAULT_255_1_234
10
5.5627224
20
44.3279
11
5.5627224
21
44.5993728
0
LINE
8
DEFAULT_255_1_234
10
5.5627224
20
44.5993728
11
5.0302181
21
44.5993728
0
LINE
8
DEFAULT_255_1_234
10
5.0302181
20
44.5993728
11
5.0302181
21
44.6869187
0
LINE
8
DEFAULT_255_1_234
10
5.0302181
20
44.6869187
11
5.5538875
21
45.4973211
0
LINE
8
DEFAULT_255_1_234
10
5.5538875
20
45.4973211
11
5.7121127
21
45.4973211
0
LINE
8
DEFAULT_255_1_234
10
5.5450525
20
45.2619912
11
5.1988846
21
44.720652
0
LINE
8
DEFAULT_255_1_234
10
5.1988846
20
44.720652
11
5.5627224
21
44.720652
0
LINE
8
DEFAULT_255_1_234
10
5.5627224
20
44.720652
11
5.5627224
21
45.2941181
0
LINE
8
DEFAULT_255_1_234
10
5.5627224
20
45.2941181
11
5.5450525
21
45.2619912
0
LINE
8
DEFAULT_255_1_234
10
6.101652
20
45.4973211
11
6.434166
21
44.5327093
0
LINE
8
DEFAULT_255_1_234
10
6.434166
20
44.5327093
11
6.7682863
21
45.4973211
0
LINE
8
DEFAULT_255_1_234
10
6.7682863
20
45.4973211
11
6.9369528
21
45.4973211
0
LINE
8
DEFAULT_255_1_234
10
6.9369528
20
45.4973211
11
6.5032389
21
44.3279
0
LINE
8
DEFAULT_255_1_234
10
6.5032389
20
44.3279
11
6.3666994
21
44.3279
0
LINE
8
DEFAULT_255_1_234
10
6.3666994
20
44.3279
11
5.9337887
21
45.4973211
0
LINE
8
DEFAULT_255_1_234
10
5.9337887
20
45.4973211
11
6.101652
21
45.4973211
0
LINE
8
DEFAULT_255_1_234
10
4.2857902
20
5.8098211
11
4.2857902
21
4.6404
0
LINE
8
DEFAULT_255_1_234
10
4.2857902
20
4.6404
11
4.1315808
21
4.6404
0
LINE
8
DEFAULT_255_1_234
10
4.1315808
20
4.6404
11
4.1315808
21
5.8098211
0
LINE
8
DEFAULT_255_1_234
10
4.1315808
20
5.8098211
11
4.2857902
21
5.8098211
0
LINE
8
DEFAULT_255_1_234
10
5.1564306
20
5.8098211
11
5.1564306
21
5.033152
0
LINE
8
DEFAULT_255_1_234
10
5.1564306
20
5.033152
11
5.3186717
21
5.033152
0
LINE
8
DEFAULT_255_1_234
10
5.3186717
20
5.033152
11
5.3186717
21
4.9118728
0
LINE
8
DEFAULT_255_1_234
10
5.3186717
20
4.9118728
11
5.1564306
21
4.9118728
0
LINE
8
DEFAULT_255_1_234
10
5.1564306
20
4.9118728
11
5.1564306
21
4.6404
0
LINE
8
DEFAULT_255_1_234
10
5.1564306
20
4.6404
11
5.0070403
21
4.6404
0
LINE
8
DEFAULT_255_1_234
10
5.0070403
20
4.6404
11
5.0070403
21
4.9118728
0
LINE
8
DEFAULT_255_1_234
10
5.0070403
20
4.9118728
11
4.474536
21
4.9118728
0
LINE
8
DEFAULT_255_1_234
10
4.474536
20
4.9118728
11
4.474536
21
4.9994187
0
LINE
8
DEFAULT_255_1_234
10
4.474536
20
4.9994187
11
4.9982054
21
5.8098211
0
LINE
8
DEFAULT_255_1_234
10
4.9982054
20
5.8098211
11
5.1564306
21
5.8098211
0
LINE
8
DEFAULT_255_1_234
10
4.9893705
20
5.5744912
11
4.6432025
21
5.033152
0
LINE
8
DEFAULT_255_1_234
10
4.6432025
20
5.033152
11
5.0070403
21
5.033152
0
LINE
8
DEFAULT_255_1_234
10
5.0070403
20
5.033152
11
5.0070403
21
5.6066181
0
LINE
8
DEFAULT_255_1_234
10
5.0070403
20
5.6066181
11
4.9893705
21
5.5744912
0
LINE
8
DEFAULT_255_1_234
10
5.8937442
20
5.6090276
11
5.8937442
21
5.2676788
0
LINE
8
DEFAULT_255_1_234
10
5.8937442
20
5.2676788
11
6.2198328
21
5.2676788
0
LINE
8
DEFAULT_255_1_234
10
6.2198328
20
5.2676788
11
6.2198328
21
5.1271233
0
LINE
8
DEFAULT_255_1_234
10
6.2198328
20
5.1271233
11
5.8937442
21
5.1271233
0
LINE
8
DEFAULT_255_1_234
10
5.8937442
20
5.1271233
11
5.8937442
21
4.7576634
0
LINE
8
DEFAULT_255_1_234
10
5.8937442
20
4.7576634
11
5.7443539
21
4.7576634
0
LINE
8
DEFAULT_255_1_234
10
5.7443539
20
4.7576634
11
5.7443539
21
5.1271233
0
LINE
8
DEFAULT_255_1_234
10
5.7443539
20
5.1271233
11
5.4182653
21
5.1271233
0
LINE
8
DEFAULT_255_1_234
10
5.4182653
20
5.1271233
11
5.4182653
21
5.2676788
0
LINE
8
DEFAULT_255_1_234
10
5.4182653
20
5.2676788
11
5.7443539
21
5.2676788
0
LINE
8
DEFAULT_255_1_234
10
5.7443539
20
5.2676788
11
5.7443539
21
5.6090276
0
LINE
8
DEFAULT_255_1_234
10
5.7443539
20
5.6090276
11
5.8937442
21
5.6090276
0
LINE
8
DEFAULT_255_1_234
10
4.2857902
20
13.7473211
11
4.2857902
21
12.5779
0
LINE
8
DEFAULT_255_1_234
10
4.2857902
20
12.5779
11
4.1315808
21
12.5779
0
LINE
8
DEFAULT_255_1_234
10
4.1315808
20
12.5779
11
4.1315808
21
13.7473211
0
LINE
8
DEFAULT_255_1_234
10
4.1315808
20
13.7473211
11
4.2857902
21
13.7473211
0
LINE
8
DEFAULT_255_1_234
10
4.7452056
20
13.1136169
11
4.7452056
21
13.2348962
0
LINE
8
DEFAULT_255_1_234
10
4.7452056
20
13.2348962
11
4.8568468
21
13.2348962
0
LINE
8
DEFAULT_255_1_234
10
4.6664946
20
13.4405087
11
4.5179074
21
13.4405087
0
LINE
8
DEFAULT_255_1_234
10
4.5074662
20
12.8863188
11
4.6568565
21
12.8863188
0
LINE
8
DEFAULT_255_1_234
10
4.8568468
20
13.1136169
11
4.7452056
21
13.1136169
0
ARC
8
DEFAULT_255_1_234
10
4.8539334
20
13.5741713
40
0.3392876
50
270.4919872
51
281.8951556
0
ARC
8
DEFAULT_255_1_234
10
4.8780596
20
13.4639702
40
0.2264817
50
281.6691735
51
301.2943132
0
ARC
8
DEFAULT_255_1_234
10
4.8950806
20
13.4328304
40
0.1910381
50
301.7833094
51
311.7545298
0
ARC
8
DEFAULT_255_1_234
10
4.9042382
20
13.4226748
40
0.1773635
50
311.7323931
51
354.2802411
0
ARC
8
DEFAULT_255_1_234
10
4.8316007
20
13.4351722
40
0.2509385
50
353.0937916
51
0.1181479
0
ARC
8
DEFAULT_255_1_234
10
4.7854792
20
13.4399386
40
0.2970898
50
359.1805295
51
15.0453146
0
ARC
8
DEFAULT_255_1_234
10
4.9200629
20
13.4791992
40
0.1569564
50
13.9577229
51
77.6713066
0
ARC
8
DEFAULT_255_1_234
10
4.8814158
20
13.3406949
40
0.3006298
50
76.1116566
51
90.7026153
0
ARC
8
DEFAULT_255_1_234
10
4.8754996
20
13.3680545
40
0.2732568
50
89.5324876
51
103.531937
0
ARC
8
DEFAULT_255_1_234
10
4.8554441
20
13.4479884
40
0.1908508
50
103.2931773
51
133.5619022
0
ARC
8
DEFAULT_255_1_234
10
4.8509929
20
13.4539375
40
0.1834746
50
133.8349307
51
173.5344437
0
ARC
8
DEFAULT_255_1_234
10
4.9232972
20
13.4411213
40
0.2568033
50
172.5096846
51
180.1366907
0
ARC
8
DEFAULT_255_1_234
10
4.8281866
20
13.4445622
40
0.3103056
50
155.3484492
51
180.7484736
0
ARC
8
DEFAULT_255_1_234
10
4.8232955
20
13.4416846
40
0.3070957
50
131.5744599
51
154.4798489
0
ARC
8
DEFAULT_255_1_234
10
4.8546102
20
13.410031
40
0.3515643
50
96.9875458
51
131.9690667
0
ARC
8
DEFAULT_255_1_234
10
4.8765582
20
13.2854636
40
0.4779224
50
89.8596053
51
97.7825159
0
ARC
8
DEFAULT_255_1_234
10
4.8813645
20
13.2592616
40
0.5041361
50
78.3655447
51
90.4131539
0
ARC
8
DEFAULT_255_1_234
10
4.9171563
20
13.4251887
40
0.3344039
50
56.6229102
51
78.638727
0
ARC
8
DEFAULT_255_1_234
10
4.9386507
20
13.4627805
40
0.2912001
50
47.0253525
51
56.0854072
0
ARC
8
DEFAULT_255_1_234
10
4.9406287
20
13.4667223
40
0.2869704
50
10.9208013
51
46.7778124
0
ARC
8
DEFAULT_255_1_234
10
4.8042354
20
13.4351857
40
0.426899
50
359.6364486
51
11.6087304
0
ARC
8
DEFAULT_255_1_234
10
4.9877198
20
13.4336752
40
0.243409
50
332.3549906
51
359.7179418
0
ARC
8
DEFAULT_255_1_234
10
4.9226799
20
13.4645142
40
0.3153459
50
325.2333722
51
332.8745602
0
ARC
8
DEFAULT_255_1_234
10
4.9379423
20
13.4538828
40
0.2967456
50
292.9802137
51
325.2392345
0
ARC
8
DEFAULT_255_1_234
10
4.9104797
20
13.5072863
40
0.3566604
50
292.5402179
51
293.6924929
0
ARC
8
DEFAULT_255_1_234
10
4.9497393
20
12.8618091
40
0.3307468
50
57.6435486
51
72.8625112
0
ARC
8
DEFAULT_255_1_234
10
4.9851892
20
12.9192549
40
0.2632492
50
36.7248896
51
57.4697979
0
ARC
8
DEFAULT_255_1_234
10
4.9840525
20
12.920522
40
0.2634081
50
8.0545065
51
36.356114
0
ARC
8
DEFAULT_255_1_234
10
4.897771
20
12.9050174
40
0.3510261
50
359.8320645
51
8.5869982
0
ARC
8
DEFAULT_255_1_234
10
4.8602486
20
12.9002101
40
0.3885653
50
343.9829931
51
0.5571613
0
ARC
8
DEFAULT_255_1_234
10
4.9488684
20
12.8759438
40
0.2966924
50
311.6359546
51
343.7651759
0
ARC
8
DEFAULT_255_1_234
10
4.9110253
20
12.9186102
40
0.3537231
50
279.7829875
51
311.6255694
0
ARC
8
DEFAULT_255_1_234
10
4.8809029
20
13.062328
40
0.5004971
50
269.7286406
51
280.3856417
0
ARC
8
DEFAULT_255_1_234
10
4.8747102
20
13.0581996
40
0.4963778
50
256.6828919
51
270.4412052
0
ARC
8
DEFAULT_255_1_234
10
4.8408397
20
12.9197394
40
0.3538406
50
229.4223008
51
256.8556159
0
ARC
8
DEFAULT_255_1_234
10
4.799379
20
12.8730736
40
0.2914296
50
181.818294
51
229.6455059
0
ARC
8
DEFAULT_255_1_234
10
4.9033746
20
12.8861496
40
0.3959084
50
179.9755256
51
183.2323064
0
ARC
8
DEFAULT_255_1_234
10
4.8861492
20
12.8841037
40
0.2293034
50
179.4465117
51
196.2869258
0
ARC
8
DEFAULT_255_1_234
10
4.83739
20
12.8707651
40
0.1787621
50
196.5661473
51
227.705904
0
ARC
8
DEFAULT_255_1_234
10
4.8537995
20
12.8891155
40
0.2033784
50
227.7652068
51
257.8762805
0
ARC
8
DEFAULT_255_1_234
10
4.8762965
20
12.9834156
40
0.3003081
50
257.4584385
51
270.426602
0
ARC
8
DEFAULT_255_1_234
10
4.8808531
20
13.0123996
40
0.329292
50
269.5962073
51
280.8789248
0
ARC
8
DEFAULT_255_1_234
10
4.903806
20
12.8977685
40
0.2123908
50
280.6346389
51
299.8595945
0
ARC
8
DEFAULT_255_1_234
10
4.9228967
20
12.8615212
40
0.171457
50
300.3576302
51
314.5517981
0
ARC
8
DEFAULT_255_1_234
10
4.9146027
20
12.8675919
40
0.1816095
50
315.0728369
51
345.0431014
0
ARC
8
DEFAULT_255_1_234
10
4.8222841
20
12.8944841
40
0.2777492
50
344.5986631
51
357.9269593
0
ARC
8
DEFAULT_255_1_234
10
4.7327168
20
12.9006276
40
0.3674917
50
357.4748886
51
0.0231117
0
ARC
8
DEFAULT_255_1_234
10
4.8350277
20
12.9030679
40
0.2651907
50
359.5047933
51
13.4239635
0
ARC
8
DEFAULT_255_1_234
10
4.9216921
20
12.9252478
40
0.1757509
50
12.9498199
51
48.7551375
0
ARC
8
DEFAULT_255_1_234
10
4.9034655
20
12.90034
40
0.2065134
50
49.5088623
51
72.1836453
0
ARC
8
DEFAULT_255_1_234
10
4.8676807
20
12.7941291
40
0.3185836
50
71.9010081
51
84.3554254
0
ARC
8
DEFAULT_255_1_234
10
4.8515439
20
12.6580326
40
0.4556151
50
84.0193428
51
89.333121
0
LINE
8
DEFAULT_255_1_234
10
5.8937442
20
13.5465276
11
5.8937442
21
13.2051788
0
LINE
8
DEFAULT_255_1_234
10
5.8937442
20
13.2051788
11
6.2198328
21
13.2051788
0
LINE
8
DEFAULT_255_1_234
10
6.2198328
20
13.2051788
11
6.2198328
21
13.0646233
0
LINE
8
DEFAULT_255_1_234
10
6.2198328
20
13.0646233
11
5.8937442
21
13.0646233
0
LINE
8
DEFAULT_255_1_234
10
5.8937442
20
13.0646233
11
5.8937442
21
12.6951634
0
LINE
8
DEFAULT_255_1_234
10
5.8937442
20
12.6951634
11
5.7443539
21
12.6951634
0
LINE
8
DEFAULT_255_1_234
10
5.7443539
20
12.6951634
11
5.7443539
21
13.0646233
0
LINE
8
DEFAULT_255_1_234
10
5.7443539
20
13.0646233
11
5.4182653
21
13.0646233
0
LINE
8
DEFAULT_255_1_234
10
5.4182653
20
13.0646233
11
5.4182653
21
13.2051788
0
LINE
8
DEFAULT_255_1_234
10
5.4182653
20
13.2051788
11
5.7443539
21
13.2051788
0
LINE
8
DEFAULT_255_1_234
10
5.7443539
20
13.2051788
11
5.7443539
21
13.5465276
0
LINE
8
DEFAULT_255_1_234
10
5.7443539
20
13.5465276
11
5.8937442
21
13.5465276
0
LINE
8
DEFAULT_255_1_234
10
4.2857902
20
21.6848211
11
4.2857902
21
20.5154
0
LINE
8
DEFAULT_255_1_234
10
4.2857902
20
20.5154
11
4.1315808
21
20.5154
0
LINE
8
DEFAULT_255_1_234
10
4.1315808
20
20.5154
11
4.1315808
21
21.6848211
0
LINE
8
DEFAULT_255_1_234
10
4.1315808
20
21.6848211
11
4.2857902
21
21.6848211
0
LINE
8
DEFAULT_255_1_234
10
5.2953797
20
20.6366792
11
5.2953797
21
20.5154
0
LINE
8
DEFAULT_255_1_234
10
5.2953797
20
20.5154
11
4.5291519
21
20.5154
0
LINE
8
DEFAULT_255_1_234
10
4.5291519
20
20.5154
11
4.5291519
21
20.6222221
0
LINE
8
DEFAULT_255_1_234
10
4.5291519
20
20.6222221
11
4.9339515
21
21.0719995
0
LINE
8
DEFAULT_255_1_234
10
4.6552501
20
21.3402595
11
4.506663
21
21.3402595
0
LINE
8
DEFAULT_255_1_234
10
5.0214974
20
20.9764218
11
4.7082596
21
20.6366792
0
LINE
8
DEFAULT_255_1_234
10
4.7082596
20
20.6366792
11
5.2953797
21
20.6366792
0
ARC
8
DEFAULT_255_1_234
10
3.5849348
20
22.2649527
40
1.8008286
50
318.5132453
51
320.7828378
0
ARC
8
DEFAULT_255_1_234
10
4.1136322
20
21.8346426
40
1.1191493
50
320.7372736
51
323.9737074
0
ARC
8
DEFAULT_255_1_234
10
4.5056179
20
21.5506361
40
0.6350923
50
323.8961724
51
328.6421089
0
ARC
8
DEFAULT_255_1_234
10
4.7102774
20
21.4244031
40
0.3946393
50
328.8299013
51
331.789948
0
ARC
8
DEFAULT_255_1_234
10
4.8099953
20
21.3729509
40
0.2824501
50
331.4255242
51
352.9364833
0
ARC
8
DEFAULT_255_1_234
10
4.8236453
20
21.3698976
40
0.2685315
50
353.2248685
51
0.0169286
0
ARC
8
DEFAULT_255_1_234
10
4.844633
20
21.372195
40
0.2475536
50
359.4866256
51
15.9339782
0
ARC
8
DEFAULT_255_1_234
10
4.8953316
20
21.3858286
40
0.1950618
50
16.1714718
51
43.5284424
0
ARC
8
DEFAULT_255_1_234
10
4.9030624
20
21.3935573
40
0.184134
50
43.4415429
51
83.1661404
0
ARC
8
DEFAULT_255_1_234
10
4.8896542
20
21.3198771
40
0.258926
50
82.160215
51
90.1505798
0
ARC
8
DEFAULT_255_1_234
10
4.886497
20
21.2661865
40
0.3126255
50
89.5460705
51
102.5418777
0
ARC
8
DEFAULT_255_1_234
10
4.8622056
20
21.3692665
40
0.2067346
50
102.1739365
51
129.2061916
0
ARC
8
DEFAULT_255_1_234
10
4.8543127
20
21.3817094
40
0.1921118
50
129.7279328
51
135.7542026
0
ARC
8
DEFAULT_255_1_234
10
4.8664655
20
21.3720045
40
0.2075944
50
136.175737
51
166.3674722
0
ARC
8
DEFAULT_255_1_234
10
4.9671574
20
21.3450182
40
0.3118201
50
165.9092917
51
178.8683903
0
ARC
8
DEFAULT_255_1_234
10
5.0536436
20
21.3403179
40
0.3983935
50
178.438168
51
180.0083905
0
ARC
8
DEFAULT_255_1_234
10
4.9135038
20
21.3442231
40
0.4068601
50
163.2878735
51
180.5581814
0
ARC
8
DEFAULT_255_1_234
10
4.8333299
20
21.366284
40
0.3237344
50
133.454115
51
162.9470031
0
ARC
8
DEFAULT_255_1_234
10
4.8511841
20
21.3473
40
0.349795
50
100.7869394
51
133.4384016
0
ARC
8
DEFAULT_255_1_234
10
4.8859612
20
21.1924319
40
0.5084616
50
89.6605301
51
101.3704185
0
ARC
8
DEFAULT_255_1_234
10
4.8925951
20
21.1985496
40
0.502348
50
78.2171172
51
90.4130393
0
ARC
8
DEFAULT_255_1_234
10
4.9281029
20
21.3609637
40
0.3361092
50
55.9268222
51
78.4888551
0
ARC
8
DEFAULT_255_1_234
10
4.9477469
20
21.3948324
40
0.2970617
50
47.9292255
51
55.4054003
0
ARC
8
DEFAULT_255_1_234
10
4.957903
20
21.4051502
40
0.2825983
50
4.3347696
51
48.0560701
0
ARC
8
DEFAULT_255_1_234
10
4.8483424
20
21.3881601
40
0.393225
50
359.925209
51
5.5967654
0
ARC
8
DEFAULT_255_1_234
10
4.8912315
20
21.3937816
40
0.3503892
50
337.8914096
51
358.9967724
0
ARC
8
DEFAULT_255_1_234
10
4.6198727
20
21.4984706
40
0.6412172
50
326.9135351
51
338.3505194
0
ARC
8
DEFAULT_255_1_234
10
4.2213031
20
21.7539284
40
1.1146189
50
319.6472867
51
327.095818
0
ARC
8
DEFAULT_255_1_234
10
3.8380034
20
22.0701
40
1.6114559
50
317.2586784
51
319.9046139
0
LINE
8
DEFAULT_255_1_234
10
5.8937442
20
21.4840276
11
5.8937442
21
21.1426788
0
LINE
8
DEFAULT_255_1_234
10
5.8937442
20
21.1426788
11
6.2198328
21
21.1426788
0
LINE
8
DEFAULT_255_1_234
10
6.2198328
20
21.1426788
11
6.2198328
21
21.0021233
0
LINE
8
DEFAULT_255_1_234
10
6.2198328
20
21.0021233
11
5.8937442
21
21.0021233
0
LINE
8
DEFAULT_255_1_234
10
5.8937442
20
21.0021233
11
5.8937442
21
20.6326634
0
LINE
8
DEFAULT_255_1_234
10
5.8937442
20
20.6326634
11
5.7443539
21
20.6326634
0
LINE
8
DEFAULT_255_1_234
10
5.7443539
20
20.6326634
11
5.7443539
21
21.0021233
0
LINE
8
DEFAULT_255_1_234
10
5.7443539
20
21.0021233
11
5.4182653
21
21.0021233
0
LINE
8
DEFAULT_255_1_234
10
5.4182653
20
21.0021233
11
5.4182653
21
21.1426788
0
LINE
8
DEFAULT_255_1_234
10
5.4182653
20
21.1426788
11
5.7443539
21
21.1426788
0
LINE
8
DEFAULT_255_1_234
10
5.7443539
20
21.1426788
11
5.7443539
21
21.4840276
0
LINE
8
DEFAULT_255_1_234
10
5.7443539
20
21.4840276
11
5.8937442
21
21.4840276
0
LINE
8
DEFAULT_255_1_234
10
4.2857902
20
29.6223211
11
4.2857902
21
28.4529
0
LINE
8
DEFAULT_255_1_234
10
4.2857902
20
28.4529
11
4.1315808
21
28.4529
0
LINE
8
DEFAULT_255_1_234
10
4.1315808
20
28.4529
11
4.1315808
21
29.6223211
0
LINE
8
DEFAULT_255_1_234
10
4.1315808
20
29.6223211
11
4.2857902
21
29.6223211
0
LINE
8
DEFAULT_255_1_234
10
5.0174815
20
29.6279433
11
5.0174815
21
28.4529
0
LINE
8
DEFAULT_255_1_234
10
5.0174815
20
28.4529
11
4.8680912
21
28.4529
0
LINE
8
DEFAULT_255_1_234
10
4.8680912
20
28.4529
11
4.8680912
21
29.4432133
0
LINE
8
DEFAULT_255_1_234
10
4.8680912
20
29.4432133
11
4.5685074
21
29.3331785
0
LINE
8
DEFAULT_255_1_234
10
4.5685074
20
29.3331785
11
4.5685074
21
29.4681117
0
LINE
8
DEFAULT_255_1_234
10
4.5685074
20
29.4681117
11
4.9941895
21
29.6279433
0
LINE
8
DEFAULT_255_1_234
10
4.9941895
20
29.6279433
11
5.0174815
21
29.6279433
0
LINE
8
DEFAULT_255_1_234
10
5.8937442
20
29.4215276
11
5.8937442
21
29.0801788
0
LINE
8
DEFAULT_255_1_234
10
5.8937442
20
29.0801788
11
6.2198328
21
29.0801788
0
LINE
8
DEFAULT_255_1_234
10
6.2198328
20
29.0801788
11
6.2198328
21
28.9396233
0
LINE
8
DEFAULT_255_1_234
10
6.2198328
20
28.9396233
11
5.8937442
21
28.9396233
0
LINE
8
DEFAULT_255_1_234
10
5.8937442
20
28.9396233
11
5.8937442
21
28.5701634
0
LINE
8
DEFAULT_255_1_234
10
5.8937442
20
28.5701634
11
5.7443539
21
28.5701634
0
LINE
8
DEFAULT_255_1_234
10
5.7443539
20
28.5701634
11
5.7443539
21
28.9396233
0
LINE
8
DEFAULT_255_1_234
10
5.7443539
20
28.9396233
11
5.4182653
21
28.9396233
0
LINE
8
DEFAULT_255_1_234
10
5.4182653
20
28.9396233
11
5.4182653
21
29.0801788
0
LINE
8
DEFAULT_255_1_234
10
5.4182653
20
29.0801788
11
5.7443539
21
29.0801788
0
LINE
8
DEFAULT_255_1_234
10
5.7443539
20
29.0801788
11
5.7443539
21
29.4215276
0
LINE
8
DEFAULT_255_1_234
10
5.7443539
20
29.4215276
11
5.8937442
21
29.4215276
0
LINE
8
DEFAULT_255_1_234
10
4.943923
20
36.7614663
11
5.0989355
21
36.7614663
0
LINE
8
DEFAULT_255_1_234
10
4.1985777
20
36.9204947
11
4.1985777
21
37.0329391
0
LINE
8
DEFAULT_255_1_234
10
5.0989355
20
37.1839357
11
4.943923
21
37.1839357
0
LINE
8
DEFAULT_255_1_234
10
4.3535902
20
37.0289232
11
4.3535902
21
36.9156757
0
ARC
8
DEFAULT_255_1_234
10
4.5508742
20
36.8211846
40
0.5513052
50
340.1774281
51
353.7814284
0
ARC
8
DEFAULT_255_1_234
10
4.7080095
20
36.7626582
40
0.3836379
50
311.4558989
51
340.4421614
0
ARC
8
DEFAULT_255_1_234
10
4.7046763
20
36.7737528
40
0.3941894
50
282.4333181
51
310.7513653
0
ARC
8
DEFAULT_255_1_234
10
4.6607502
20
36.9552679
40
0.5809175
50
269.9358511
51
282.809604
0
ARC
8
DEFAULT_255_1_234
10
4.6555568
20
37.1010212
40
0.7266847
50
270.0021091
51
270.3581957
0
ARC
8
DEFAULT_255_1_234
10
4.6502985
20
36.8409585
40
0.4666519
50
250.7884749
51
270.6489167
0
ARC
8
DEFAULT_255_1_234
10
4.633482
20
36.7772319
40
0.4009729
50
219.3627325
51
250.0611886
0
ARC
8
DEFAULT_255_1_234
10
4.7164031
20
36.8477042
40
0.5097822
50
193.5479632
51
219.5756669
0
ARC
8
DEFAULT_255_1_234
10
4.9535652
20
36.9092919
40
0.7547848
50
181.1218675
51
193.87563
0
ARC
8
DEFAULT_255_1_234
10
5.1605833
20
36.920358
40
0.9620055
50
179.9918545
51
181.5394234
0
ARC
8
DEFAULT_255_1_234
10
4.9754935
20
37.0366788
40
0.7769248
50
169.5837241
51
180.2757934
0
ARC
8
DEFAULT_255_1_234
10
4.7917873
20
37.0706229
40
0.590109
50
155.0365899
51
169.6003176
0
ARC
8
DEFAULT_255_1_234
10
4.6782337
20
37.1253677
40
0.4640625
50
136.783148
51
155.2472683
0
ARC
8
DEFAULT_255_1_234
10
4.6392814
20
37.1584562
40
0.4130255
50
121.7633186
51
136.428115
0
ARC
8
DEFAULT_255_1_234
10
4.6527776
20
37.1335227
40
0.4413323
50
95.6459699
51
121.5490577
0
ARC
8
DEFAULT_255_1_234
10
4.6685058
20
37.0226949
40
0.55319
50
89.924208
51
96.1377933
0
ARC
8
DEFAULT_255_1_234
10
4.6735491
20
37.0345542
40
0.5413475
50
76.6779277
51
90.4563316
0
ARC
8
DEFAULT_255_1_234
10
4.7129114
20
37.1936114
40
0.3775041
50
47.485847
51
76.9287264
0
ARC
8
DEFAULT_255_1_234
10
4.6982087
20
37.1836159
40
0.3948286
50
16.5424086
51
46.8933463
0
ARC
8
DEFAULT_255_1_234
10
4.5374244
20
37.1307861
40
0.564021
50
5.4072051
51
17.0365086
0
ARC
8
DEFAULT_255_1_234
10
4.3935261
20
37.1076679
40
0.5556559
50
7.8891745
51
15.9239216
0
ARC
8
DEFAULT_255_1_234
10
4.5922274
20
37.1653631
40
0.3487515
50
15.7653144
51
27.9410532
0
ARC
8
DEFAULT_255_1_234
10
4.7026492
20
37.224479
40
0.2235026
50
27.8166557
51
46.4008329
0
ARC
8
DEFAULT_255_1_234
10
4.7076135
20
37.2239082
40
0.2205286
50
47.4371857
51
75.0698205
0
ARC
8
DEFAULT_255_1_234
10
4.6767529
20
37.1164765
40
0.3322915
50
74.7008593
51
87.8124495
0
ARC
8
DEFAULT_255_1_234
10
4.6694217
20
37.0108844
40
0.4380987
50
87.3814673
51
90.0240855
0
ARC
8
DEFAULT_255_1_234
10
4.665576
20
37.1286291
40
0.3203749
50
89.3451631
51
108.5745436
0
ARC
8
DEFAULT_255_1_234
10
4.6518865
20
37.1799908
40
0.2673494
50
109.2998449
51
143.3037509
0
ARC
8
DEFAULT_255_1_234
10
4.7280938
20
37.1213881
40
0.3634757
50
143.0753173
51
163.1916937
0
ARC
8
DEFAULT_255_1_234
10
4.9232666
20
37.0597967
40
0.5681262
50
162.9373603
51
174.6208611
0
ARC
8
DEFAULT_255_1_234
10
5.1858708
20
37.031001
40
0.8322832
50
174.3419979
51
180.1430411
0
ARC
8
DEFAULT_255_1_234
10
5.0927864
20
36.9115698
40
0.7392076
50
179.6817502
51
189.150529
0
ARC
8
DEFAULT_255_1_234
10
4.8427112
20
36.869919
40
0.4856932
50
188.9910863
51
203.5773039
0
ARC
8
DEFAULT_255_1_234
10
4.7347445
20
36.8251211
40
0.3688271
50
203.9077269
51
215.1312379
0
ARC
8
DEFAULT_255_1_234
10
4.6424539
20
36.7535941
40
0.2522457
50
213.9071664
51
263.8849284
0
ARC
8
DEFAULT_255_1_234
10
4.6549868
20
36.8320518
40
0.3316174
50
263.1758525
51
270.1031083
0
ARC
8
DEFAULT_255_1_234
10
4.658196
20
36.9567365
40
0.4563091
50
269.6719807
51
279.0609165
0
ARC
8
DEFAULT_255_1_234
10
4.6848728
20
36.7954907
40
0.2928759
50
278.8750225
51
293.6346586
0
ARC
8
DEFAULT_255_1_234
10
4.7168936
20
36.72029
40
0.2111472
50
293.8553404
51
310.0518804
0
ARC
8
DEFAULT_255_1_234
10
4.717379
20
36.7140516
40
0.2060917
50
311.0646779
51
332.0108348
0
ARC
8
DEFAULT_255_1_234
10
4.5981517
20
36.7797978
40
0.3422352
50
331.6588543
51
343.2878891
0
ARC
8
DEFAULT_255_1_234
10
4.3919032
20
36.8431798
40
0.5580003
50
343.1446044
51
351.010618
0
ARC
8
DEFAULT_255_1_234
10
4.2377678
20
36.8712871
40
0.7146438
50
350.7157277
51
351.1602153
0
LINE
8
DEFAULT_255_1_234
10
6.2089218
20
37.0112534
11
6.2089218
21
36.9373614
0
LINE
8
DEFAULT_255_1_234
10
5.2684052
20
36.9269201
11
5.2684052
21
37.0112534
0
LINE
8
DEFAULT_255_1_234
10
6.0555156
20
36.9261169
11
6.0555156
21
37.0128597
0
LINE
8
DEFAULT_255_1_234
10
5.4218114
20
37.023301
11
5.4218114
21
36.9373614
0
ARC
8
DEFAULT_255_1_234
10
5.3447244
20
36.9334015
40
0.8642064
50
350.487711
51
0.2625388
0
ARC
8
DEFAULT_255_1_234
10
5.5740486
20
36.8939578
40
0.631518
50
336.0277639
51
350.5787438
0
ARC
8
DEFAULT_255_1_234
10
5.7085309
20
36.8331892
40
0.4839466
50
319.8877444
51
336.1328423
0
ARC
8
DEFAULT_255_1_234
10
5.768795
20
36.784958
40
0.4067874
50
302.4806467
51
319.6143626
0
ARC
8
DEFAULT_255_1_234
10
5.757296
20
36.8071202
40
0.4316636
50
275.8195682
51
302.1884709
0
ARC
8
DEFAULT_255_1_234
10
5.7406593
20
36.9213665
40
0.5470306
50
269.9171439
51
276.3397983
0
ARC
8
DEFAULT_255_1_234
10
5.7361803
20
36.8527681
40
0.4784458
50
252.5219675
51
270.4416499
0
ARC
8
DEFAULT_255_1_234
10
5.7218062
20
36.7988592
40
0.422716
50
237.5352116
51
252.1857531
0
ARC
8
DEFAULT_255_1_234
10
5.7307258
20
36.8102363
40
0.4371052
50
209.063312
51
237.3492538
0
ARC
8
DEFAULT_255_1_234
10
5.8177106
20
36.8648685
40
0.5397041
50
205.1183774
51
209.6470015
0
ARC
8
DEFAULT_255_1_234
10
5.8974143
20
36.898683
40
0.6262326
50
188.7215458
51
204.8240747
0
ARC
8
DEFAULT_255_1_234
10
6.0971671
20
36.9323067
40
0.8287794
50
180.3723947
51
188.9252049
0
ARC
8
DEFAULT_255_1_234
10
6.0944423
20
37.0152402
40
0.8260467
50
169.5253763
51
180.2765336
0
ARC
8
DEFAULT_255_1_234
10
5.9041871
20
37.0502309
40
0.6326007
50
155.8315255
51
169.5089989
0
ARC
8
DEFAULT_255_1_234
10
5.7761373
20
37.1096348
40
0.4914567
50
139.6258461
51
156.0379525
0
ARC
8
DEFAULT_255_1_234
10
5.7171706
20
37.1570799
40
0.4158054
50
122.6416387
51
139.3430715
0
ARC
8
DEFAULT_255_1_234
10
5.7272326
20
37.1387451
40
0.4366739
50
93.0223692
51
122.455762
0
ARC
8
DEFAULT_255_1_234
10
5.7380323
20
37.0422709
40
0.5336137
50
89.975342
51
93.6341897
0
ARC
8
DEFAULT_255_1_234
10
5.7419102
20
37.0821242
40
0.4937738
50
73.746375
51
90.4233405
0
ARC
8
DEFAULT_255_1_234
10
5.7594681
20
37.1501287
40
0.4235786
50
57.662753
51
73.4518111
0
ARC
8
DEFAULT_255_1_234
10
5.7586687
20
37.1522832
40
0.4221899
50
29.1440151
51
57.414694
0
ARC
8
DEFAULT_255_1_234
10
5.6651882
20
37.0939005
40
0.5322966
50
24.0982783
51
29.7323517
0
ARC
8
DEFAULT_255_1_234
10
5.5618157
20
37.0510399
40
0.6441673
50
8.6655297
51
23.8241346
0
ARC
8
DEFAULT_255_1_234
10
5.3383895
20
37.0145854
40
0.8705386
50
359.7806941
51
8.8218784
0
ARC
8
DEFAULT_255_1_234
10
5.2236893
20
37.0171345
40
0.8318373
50
359.7055579
51
8.036044
0
ARC
8
DEFAULT_255_1_234
10
5.5236899
20
37.0608239
40
0.5286768
50
7.8928306
51
20.2962107
0
ARC
8
DEFAULT_255_1_234
10
5.686447
20
37.1208395
40
0.3552073
50
20.3231126
51
36.4992797
0
ARC
8
DEFAULT_255_1_234
10
5.7550016
20
37.1736402
40
0.2686974
50
36.1437156
51
85.6627023
0
ARC
8
DEFAULT_255_1_234
10
5.7387562
20
37.0696221
40
0.373739
50
84.3852322
51
90.0757696
0
ARC
8
DEFAULT_255_1_234
10
5.7345234
20
37.1356839
40
0.3076997
50
89.3038458
51
109.9045693
0
ARC
8
DEFAULT_255_1_234
10
5.7252625
20
37.1739062
40
0.2686424
50
110.8228367
51
143.9179474
0
ARC
8
DEFAULT_255_1_234
10
5.8186285
20
37.1026236
40
0.3860887
50
143.5289163
51
163.2980757
0
ARC
8
DEFAULT_255_1_234
10
6.0094106
20
37.0426433
40
0.5860659
50
163.0418846
51
174.3140048
0
ARC
8
DEFAULT_255_1_234
10
6.2498218
20
37.0148854
40
0.8280531
50
174.0509143
51
179.4176892
0
ARC
8
DEFAULT_255_1_234
10
6.1993957
20
36.9331954
40
0.7775954
50
179.6930361
51
188.7906598
0
ARC
8
DEFAULT_255_1_234
10
5.9330436
20
36.8905935
40
0.5078633
50
188.6331305
51
202.5629587
0
ARC
8
DEFAULT_255_1_234
10
5.8076028
20
36.8401996
40
0.3726913
50
202.8081362
51
216.1193925
0
ARC
8
DEFAULT_255_1_234
10
5.7266598
20
36.7750676
40
0.2689577
50
215.0755913
51
264.6379694
0
ARC
8
DEFAULT_255_1_234
10
5.7393548
20
36.8581513
40
0.3528978
50
263.846392
51
270.0833719
0
ARC
8
DEFAULT_255_1_234
10
5.7434938
20
36.8323374
40
0.3271036
50
269.3649385
51
287.5152008
0
ARC
8
DEFAULT_255_1_234
10
5.7613096
20
36.7676238
40
0.2600406
50
288.0630309
51
323.8113348
0
ARC
8
DEFAULT_255_1_234
10
5.6741937
20
36.8326049
40
0.3687189
50
323.6547608
51
342.6590488
0
ARC
8
DEFAULT_255_1_234
10
5.4710552
20
36.8986952
40
0.5823286
50
342.4091907
51
353.6451149
0
ARC
8
DEFAULT_255_1_234
10
5.1879063
20
36.933919
40
0.8676442
50
353.4029884
51
359.4847795
0
LINE
8
DEFAULT_255_1_234
10
6.4402358
20
37.5598211
11
6.6394229
21
37.5598211
0
LINE
8
DEFAULT_255_1_234
10
6.6394229
20
37.5598211
11
7.0217337
21
36.6056506
0
LINE
8
DEFAULT_255_1_234
10
7.0217337
20
36.6056506
11
7.4040444
21
37.5598211
0
LINE
8
DEFAULT_255_1_234
10
7.4040444
20
37.5598211
11
7.6040347
21
37.5598211
0
LINE
8
DEFAULT_255_1_234
10
7.6040347
20
37.5598211
11
7.6040347
21
36.3904
0
LINE
8
DEFAULT_255_1_234
10
7.6040347
20
36.3904
11
7.4498253
21
36.3904
0
LINE
8
DEFAULT_255_1_234
10
7.4498253
20
36.3904
11
7.4498253
21
36.8457996
0
LINE
8
DEFAULT_255_1_234
10
7.4498253
20
36.8457996
11
7.4642825
21
37.3373419
0
LINE
8
DEFAULT_255_1_234
10
7.4642825
20
37.3373419
11
7.0803654
21
36.3904
0
LINE
8
DEFAULT_255_1_234
10
7.0803654
20
36.3904
11
6.9622988
21
36.3904
0
LINE
8
DEFAULT_255_1_234
10
6.9622988
20
36.3904
11
6.5791849
21
37.3349324
0
LINE
8
DEFAULT_255_1_234
10
6.5791849
20
37.3349324
11
6.5944452
21
36.8457996
0
LINE
8
DEFAULT_255_1_234
10
6.5944452
20
36.8457996
11
6.5944452
21
36.3904
0
LINE
8
DEFAULT_255_1_234
10
6.5944452
20
36.3904
11
6.4402358
21
36.3904
0
LINE
8
DEFAULT_255_1_234
10
6.4402358
20
36.3904
11
6.4402358
21
37.5598211
0
LINE
8
DEFAULT_255_1_234
10
23.1660817
20
45.0194327
11
23.1660817
21
44.8266709
0
LINE
8
DEFAULT_255_1_234
10
22.427965
20
44.8065916
11
22.427965
21
45.0049755
0
LINE
8
DEFAULT_255_1_234
10
23.0174946
20
44.7865123
11
23.0174946
21
45.0298739
0
LINE
8
DEFAULT_255_1_234
10
22.5765521
20
45.0411184
11
22.5765521
21
44.8033789
0
ARC
8
DEFAULT_255_1_234
10
21.9413707
20
44.8217805
40
1.2247208
50
353.8441951
51
0.2287902
0
ARC
8
DEFAULT_255_1_234
10
22.4053211
20
44.7699806
40
0.7578929
50
344.4934747
51
353.9765454
0
ARC
8
DEFAULT_255_1_234
10
22.7045801
20
44.6848981
40
0.4467846
50
329.2803592
51
344.7472793
0
ARC
8
DEFAULT_255_1_234
10
22.8038626
20
44.6304018
40
0.3336173
50
324.9352394
51
328.6160465
0
ARC
8
DEFAULT_255_1_234
10
22.8415734
20
44.6040427
40
0.2876076
50
280.580143
51
324.9173126
0
ARC
8
DEFAULT_255_1_234
10
22.8014527
20
44.7711099
40
0.4592847
50
269.5977311
51
281.6734359
0
ARC
8
DEFAULT_255_1_234
10
22.7942433
20
44.7591173
40
0.4472986
50
256.6228859
51
270.51044
0
ARC
8
DEFAULT_255_1_234
10
22.754041
20
44.6042877
40
0.2873874
50
215.8618325
51
257.2788573
0
ARC
8
DEFAULT_255_1_234
10
22.8561442
20
44.6727977
40
0.4102928
50
197.9693508
51
215.2623606
0
ARC
8
DEFAULT_255_1_234
10
23.1046558
20
44.7566709
40
0.6725652
50
187.8816417
51
198.2346507
0
ARC
8
DEFAULT_255_1_234
10
23.5004766
20
44.8138079
40
1.0724845
50
180.8976217
51
188.0055519
0
ARC
8
DEFAULT_255_1_234
10
23.7804954
20
44.8241777
40
1.3526448
50
180.7449369
51
181.1510016
0
ARC
8
DEFAULT_255_1_234
10
23.6227683
20
45.0098042
40
1.1948131
50
173.7675579
51
180.231553
0
ARC
8
DEFAULT_255_1_234
10
23.170983
20
45.0608666
40
0.7401564
50
164.3058563
51
173.9002247
0
ARC
8
DEFAULT_255_1_234
10
22.8797899
20
45.1447656
40
0.4371288
50
148.7922025
51
164.568378
0
ARC
8
DEFAULT_255_1_234
10
22.7846351
20
45.1978929
40
0.3282386
50
144.5883898
51
148.1176286
0
ARC
8
DEFAULT_255_1_234
10
22.7503249
20
45.2218315
40
0.2864044
50
101.6440918
51
144.514236
0
ARC
8
DEFAULT_255_1_234
10
22.7928315
20
45.0529069
40
0.4604934
50
89.5284041
51
102.5819763
0
ARC
8
DEFAULT_255_1_234
10
22.8007403
20
45.0490018
40
0.464401
50
77.0437873
51
90.5081339
0
ARC
8
DEFAULT_255_1_234
10
22.8409405
20
45.2132615
40
0.2953195
50
48.2778575
51
77.4994676
0
ARC
8
DEFAULT_255_1_234
10
22.8482036
20
45.2261746
40
0.2808655
50
36.3142134
51
47.6305865
0
ARC
8
DEFAULT_255_1_234
10
22.7613343
20
45.1676515
40
0.3855453
50
18.2931786
51
35.6769206
0
ARC
8
DEFAULT_255_1_234
10
22.5070102
20
45.0803593
40
0.654423
50
8.024666
51
18.5605216
0
ARC
8
DEFAULT_255_1_234
10
22.0907022
20
45.0188792
40
1.0752407
50
1.1274072
51
8.1718305
0
ARC
8
DEFAULT_255_1_234
10
21.7671213
20
45.0061885
40
1.3990231
50
0.5424119
51
1.3863029
0
ARC
8
DEFAULT_255_1_234
10
21.949259
20
45.0334342
40
1.0682415
50
359.8090433
51
4.9407866
0
ARC
8
DEFAULT_255_1_234
10
22.3702604
20
45.0710113
40
0.6455691
50
4.8362157
51
12.2904523
0
ARC
8
DEFAULT_255_1_234
10
22.6457719
20
45.1323965
40
0.3633074
50
12.0805627
51
23.8173984
0
ARC
8
DEFAULT_255_1_234
10
22.7631425
20
45.1820919
40
0.2358723
50
24.2871213
51
31.3935614
0
ARC
8
DEFAULT_255_1_234
10
22.8156122
20
45.2164233
40
0.1732111
50
30.7407893
51
82.4657128
0
ARC
8
DEFAULT_255_1_234
10
22.7976256
20
45.1280691
40
0.263235
50
81.1060089
51
90.2184952
0
ARC
8
DEFAULT_255_1_234
10
22.7940555
20
45.1538924
40
0.2374236
50
89.3806855
51
105.6762551
0
ARC
8
DEFAULT_255_1_234
10
22.7757186
20
45.2205567
40
0.1682847
50
105.7981136
51
149.7388061
0
ARC
8
DEFAULT_255_1_234
10
22.8821264
20
45.156595
40
0.2924306
50
149.4208916
51
163.6286378
0
ARC
8
DEFAULT_255_1_234
10
23.0912152
20
45.092825
40
0.5110213
50
163.3763315
51
172.1410975
0
ARC
8
DEFAULT_255_1_234
10
23.4212871
20
45.0455518
40
0.8444586
50
172.0259487
51
178.0703232
0
ARC
8
DEFAULT_255_1_234
10
23.724296
20
45.0311906
40
1.1477868
50
177.8631668
51
179.5044149
0
ARC
8
DEFAULT_255_1_234
10
23.6170365
20
44.7997389
40
1.0404907
50
179.7995573
51
185.2460446
0
ARC
8
DEFAULT_255_1_234
10
23.2127404
20
44.7614513
40
0.6343885
50
185.1411642
51
193.0079639
0
ARC
8
DEFAULT_255_1_234
10
22.9483877
20
44.6989641
40
0.3627568
50
192.7897626
51
205.2507664
0
ARC
8
DEFAULT_255_1_234
10
22.8437424
20
44.6522415
40
0.2481908
50
205.8005384
51
211.2537509
0
ARC
8
DEFAULT_255_1_234
10
22.7913864
20
44.617158
40
0.1852521
50
210.3789793
51
238.4008143
0
ARC
8
DEFAULT_255_1_234
10
22.7894386
20
44.6218376
40
0.1882621
50
239.6520629
51
265.9793761
0
ARC
8
DEFAULT_255_1_234
10
22.7979586
20
44.6890427
40
0.2559272
50
265.1315437
51
270.060332
0
ARC
8
DEFAULT_255_1_234
10
22.8008365
20
44.6566534
40
0.2235528
50
269.3314664
51
287.2178029
0
ARC
8
DEFAULT_255_1_234
10
22.8146217
20
44.6063279
40
0.1714108
50
287.7958004
51
329.080874
0
ARC
8
DEFAULT_255_1_234
10
22.7188674
20
44.666093
40
0.2842745
50
328.6634704
51
343.3325132
0
ARC
8
DEFAULT_255_1_234
10
22.5015694
20
44.7337863
40
0.5118644
50
343.0499468
51
351.9393422
0
ARC
8
DEFAULT_255_1_234
10
22.1548994
20
44.7848949
40
0.8622784
50
351.8069023
51
357.7959224
0
ARC
8
DEFAULT_255_1_234
10
21.831355
20
44.8016721
40
1.1862365
50
357.5871873
51
359.2677531
0
LINE
8
DEFAULT_255_1_234
10
23.4496021
20
45.4973211
11
23.7821161
21
44.5327093
0
LINE
8
DEFAULT_255_1_234
10
23.7821161
20
44.5327093
11
24.1162364
21
45.4973211
0
LINE
8
DEFAULT_255_1_234
10
24.1162364
20
45.4973211
11
24.2849029
21
45.4973211
0
LINE
8
DEFAULT_255_1_234
10
24.2849029
20
45.4973211
11
23.851189
21
44.3279
0
LINE
8
DEFAULT_255_1_234
10
23.851189
20
44.3279
11
23.7146495
21
44.3279
0
LINE
8
DEFAULT_255_1_234
10
23.7146495
20
44.3279
11
23.2817388
21
45.4973211
0
LINE
8
DEFAULT_255_1_234
10
23.2817388
20
45.4973211
11
23.4496021
21
45.4973211
0
ENDSEC
0
EOF