0
SECTION
2
HEADER
9
$MEASUREMENT
70
1
0
ENDSEC
0
SECTION
2
TABLES
0
TABLE
2
LTYPE
0
LTYPE
72
65
70
64
2
CONTINUOUS
3
______
73
0
40
0
0
ENDTAB
0
TABLE
2
LAYER
0
LAYER
2
DEFAULT_255_2_778
70
0
62
255
6
CONTINUOUS
0
LAYER
2
DEFAULT_255_1_234
70
0
62
255
6
CONTINUOUS
0
LAYER
2
DEFAULT_255_2_778_1
70
0
62
255
6
CONTINUOUS
0
ENDTAB
0
ENDSEC
0
SECTION
2
ENTITIES
0
ARC
8
DEFAULT_255_2_778
10
3.5700693
20
44.0552035
40
0.7914215
50
129.1312896
51
180.1450914
0
ARC
8
DEFAULT_255_2_778
10
3.5703345
20
44.0556906
40
0.7912112
50
89.854026
51
129.1684493
0
ARC
8
DEFAULT_255_2_778
10
25.7993937
20
44.0553771
40
0.7915249
50
39.4792447
51
90.147911
0
ARC
8
DEFAULT_255_2_778
10
25.7999935
20
44.0552238
40
0.7911595
50
359.8533901
51
39.5154338
0
ARC
8
DEFAULT_255_2_778
10
25.7996693
20
-1.9863488
40
0.7914836
50
309.4761667
51
0.1482649
0
ARC
8
DEFAULT_255_2_778
10
25.799398
20
-1.9867799
40
0.7913235
50
269.8517415
51
309.511178
0
ARC
8
DEFAULT_255_2_778
10
3.570342
20
-1.9867217
40
0.7913815
50
219.1282118
51
270.1454017
0
ARC
8
DEFAULT_255_2_778
10
3.5700247
20
-1.9863392
40
0.7913769
50
179.8524075
51
219.1641908
0
LINE
8
DEFAULT_255_2_778
10
3.5723503
20
44.8468993
11
25.7973503
21
44.8468993
0
LINE
8
DEFAULT_255_2_778
10
26.5911503
20
44.0531993
11
26.5911503
21
-1.9843007
0
LINE
8
DEFAULT_255_2_778
10
25.7973503
20
-2.7781007
11
3.5723503
21
-2.7781007
0
LINE
8
DEFAULT_255_2_778
10
2.7786503
20
-1.9843007
11
2.7786503
21
44.0531993
0
LINE
8
DEFAULT_255_1_234
10
8.8730344
20
-0.1934909
11
8.5975458
21
-0.1934909
0
LINE
8
DEFAULT_255_1_234
10
8.5975458
20
-0.1934909
11
8.5975458
21
-0.6513
0
LINE
8
DEFAULT_255_1_234
10
8.5975458
20
-0.6513
11
8.4433364
21
-0.6513
0
LINE
8
DEFAULT_255_1_234
10
8.4433364
20
-0.6513
11
8.4433364
21
0.5181211
0
LINE
8
DEFAULT_255_1_234
10
8.4433364
20
0.5181211
11
8.8746407
21
0.5181211
0
LINE
8
DEFAULT_255_1_234
10
8.5975458
20
0.3912196
11
8.5975458
21
-0.0673926
0
LINE
8
DEFAULT_255_1_234
10
8.5975458
20
-0.0673926
11
8.8746407
21
-0.0673926
0
LINE
8
DEFAULT_255_1_234
10
8.8834756
20
0.3912196
11
8.5975458
21
0.3912196
0
ARC
8
DEFAULT_255_1_234
10
8.8788534
20
-0.0877805
40
0.6059162
50
78.8378113
51
90.3983573
0
ARC
8
DEFAULT_255_1_234
10
8.9204548
20
0.1142879
40
0.3996205
50
58.9632738
51
79.0810598
0
ARC
8
DEFAULT_255_1_234
10
8.950609
20
0.1702721
40
0.3361177
50
48.0197965
51
58.447194
0
ARC
8
DEFAULT_255_1_234
10
8.9594951
20
0.1788225
40
0.3238191
50
3.3375044
51
48.1766626
0
ARC
8
DEFAULT_255_1_234
10
8.836479
20
0.1611171
40
0.4477806
50
359.9477528
51
4.6829065
0
ARC
8
DEFAULT_255_1_234
10
8.8488107
20
0.1568628
40
0.4354656
50
346.1877825
51
0.5060252
0
ARC
8
DEFAULT_255_1_234
10
8.9846975
20
0.1215731
40
0.295089
50
310.8831995
51
346.5426355
0
ARC
8
DEFAULT_255_1_234
10
8.9538395
20
0.1632695
40
0.3468331
50
286.6925341
51
310.2288297
0
ARC
8
DEFAULT_255_1_234
10
8.8969226
20
0.3422882
40
0.5346654
50
274.6850312
51
287.0245141
0
ARC
8
DEFAULT_255_1_234
10
8.8743949
20
0.5631932
40
0.7566852
50
269.8969846
51
275.018904
0
ARC
8
DEFAULT_255_1_234
10
8.877154
20
0.3552707
40
0.4226708
50
269.6593078
51
279.4153575
0
ARC
8
DEFAULT_255_1_234
10
8.9028815
20
0.2062133
40
0.2714146
50
279.2049762
51
294.9900808
0
ARC
8
DEFAULT_255_1_234
10
8.9319141
20
0.1414508
40
0.2004525
50
295.2888114
51
311.2911209
0
ARC
8
DEFAULT_255_1_234
10
8.9390035
20
0.130922
40
0.1878703
50
311.7854996
51
347.2861051
0
ARC
8
DEFAULT_255_1_234
10
8.8406194
20
0.1562092
40
0.2894234
50
346.6893224
51
0.1059443
0
ARC
8
DEFAULT_255_1_234
10
8.7651089
20
0.1590685
40
0.3649409
50
359.6350983
51
0.0053152
0
ARC
8
DEFAULT_255_1_234
10
8.8621417
20
0.1615937
40
0.2679199
50
359.4672059
51
15.5933957
0
ARC
8
DEFAULT_255_1_234
10
8.9246306
20
0.1784779
40
0.2031932
50
15.7442113
51
46.6203375
0
ARC
8
DEFAULT_255_1_234
10
8.9098527
20
0.1614484
40
0.2257226
50
46.8628658
51
75.6676503
0
ARC
8
DEFAULT_255_1_234
10
8.8804347
20
0.0555718
40
0.3355939
50
75.276167
51
88.2915297
0
ARC
8
DEFAULT_255_1_234
10
8.8746054
20
-0.0322476
40
0.4235602
50
87.8575022
51
88.8000139
0
LINE
8
DEFAULT_255_1_234
10
9.9308143
20
0.5237433
11
9.9308143
21
-0.6513
0
LINE
8
DEFAULT_255_1_234
10
9.9308143
20
-0.6513
11
9.781424
21
-0.6513
0
LINE
8
DEFAULT_255_1_234
10
9.781424
20
-0.6513
11
9.781424
21
0.3390133
0
LINE
8
DEFAULT_255_1_234
10
9.781424
20
0.3390133
11
9.4818401
21
0.2289785
0
LINE
8
DEFAULT_255_1_234
10
9.4818401
20
0.2289785
11
9.4818401
21
0.3639117
0
LINE
8
DEFAULT_255_1_234
10
9.4818401
20
0.3639117
11
9.9075223
21
0.5237433
0
LINE
8
DEFAULT_255_1_234
10
9.9075223
20
0.5237433
11
9.9308143
21
0.5237433
0
LINE
8
DEFAULT_255_1_234
10
10.6906167
20
-0.0938974
11
10.6906167
21
-0.2151766
0
LINE
8
DEFAULT_255_1_234
10
10.6906167
20
-0.2151766
11
10.2986679
21
-0.2151766
0
LINE
8
DEFAULT_255_1_234
10
10.2986679
20
-0.2151766
11
10.2986679
21
-0.0938974
0
LINE
8
DEFAULT_255_1_234
10
10.2986679
20
-0.0938974
11
10.6906167
21
-0.0938974
0
LINE
8
DEFAULT_255_1_234
10
11.4472065
20
0.5181211
11
11.4472065
21
-0.258548
0
LINE
8
DEFAULT_255_1_234
10
11.4472065
20
-0.258548
11
11.6094476
21
-0.258548
0
LINE
8
DEFAULT_255_1_234
10
11.6094476
20
-0.258548
11
11.6094476
21
-0.3798272
0
LINE
8
DEFAULT_255_1_234
10
11.6094476
20
-0.3798272
11
11.4472065
21
-0.3798272
0
LINE
8
DEFAULT_255_1_234
10
11.4472065
20
-0.3798272
11
11.4472065
21
-0.6513
0
LINE
8
DEFAULT_255_1_234
10
11.4472065
20
-0.6513
11
11.2978162
21
-0.6513
0
LINE
8
DEFAULT_255_1_234
10
11.2978162
20
-0.6513
11
11.2978162
21
-0.3798272
0
LINE
8
DEFAULT_255_1_234
10
11.2978162
20
-0.3798272
11
10.7653119
21
-0.3798272
0
LINE
8
DEFAULT_255_1_234
10
10.7653119
20
-0.3798272
11
10.7653119
21
-0.2922813
0
LINE
8
DEFAULT_255_1_234
10
10.7653119
20
-0.2922813
11
11.2889813
21
0.5181211
0
LINE
8
DEFAULT_255_1_234
10
11.2889813
20
0.5181211
11
11.4472065
21
0.5181211
0
LINE
8
DEFAULT_255_1_234
10
11.2801463
20
0.2827912
11
10.9339784
21
-0.258548
0
LINE
8
DEFAULT_255_1_234
10
10.9339784
20
-0.258548
11
11.2978162
21
-0.258548
0
LINE
8
DEFAULT_255_1_234
10
11.2978162
20
-0.258548
11
11.2978162
21
0.3149181
0
LINE
8
DEFAULT_255_1_234
10
11.2978162
20
0.3149181
11
11.2801463
21
0.2827912
0
LINE
8
DEFAULT_255_1_234
10
12.5395229
20
-0.6513
11
12.4278817
21
-0.3460939
0
LINE
8
DEFAULT_255_1_234
10
12.4278817
20
-0.3460939
11
11.9379457
21
-0.3460939
0
LINE
8
DEFAULT_255_1_234
10
11.9379457
20
-0.3460939
11
11.8279109
21
-0.6513
0
LINE
8
DEFAULT_255_1_234
10
11.8279109
20
-0.6513
11
11.6688825
21
-0.6513
0
LINE
8
DEFAULT_255_1_234
10
11.6688825
20
-0.6513
11
12.1154471
21
0.5181211
0
LINE
8
DEFAULT_255_1_234
10
12.1154471
20
0.5181211
11
12.2503803
21
0.5181211
0
LINE
8
DEFAULT_255_1_234
10
12.2503803
20
0.5181211
11
12.6977481
21
-0.6513
0
LINE
8
DEFAULT_255_1_234
10
12.6977481
20
-0.6513
11
12.5395229
21
-0.6513
0
LINE
8
DEFAULT_255_1_234
10
12.1829137
20
0.3277689
11
11.9845298
21
-0.2191925
0
LINE
8
DEFAULT_255_1_234
10
11.9845298
20
-0.2191925
11
12.3821008
21
-0.2191925
0
LINE
8
DEFAULT_255_1_234
10
12.3821008
20
-0.2191925
11
12.1829137
21
0.3277689
0
LINE
8
DEFAULT_255_1_234
10
13.1788493
20
-0.6513
11
12.8551702
21
-0.6513
0
LINE
8
DEFAULT_255_1_234
10
12.8551702
20
-0.6513
11
12.8551702
21
0.5181211
0
LINE
8
DEFAULT_255_1_234
10
12.8551702
20
0.5181211
11
13.1852747
21
0.5181211
0
LINE
8
DEFAULT_255_1_234
10
13.7009123
20
-0.0272339
11
13.7009123
21
-0.1019291
0
LINE
8
DEFAULT_255_1_234
10
13.1892905
20
0.3912196
11
13.0093796
21
0.3912196
0
LINE
8
DEFAULT_255_1_234
10
13.0093796
20
0.3912196
11
13.0093796
21
-0.5252017
0
LINE
8
DEFAULT_255_1_234
10
13.0093796
20
-0.5252017
11
13.1716207
21
-0.5252017
0
LINE
8
DEFAULT_255_1_234
10
13.5483092
20
-0.0987164
11
13.5483092
21
-0.0304466
0
ARC
8
DEFAULT_255_1_234
10
13.1891689
20
-0.0684106
40
0.5865446
50
75.4101064
51
90.3804066
0
ARC
8
DEFAULT_255_1_234
10
13.2121203
20
0.0272492
40
0.4881916
50
60.145586
51
75.1888407
0
ARC
8
DEFAULT_255_1_234
10
13.2279978
20
0.0549199
40
0.4562893
50
26.5253612
51
60.1450928
0
ARC
8
DEFAULT_255_1_234
10
13.1159727
20
-0.0044842
40
0.5830602
50
7.4030428
51
26.8320788
0
ARC
8
DEFAULT_255_1_234
10
12.9565484
20
-0.0293196
40
0.7443669
50
0.1605367
51
7.7176192
0
ARC
8
DEFAULT_255_1_234
10
12.9729389
20
-0.1057566
40
0.7279835
50
348.7289388
51
0.3012466
0
ARC
8
DEFAULT_255_1_234
10
13.1385819
20
-0.1386614
40
0.559104
50
333.0706509
51
348.7181832
0
ARC
8
DEFAULT_255_1_234
10
13.2352577
20
-0.1911681
40
0.4491417
50
299.2531685
51
333.4571258
0
ARC
8
DEFAULT_255_1_234
10
13.1991716
20
-0.1226172
40
0.5265881
50
278.107187
51
299.0339503
0
ARC
8
DEFAULT_255_1_234
10
13.1735795
20
0.0281216
40
0.679442
50
270.4443897
51
278.4511052
0
ARC
8
DEFAULT_255_1_234
10
13.1756625
20
-0.0647787
40
0.4604407
50
269.4970433
51
284.0205042
0
ARC
8
DEFAULT_255_1_234
10
13.2111926
20
-0.2013022
40
0.3193797
50
283.7700273
51
318.1555492
0
ARC
8
DEFAULT_255_1_234
10
13.1774684
20
-0.1760633
40
0.3613588
50
318.7415601
51
343.6873628
0
ARC
8
DEFAULT_255_1_234
10
12.9970708
20
-0.1197168
40
0.5503313
50
343.3325091
51
355.8548958
0
ARC
8
DEFAULT_255_1_234
10
12.7872392
20
-0.0997681
40
0.7610708
50
355.4988528
51
0.0791727
0
ARC
8
DEFAULT_255_1_234
10
12.8655015
20
-0.026222
40
0.6828208
50
359.6455037
51
9.8607896
0
ARC
8
DEFAULT_255_1_234
10
13.1015712
20
0.0164099
40
0.4429406
50
9.6571907
51
26.1932807
0
ARC
8
DEFAULT_255_1_234
10
13.1943701
20
0.0595118
40
0.3406537
50
26.5777228
51
40.1532208
0
ARC
8
DEFAULT_255_1_234
10
13.2199428
20
0.0794619
40
0.308246
50
40.3840491
51
80.1431104
0
ARC
8
DEFAULT_255_1_234
10
13.1872545
20
-0.0654667
40
0.4566909
50
79.2152159
51
89.7445637
0
LINE
8
DEFAULT_255_1_234
10
14.0888452
20
0.5181211
11
14.0888452
21
-0.5252017
0
LINE
8
DEFAULT_255_1_234
10
14.0888452
20
-0.5252017
11
14.6430352
21
-0.5252017
0
LINE
8
DEFAULT_255_1_234
10
14.6430352
20
-0.5252017
11
14.6430352
21
-0.6513
0
LINE
8
DEFAULT_255_1_234
10
14.6430352
20
-0.6513
11
13.9338327
21
-0.6513
0
LINE
8
DEFAULT_255_1_234
10
13.9338327
20
-0.6513
11
13.9338327
21
0.5181211
0
LINE
8
DEFAULT_255_1_234
10
13.9338327
20
0.5181211
11
14.0888452
21
0.5181211
0
LINE
8
DEFAULT_255_1_234
10
15.5466057
20
-0.5300208
11
15.5466057
21
-0.6513
0
LINE
8
DEFAULT_255_1_234
10
15.5466057
20
-0.6513
11
14.7803779
21
-0.6513
0
LINE
8
DEFAULT_255_1_234
10
14.7803779
20
-0.6513
11
14.7803779
21
-0.5444779
0
LINE
8
DEFAULT_255_1_234
10
14.7803779
20
-0.5444779
11
15.1851775
21
-0.0947005
0
LINE
8
DEFAULT_255_1_234
10
14.9064762
20
0.1735595
11
14.757889
21
0.1735595
0
LINE
8
DEFAULT_255_1_234
10
15.2727234
20
-0.1902782
11
14.9594856
21
-0.5300208
0
LINE
8
DEFAULT_255_1_234
10
14.9594856
20
-0.5300208
11
15.5466057
21
-0.5300208
0
ARC
8
DEFAULT_255_1_234
10
13.8361608
20
1.0982527
40
1.8008286
50
318.5132453
51
320.7828378
0
ARC
8
DEFAULT_255_1_234
10
14.3648583
20
0.6679426
40
1.1191493
50
320.7372736
51
323.9737074
0
ARC
8
DEFAULT_255_1_234
10
14.7568439
20
0.3839361
40
0.6350923
50
323.8961724
51
328.6421089
0
ARC
8
DEFAULT_255_1_234
10
14.9615034
20
0.2577031
40
0.3946393
50
328.8299013
51
331.789948
0
ARC
8
DEFAULT_255_1_234
10
15.0612213
20
0.2062509
40
0.2824501
50
331.4255242
51
352.9364833
0
ARC
8
DEFAULT_255_1_234
10
15.0748714
20
0.2031976
40
0.2685315
50
353.2248685
51
0.0169286
0
ARC
8
DEFAULT_255_1_234
10
15.095859
20
0.205495
40
0.2475536
50
359.4866256
51
15.9339782
0
ARC
8
DEFAULT_255_1_234
10
15.1465576
20
0.2191286
40
0.1950618
50
16.1714718
51
43.5284424
0
ARC
8
DEFAULT_255_1_234
10
15.1542884
20
0.2268573
40
0.184134
50
43.4415429
51
83.1661404
0
ARC
8
DEFAULT_255_1_234
10
15.1408802
20
0.1531771
40
0.258926
50
82.160215
51
90.1505798
0
ARC
8
DEFAULT_255_1_234
10
15.137723
20
0.0994865
40
0.3126255
50
89.5460705
51
102.5418777
0
ARC
8
DEFAULT_255_1_234
10
15.1134316
20
0.2025665
40
0.2067346
50
102.1739365
51
129.2061916
0
ARC
8
DEFAULT_255_1_234
10
15.1055388
20
0.2150094
40
0.1921118
50
129.7279328
51
135.7542026
0
ARC
8
DEFAULT_255_1_234
10
15.1176915
20
0.2053045
40
0.2075944
50
136.175737
51
166.3674722
0
ARC
8
DEFAULT_255_1_234
10
15.2183835
20
0.1783182
40
0.3118201
50
165.9092917
51
178.8683903
0
ARC
8
DEFAULT_255_1_234
10
15.3048696
20
0.1736179
40
0.3983935
50
178.438168
51
180.0083905
0
ARC
8
DEFAULT_255_1_234
10
15.1647298
20
0.1775231
40
0.4068601
50
163.2878735
51
180.5581814
0
ARC
8
DEFAULT_255_1_234
10
15.0845559
20
0.199584
40
0.3237344
50
133.454115
51
162.9470031
0
ARC
8
DEFAULT_255_1_234
10
15.1024101
20
0.1806
40
0.349795
50
100.7869394
51
133.4384016
0
ARC
8
DEFAULT_255_1_234
10
15.1371872
20
0.0257319
40
0.5084616
50
89.6605301
51
101.3704185
0
ARC
8
DEFAULT_255_1_234
10
15.1438211
20
0.0318496
40
0.502348
50
78.2171172
51
90.4130393
0
ARC
8
DEFAULT_255_1_234
10
15.1793289
20
0.1942637
40
0.3361092
50
55.9268222
51
78.4888551
0
ARC
8
DEFAULT_255_1_234
10
15.1989729
20
0.2281324
40
0.2970617
50
47.9292255
51
55.4054003
0
ARC
8
DEFAULT_255_1_234
10
15.209129
20
0.2384502
40
0.2825983
50
4.3347696
51
48.0560701
0
ARC
8
DEFAULT_255_1_234
10
15.0995684
20
0.2214601
40
0.393225
50
359.925209
51
5.5967654
0
ARC
8
DEFAULT_255_1_234
10
15.1424575
20
0.2270816
40
0.3503892
50
337.8914096
51
358.9967724
0
ARC
8
DEFAULT_255_1_234
10
14.8710988
20
0.3317706
40
0.6412172
50
326.9135351
51
338.3505194
0
ARC
8
DEFAULT_255_1_234
10
14.4725291
20
0.5872284
40
1.1146189
50
319.6472867
51
327.095818
0
ARC
8
DEFAULT_255_1_234
10
14.0892294
20
0.9034
40
1.6114559
50
317.2586784
51
319.9046139
0
LINE
8
DEFAULT_255_1_234
10
16.0662592
20
-0.6513
11
15.7425801
21
-0.6513
0
LINE
8
DEFAULT_255_1_234
10
15.7425801
20
-0.6513
11
15.7425801
21
0.5181211
0
LINE
8
DEFAULT_255_1_234
10
15.7425801
20
0.5181211
11
16.0726846
21
0.5181211
0
LINE
8
DEFAULT_255_1_234
10
16.5883222
20
-0.0272339
11
16.5883222
21
-0.1019291
0
LINE
8
DEFAULT_255_1_234
10
16.0767004
20
0.3912196
11
15.8967895
21
0.3912196
0
LINE
8
DEFAULT_255_1_234
10
15.8967895
20
0.3912196
11
15.8967895
21
-0.5252017
0
LINE
8
DEFAULT_255_1_234
10
15.8967895
20
-0.5252017
11
16.0590306
21
-0.5252017
0
LINE
8
DEFAULT_255_1_234
10
16.4357191
20
-0.0987164
11
16.4357191
21
-0.0304466
0
ARC
8
DEFAULT_255_1_234
10
16.0765788
20
-0.0684106
40
0.5865446
50
75.4101064
51
90.3804066
0
ARC
8
DEFAULT_255_1_234
10
16.0995302
20
0.0272492
40
0.4881916
50
60.145586
51
75.1888407
0
ARC
8
DEFAULT_255_1_234
10
16.1154077
20
0.0549199
40
0.4562893
50
26.5253612
51
60.1450928
0
ARC
8
DEFAULT_255_1_234
10
16.0033826
20
-0.0044842
40
0.5830602
50
7.4030428
51
26.8320788
0
ARC
8
DEFAULT_255_1_234
10
15.8439583
20
-0.0293196
40
0.7443669
50
0.1605367
51
7.7176192
0
ARC
8
DEFAULT_255_1_234
10
15.8603488
20
-0.1057566
40
0.7279835
50
348.7289388
51
0.3012466
0
ARC
8
DEFAULT_255_1_234
10
16.0259918
20
-0.1386614
40
0.559104
50
333.0706509
51
348.7181832
0
ARC
8
DEFAULT_255_1_234
10
16.1226676
20
-0.1911681
40
0.4491417
50
299.2531685
51
333.4571258
0
ARC
8
DEFAULT_255_1_234
10
16.0865815
20
-0.1226172
40
0.5265881
50
278.107187
51
299.0339503
0
ARC
8
DEFAULT_255_1_234
10
16.0609894
20
0.0281216
40
0.679442
50
270.4443897
51
278.4511052
0
ARC
8
DEFAULT_255_1_234
10
16.0630724
20
-0.0647787
40
0.4604407
50
269.4970433
51
284.0205042
0
ARC
8
DEFAULT_255_1_234
10
16.0986025
20
-0.2013022
40
0.3193797
50
283.7700273
51
318.1555492
0
ARC
8
DEFAULT_255_1_234
10
16.0648783
20
-0.1760633
40
0.3613588
50
318.7415601
51
343.6873628
0
ARC
8
DEFAULT_255_1_234
10
15.8844807
20
-0.1197168
40
0.5503313
50
343.3325091
51
355.8548958
0
ARC
8
DEFAULT_255_1_234
10
15.6746491
20
-0.0997681
40
0.7610708
50
355.4988528
51
0.0791727
0
ARC
8
DEFAULT_255_1_234
10
15.7529114
20
-0.026222
40
0.6828208
50
359.6455037
51
9.8607896
0
ARC
8
DEFAULT_255_1_234
10
15.9889812
20
0.0164099
40
0.4429406
50
9.6571907
51
26.1932807
0
ARC
8
DEFAULT_255_1_234
10
16.08178
20
0.0595118
40
0.3406537
50
26.5777228
51
40.1532208
0
ARC
8
DEFAULT_255_1_234
10
16.1073527
20
0.0794619
40
0.308246
50
40.3840491
51
80.1431104
0
ARC
8
DEFAULT_255_1_234
10
16.0746644
20
-0.0654667
40
0.4566909
50
79.2152159
51
89.7445637
0
LINE
8
DEFAULT_255_1_234
10
17.5617688
20
-0.6513
11
17.4501277
21
-0.3460939
0
LINE
8
DEFAULT_255_1_234
10
17.4501277
20
-0.3460939
11
16.9601917
21
-0.3460939
0
LINE
8
DEFAULT_255_1_234
10
16.9601917
20
-0.3460939
11
16.8501568
21
-0.6513
0
LINE
8
DEFAULT_255_1_234
10
16.8501568
20
-0.6513
11
16.6911284
21
-0.6513
0
LINE
8
DEFAULT_255_1_234
10
16.6911284
20
-0.6513
11
17.1376931
21
0.5181211
0
LINE
8
DEFAULT_255_1_234
10
17.1376931
20
0.5181211
11
17.2726263
21
0.5181211
0
LINE
8
DEFAULT_255_1_234
10
17.2726263
20
0.5181211
11
17.7199941
21
-0.6513
0
LINE
8
DEFAULT_255_1_234
10
17.7199941
20
-0.6513
11
17.5617688
21
-0.6513
0
LINE
8
DEFAULT_255_1_234
10
17.2051597
20
0.3277689
11
17.0067757
21
-0.2191925
0
LINE
8
DEFAULT_255_1_234
10
17.0067757
20
-0.2191925
11
17.4043468
21
-0.2191925
0
LINE
8
DEFAULT_255_1_234
10
17.4043468
20
-0.2191925
11
17.2051597
21
0.3277689
0
LINE
8
DEFAULT_255_1_234
10
18.0324287
20
0.5181211
11
18.0324287
21
-0.5252017
0
LINE
8
DEFAULT_255_1_234
10
18.0324287
20
-0.5252017
11
18.5866187
21
-0.5252017
0
LINE
8
DEFAULT_255_1_234
10
18.5866187
20
-0.5252017
11
18.5866187
21
-0.6513
0
LINE
8
DEFAULT_255_1_234
10
18.5866187
20
-0.6513
11
17.8774162
21
-0.6513
0
LINE
8
DEFAULT_255_1_234
10
17.8774162
20
-0.6513
11
17.8774162
21
0.5181211
0
LINE
8
DEFAULT_255_1_234
10
17.8774162
20
0.5181211
11
18.0324287
21
0.5181211
0
LINE
8
DEFAULT_255_1_234
10
19.0484436
20
-0.0938974
11
19.0484436
21
-0.2151766
0
LINE
8
DEFAULT_255_1_234
10
19.0484436
20
-0.2151766
11
18.6564948
21
-0.2151766
0
LINE
8
DEFAULT_255_1_234
10
18.6564948
20
-0.2151766
11
18.6564948
21
-0.0938974
0
LINE
8
DEFAULT_255_1_234
10
18.6564948
20
-0.0938974
11
19.0484436
21
-0.0938974
0
LINE
8
DEFAULT_255_1_234
10
19.9439824
20
-0.5300208
11
19.9439824
21
-0.6513
0
LINE
8
DEFAULT_255_1_234
10
19.9439824
20
-0.6513
11
19.1777546
21
-0.6513
0
LINE
8
DEFAULT_255_1_234
10
19.1777546
20
-0.6513
11
19.1777546
21
-0.5444779
0
LINE
8
DEFAULT_255_1_234
10
19.1777546
20
-0.5444779
11
19.5825542
21
-0.0947005
0
LINE
8
DEFAULT_255_1_234
10
19.3038529
20
0.1735595
11
19.1552657
21
0.1735595
0
LINE
8
DEFAULT_255_1_234
10
19.6701001
20
-0.1902782
11
19.3568624
21
-0.5300208
0
LINE
8
DEFAULT_255_1_234
10
19.3568624
20
-0.5300208
11
19.9439824
21
-0.5300208
0
ARC
8
DEFAULT_255_1_234
10
18.2335375
20
1.0982527
40
1.8008286
50
318.5132453
51
320.7828378
0
ARC
8
DEFAULT_255_1_234
10
18.762235
20
0.6679426
40
1.1191493
50
320.7372736
51
323.9737074
0
ARC
8
DEFAULT_255_1_234
10
19.1542206
20
0.3839361
40
0.6350923
50
323.8961724
51
328.6421089
0
ARC
8
DEFAULT_255_1_234
10
19.3588802
20
0.2577031
40
0.3946393
50
328.8299013
51
331.789948
0
ARC
8
DEFAULT_255_1_234
10
19.458598
20
0.2062509
40
0.2824501
50
331.4255242
51
352.9364833
0
ARC
8
DEFAULT_255_1_234
10
19.4722481
20
0.2031976
40
0.2685315
50
353.2248685
51
0.0169286
0
ARC
8
DEFAULT_255_1_234
10
19.4932357
20
0.205495
40
0.2475536
50
359.4866256
51
15.9339782
0
ARC
8
DEFAULT_255_1_234
10
19.5439343
20
0.2191286
40
0.1950618
50
16.1714718
51
43.5284424
0
ARC
8
DEFAULT_255_1_234
10
19.5516651
20
0.2268573
40
0.184134
50
43.4415429
51
83.1661404
0
ARC
8
DEFAULT_255_1_234
10
19.538257
20
0.1531771
40
0.258926
50
82.160215
51
90.1505798
0
ARC
8
DEFAULT_255_1_234
10
19.5350997
20
0.0994865
40
0.3126255
50
89.5460705
51
102.5418777
0
ARC
8
DEFAULT_255_1_234
10
19.5108083
20
0.2025665
40
0.2067346
50
102.1739365
51
129.2061916
0
ARC
8
DEFAULT_255_1_234
10
19.5029155
20
0.2150094
40
0.1921118
50
129.7279328
51
135.7542026
0
ARC
8
DEFAULT_255_1_234
10
19.5150682
20
0.2053045
40
0.2075944
50
136.175737
51
166.3674722
0
ARC
8
DEFAULT_255_1_234
10
19.6157602
20
0.1783182
40
0.3118201
50
165.9092917
51
178.8683903
0
ARC
8
DEFAULT_255_1_234
10
19.7022463
20
0.1736179
40
0.3983935
50
178.438168
51
180.0083905
0
ARC
8
DEFAULT_255_1_234
10
19.5621065
20
0.1775231
40
0.4068601
50
163.2878735
51
180.5581814
0
ARC
8
DEFAULT_255_1_234
10
19.4819326
20
0.199584
40
0.3237344
50
133.454115
51
162.9470031
0
ARC
8
DEFAULT_255_1_234
10
19.4997868
20
0.1806
40
0.349795
50
100.7869394
51
133.4384016
0
ARC
8
DEFAULT_255_1_234
10
19.5345639
20
0.0257319
40
0.5084616
50
89.6605301
51
101.3704185
0
ARC
8
DEFAULT_255_1_234
10
19.5411978
20
0.0318496
40
0.502348
50
78.2171172
51
90.4130393
0
ARC
8
DEFAULT_255_1_234
10
19.5767056
20
0.1942637
40
0.3361092
50
55.9268222
51
78.4888551
0
ARC
8
DEFAULT_255_1_234
10
19.5963497
20
0.2281324
40
0.2970617
50
47.9292255
51
55.4054003
0
ARC
8
DEFAULT_255_1_234
10
19.6065057
20
0.2384502
40
0.2825983
50
4.3347696
51
48.0560701
0
ARC
8
DEFAULT_255_1_234
10
19.4969451
20
0.2214601
40
0.393225
50
359.925209
51
5.5967654
0
ARC
8
DEFAULT_255_1_234
10
19.5398343
20
0.2270816
40
0.3503892
50
337.8914096
51
358.9967724
0
ARC
8
DEFAULT_255_1_234
10
19.2684755
20
0.3317706
40
0.6412172
50
326.9135351
51
338.3505194
0
ARC
8
DEFAULT_255_1_234
10
18.8699058
20
0.5872284
40
1.1146189
50
319.6472867
51
327.095818
0
ARC
8
DEFAULT_255_1_234
10
18.4866062
20
0.9034
40
1.6114559
50
317.2586784
51
319.9046139
0
ARC
8
DEFAULT_255_2_778
10
8.509117
20
42.3808756
40
0.4373747
50
56.3665942
51
72.7074496
0
ARC
8
DEFAULT_255_2_778
10
8.5463845
20
42.4944358
40
0.3178747
50
73.036784
51
89.7973226
0
ARC
8
DEFAULT_255_2_778
10
8.5537306
20
42.472049
40
0.3403165
50
91.0475309
51
125.5485458
0
ARC
8
DEFAULT_255_2_778
10
8.7194697
20
42.2231905
40
0.6392287
50
124.6669492
51
139.114563
0
ARC
8
DEFAULT_255_2_778
10
8.9609112
20
41.9997799
40
0.9680575
50
138.4713305
51
142.1157612
0
ARC
8
DEFAULT_255_2_778
10
8.583458
20
42.0305121
40
0.5212765
50
117.7453356
51
135.8758074
0
ARC
8
DEFAULT_255_2_778
10
8.486317
20
42.2128596
40
0.3146729
50
90.4656379
51
117.5483702
0
ARC
8
DEFAULT_255_2_778
10
8.4802065
20
42.1975957
40
0.3299454
50
64.3679478
51
89.3829577
0
ARC
8
DEFAULT_255_2_778
10
8.4478855
20
42.1160224
40
0.4175182
50
64.8738747
51
65.2115951
0
LINE
8
DEFAULT_255_2_778
10
8.1968689
20
42.5942331
11
8.1968689
21
42.7702331
0
LINE
8
DEFAULT_255_2_778
10
8.1968689
20
42.7702331
11
7.8565689
21
42.7702331
0
LINE
8
DEFAULT_255_2_778
10
7.8565689
20
42.7702331
11
7.8565689
21
41.5515331
0
LINE
8
DEFAULT_255_2_778
10
7.8565689
20
41.5515331
11
8.2219689
21
41.5515331
0
LINE
8
DEFAULT_255_2_778
10
8.2219689
20
41.5515331
11
8.2092689
21
42.3934331
0
LINE
8
DEFAULT_255_2_778
10
8.6251689
20
42.4940331
11
8.7513689
21
42.7450331
0
LINE
8
DEFAULT_255_2_778
10
15.2045689
20
41.5512331
11
15.2045689
21
42.7826331
0
LINE
8
DEFAULT_255_2_778
10
15.2045689
20
42.7826331
11
15.5702689
21
42.7826331
0
LINE
8
DEFAULT_255_2_778
10
15.5702689
20
42.7826331
11
15.5702689
21
41.5512331
0
LINE
8
DEFAULT_255_2_778
10
15.5702689
20
41.5512331
11
15.2045689
21
41.5512331
0
ARC
8
DEFAULT_255_2_778
10
15.3896435
20
43.175366
40
0.1978332
50
90.7257917
51
180.9507563
0
ARC
8
DEFAULT_255_2_778
10
15.3846161
20
43.1754493
40
0.1977501
50
359.0247012
51
89.2694187
0
ARC
8
DEFAULT_255_2_778
10
15.3846161
20
43.1687174
40
0.1977501
50
270.7305813
51
0.9752988
0
ARC
8
DEFAULT_255_2_778
10
15.3896435
20
43.1688007
40
0.1978332
50
179.0492437
51
269.2742083
0
LINE
8
DEFAULT_255_2_778
10
15.1918375
20
43.1720833
11
15.1918375
21
43.1720833
0
LINE
8
DEFAULT_255_2_778
10
16.8978729
20
41.5479854
11
16.8978729
21
42.7793854
0
LINE
8
DEFAULT_255_2_778
10
16.8978729
20
42.7793854
11
17.2635729
21
42.7793854
0
LINE
8
DEFAULT_255_2_778
10
17.2635729
20
42.7793854
11
17.2635729
21
41.5479854
0
LINE
8
DEFAULT_255_2_778
10
17.2635729
20
41.5479854
11
16.8978729
21
41.5479854
0
ARC
8
DEFAULT_255_2_778
10
17.0829435
20
43.172166
40
0.1978332
50
90.7257917
51
180.9507563
0
ARC
8
DEFAULT_255_2_778
10
17.0778509
20
43.172186
40
0.1978142
50
359.0433553
51
89.2507851
0
ARC
8
DEFAULT_255_2_778
10
17.077851
20
43.1655805
40
0.197814
50
270.7491796
51
0.9566796
0
ARC
8
DEFAULT_255_2_778
10
17.0829435
20
43.1656007
40
0.1978332
50
179.0492437
51
269.2742083
0
LINE
8
DEFAULT_255_2_778
10
16.8851375
20
43.1688833
11
16.8851375
21
43.1688833
0
ARC
8
DEFAULT_255_2_778
10
22.0788624
20
41.4304788
40
0.399929
50
186.2090497
51
214.6438559
0
ARC
8
DEFAULT_255_2_778
10
21.9921847
20
41.390624
40
0.3064065
50
217.727985
51
266.8306819
0
ARC
8
DEFAULT_255_2_778
10
22.0316252
20
41.6009571
40
0.5193404
50
263.7675625
51
266.8049274
0
ARC
8
DEFAULT_255_2_778
10
22.0082454
20
41.4071919
40
0.2399325
50
195.4006145
51
268.6707088
0
ARC
8
DEFAULT_255_2_778
10
22.2805996
20
41.533176
40
0.5382116
50
193.3258898
51
200.6383232
0
ARC
8
DEFAULT_255_2_778
10
22.0638429
20
41.38019
40
0.3083241
50
141.9083968
51
174.6152863
0
ARC
8
DEFAULT_255_2_778
10
22.0026746
20
41.4061305
40
0.2447935
50
89.9988769
51
137.8510912
0
ARC
8
DEFAULT_255_2_778
10
21.9982309
20
41.4238687
40
0.3117869
50
89.1824841
51
162.3459304
0
ARC
8
DEFAULT_255_2_778
10
22.258036
20
41.2919629
40
0.6011919
50
157.8713755
51
162.5920001
0
ARC
8
DEFAULT_255_2_778
10
13.7766756
20
41.9609305
40
0.434232
50
284.0737984
51
307.1283935
0
ARC
8
DEFAULT_255_2_778
10
13.6851625
20
42.297507
40
0.7829896
50
272.5675489
51
284.5802087
0
ARC
8
DEFAULT_255_2_778
10
13.6592437
20
42.6564017
40
1.1427274
50
269.9523961
51
273.0596894
0
ARC
8
DEFAULT_255_2_778
10
13.6631315
20
43.0380793
40
1.5244123
50
264.3721605
51
269.8181894
0
ARC
8
DEFAULT_255_2_778
10
13.7276162
20
43.7098534
40
2.1992727
50
260.3040359
51
264.4165702
0
ARC
8
DEFAULT_255_2_778
10
13.8169183
20
44.2622771
40
2.75885
50
259.2299789
51
260.4081406
0
ARC
8
DEFAULT_255_2_778
10
13.5378686
20
42.1118398
40
0.6077178
50
188.8927198
51
247.0988028
0
ARC
8
DEFAULT_255_2_778
10
13.8804177
20
42.2029831
40
0.9609548
50
185.1081288
51
191.1050073
0
ARC
8
DEFAULT_255_2_778
10
13.7482073
20
42.1304785
40
0.8250312
50
161.5072483
51
180.9066349
0
ARC
8
DEFAULT_255_2_778
10
13.4992734
20
42.2092242
40
0.5639907
50
120.4701872
51
161.0725957
0
ARC
8
DEFAULT_255_2_778
10
13.5849214
20
42.1424885
40
0.6661417
50
90.0499347
51
123.9108507
0
ARC
8
DEFAULT_255_2_778
10
13.5978311
20
41.9859595
40
0.8227812
50
89.9974966
51
90.9394619
0
ARC
8
DEFAULT_255_2_778
10
13.5918811
20
41.8249209
40
0.9838382
50
77.8335832
51
89.6513936
0
ARC
8
DEFAULT_255_2_778
10
13.5043967
20
41.4070168
40
1.4107957
50
69.8093959
51
77.9373312
0
ARC
8
DEFAULT_255_2_778
10
13.4008346
20
41.1052522
40
1.7297745
50
69.0266426
51
70.0397415
0
ARC
8
DEFAULT_255_2_778
10
13.559202
20
41.1271779
40
1.4359408
50
73.9178594
51
79.2452957
0
ARC
8
DEFAULT_255_2_778
10
13.6567017
20
41.6474721
40
0.9065925
50
79.1629935
51
86.6049203
0
ARC
8
DEFAULT_255_2_778
10
13.6747301
20
41.8987944
40
0.654651
50
86.8774046
51
89.9568351
0
ARC
8
DEFAULT_255_2_778
10
13.6672581
20
42.136064
40
0.4174572
50
88.9067133
51
108.0688095
0
ARC
8
DEFAULT_255_2_778
10
13.6100304
20
42.3098074
40
0.2345328
50
107.942404
51
152.2459688
0
ARC
8
DEFAULT_255_2_778
10
14.3241597
20
41.9795486
40
1.0210941
50
154.5072776
51
162.5682748
0
ARC
8
DEFAULT_255_2_778
10
13.952215
20
42.0942929
40
0.6318603
50
162.3915767
51
174.8213024
0
ARC
8
DEFAULT_255_2_778
10
13.787072
20
42.1131035
40
0.4657093
50
175.2922289
51
179.9490984
0
ARC
8
DEFAULT_255_2_778
10
13.6599161
20
42.1057143
40
0.338643
50
178.6796766
51
234.9381893
0
ARC
8
DEFAULT_255_2_778
10
13.6575594
20
42.1173791
40
0.3469445
50
236.3635337
51
264.9414885
0
ARC
8
DEFAULT_255_2_778
10
13.6836236
20
42.2928656
40
0.5241505
50
263.7947872
51
270.1188666
0
ARC
8
DEFAULT_255_2_778
10
13.6783507
20
42.5302527
40
0.7615633
50
270.4785196
51
281.0719661
0
ARC
8
DEFAULT_255_2_778
10
13.5940398
20
42.9841133
40
1.2231753
50
280.8649891
51
287.2606546
0
ARC
8
DEFAULT_255_2_778
10
14.6487772
20
43.8170389
40
2.2970478
50
276.5245429
51
279.5045514
0
ARC
8
DEFAULT_255_2_778
10
14.7141671
20
43.2394037
40
1.7157236
50
272.7759418
51
276.5469051
0
ARC
8
DEFAULT_255_2_778
10
14.7339562
20
42.8591464
40
1.3349546
50
270.0439674
51
272.7180028
0
ARC
8
DEFAULT_255_2_778
10
14.7253399
20
42.3909869
40
0.8668484
50
258.6359382
51
270.6372354
0
ARC
8
DEFAULT_255_2_778
10
14.6326818
20
41.9550616
40
0.4212409
50
235.5405817
51
259.3086539
0
ARC
8
DEFAULT_255_2_778
10
14.5715943
20
41.8477304
40
0.2983588
50
181.5929591
51
233.550276
0
ARC
8
DEFAULT_255_2_778
10
14.7698134
20
41.8776912
40
0.4979343
50
179.9387066
51
184.4062155
0
ARC
8
DEFAULT_255_2_778
10
14.863071
20
41.9736312
40
0.2330741
50
194.3604277
51
259.8152315
0
ARC
8
DEFAULT_255_2_778
10
14.9677954
20
42.339228
40
0.6126343
50
256.2189254
51
270.9017933
0
ARC
8
DEFAULT_255_2_778
10
14.9769331
20
42.7065407
40
0.9798713
50
270.0294871
51
272.2486365
0
LINE
8
DEFAULT_255_2_778
10
15.6204794
20
42.7762239
11
15.9670794
21
42.7762239
0
LINE
8
DEFAULT_255_2_778
10
15.9670794
20
42.7762239
11
16.2379794
21
42.0349239
0
LINE
8
DEFAULT_255_2_778
10
16.2379794
20
42.0349239
11
16.5088794
21
42.7823239
0
LINE
8
DEFAULT_255_2_778
10
16.5088794
20
42.7823239
11
16.8176794
21
42.7823239
0
LINE
8
DEFAULT_255_2_778
10
16.8176794
20
42.7823239
11
16.3133794
21
41.5321239
0
LINE
8
DEFAULT_255_2_778
10
16.3133794
20
41.5321239
11
16.0926794
21
41.5321239
0
LINE
8
DEFAULT_255_2_778
10
16.0926794
20
41.5321239
11
15.6204794
21
42.7762239
0
LINE
8
DEFAULT_255_2_778
10
19.3386794
20
42.1354239
11
19.3605794
21
42.0536239
0
LINE
8
DEFAULT_255_2_778
10
19.3605794
20
42.0536239
11
19.4960794
21
42.1259239
0
LINE
8
DEFAULT_255_2_778
10
19.4960794
20
42.1259239
11
19.4960794
21
41.4694239
0
LINE
8
DEFAULT_255_2_778
10
19.4960794
20
41.4694239
11
19.5968794
21
41.4694239
0
LINE
8
DEFAULT_255_2_778
10
19.5968794
20
41.4694239
11
19.5904794
21
42.2169239
0
LINE
8
DEFAULT_255_2_778
10
19.5904794
20
42.2169239
11
19.5023794
21
42.2169239
0
LINE
8
DEFAULT_255_2_778
10
19.5023794
20
42.2169239
11
19.3386794
21
42.1354239
0
LINE
8
DEFAULT_255_2_778
10
6.2430794
20
43.4046239
11
6.3250794
21
43.4046239
0
LINE
8
DEFAULT_255_2_778
10
6.3250794
20
43.4046239
11
6.3250794
21
41.4477239
0
LINE
8
DEFAULT_255_2_778
10
6.3250794
20
41.4477239
11
18.5318794
21
41.4446239
0
LINE
8
DEFAULT_255_2_778
10
18.5318794
20
41.4446239
11
18.5350794
21
41.3628239
0
LINE
8
DEFAULT_255_2_778
10
18.5350794
20
41.3628239
11
6.2430794
21
41.3628239
0
LINE
8
DEFAULT_255_2_778
10
6.2430794
20
41.3628239
11
6.2430794
21
43.3983239
0
LINE
8
DEFAULT_255_2_778
10
19.0753794
20
41.4750239
11
19.0753794
21
41.3872239
0
LINE
8
DEFAULT_255_2_778
10
19.0753794
20
41.3872239
11
21.6812794
21
41.3872239
0
LINE
8
DEFAULT_255_2_778
10
22.0026794
20
41.0824239
11
22.0026794
21
41.1673239
0
LINE
8
DEFAULT_255_2_778
10
22.0026794
20
41.6509239
11
22.0026794
21
41.7356239
0
LINE
8
DEFAULT_255_2_778
10
21.6843794
20
41.4718239
11
19.0816794
21
41.4718239
0
LINE
8
DEFAULT_255_2_778
10
13.9630794
20
41.8158239
11
14.0387794
21
41.6147239
0
LINE
8
DEFAULT_255_2_778
10
14.0199794
20
42.7204239
11
13.9569794
21
42.5069239
0
LINE
8
DEFAULT_255_2_778
10
14.2718794
20
41.8782239
11
14.2718794
21
42.5690239
0
LINE
8
DEFAULT_255_2_778
10
14.2718794
20
42.5690239
11
14.0826794
21
42.5690239
0
LINE
8
DEFAULT_255_2_778
10
14.0826794
20
42.5690239
11
14.0826794
21
42.7826239
0
LINE
8
DEFAULT_255_2_778
10
14.0826794
20
42.7826239
11
14.2718794
21
42.7826239
0
LINE
8
DEFAULT_255_2_778
10
14.2718794
20
42.7826239
11
14.4104794
21
43.2850239
0
LINE
8
DEFAULT_255_2_778
10
14.4104794
20
43.2850239
11
14.6247794
21
43.2850239
0
LINE
8
DEFAULT_255_2_778
10
14.6247794
20
43.2850239
11
14.6374794
21
42.7826239
0
LINE
8
DEFAULT_255_2_778
10
14.6374794
20
42.7826239
11
14.9777794
21
42.7826239
0
LINE
8
DEFAULT_255_2_778
10
14.9777794
20
42.7826239
11
14.9777794
21
42.5690239
0
LINE
8
DEFAULT_255_2_778
10
14.9777794
20
42.5690239
11
14.6372794
21
42.5690239
0
LINE
8
DEFAULT_255_2_778
10
14.6372794
20
42.5690239
11
14.6372794
21
41.9158239
0
LINE
8
DEFAULT_255_2_778
10
15.0153794
20
41.7274239
11
15.0280794
21
41.5515239
0
ARC
8
DEFAULT_255_2_778
10
18.3024027
20
41.4107006
40
0.5885618
50
314.1425413
51
331.9270918
0
ARC
8
DEFAULT_255_2_778
10
18.4398834
20
41.2705729
40
0.3922584
50
269.0322425
51
313.9868193
0
ARC
8
DEFAULT_255_2_778
10
18.4381885
20
41.4628771
40
0.5845273
50
255.6360648
51
269.5167247
0
ARC
8
DEFAULT_255_2_778
10
18.5134055
20
41.7663721
40
0.8971981
50
246.6811795
51
255.790956
0
ARC
8
DEFAULT_255_2_778
10
18.6382092
20
42.0694441
40
1.224929
50
243.4462224
51
246.9319367
0
ARC
8
DEFAULT_255_2_778
10
18.3621687
20
41.4989307
40
0.3648127
50
238.6960142
51
269.7522384
0
ARC
8
DEFAULT_255_2_778
10
18.3585706
20
41.5329979
40
0.3988816
50
270.2902271
51
286.0302682
0
ARC
8
DEFAULT_255_2_778
10
18.3439528
20
41.3546393
40
0.2399938
50
301.3239159
51
328.5484084
0
ARC
8
DEFAULT_255_2_778
10
17.8593662
20
41.6808932
40
0.8240117
50
326.7768178
51
337.3925755
0
ARC
8
DEFAULT_255_2_778
10
16.8007869
20
42.1395542
40
1.9776351
50
336.9149998
51
342.1307954
0
ARC
8
DEFAULT_255_2_778
10
18.1252835
20
41.9441636
40
0.1954042
50
190.120766
51
263.958695
0
ARC
8
DEFAULT_255_2_778
10
18.2014334
20
42.2467827
40
0.5062622
50
258.9866291
51
270.5697296
0
ARC
8
DEFAULT_255_2_778
10
18.204321
20
42.5642145
40
0.8236717
50
270.1493118
51
275.0745303
0
ARC
8
DEFAULT_255_2_778
10
18.1872931
20
42.7813127
40
1.0414275
50
274.9512067
51
276.4741818
0
ARC
8
DEFAULT_255_2_778
10
17.9114118
20
44.0375729
40
2.5197089
50
276.512457
51
279.4178429
0
ARC
8
DEFAULT_255_2_778
10
17.9872799
20
43.3672245
40
1.8450814
50
272.9002784
51
276.532699
0
ARC
8
DEFAULT_255_2_778
10
18.0109581
20
42.9249216
40
1.4021477
50
270.0528156
51
272.8484525
0
ARC
8
DEFAULT_255_2_778
10
18.0029255
20
42.4161315
40
0.8934054
50
259.5071449
51
270.5980454
0
ARC
8
DEFAULT_255_2_778
10
17.912813
20
41.9551743
40
0.4237716
50
238.7101736
51
260.1371304
0
ARC
8
DEFAULT_255_2_778
10
17.8289731
20
41.8087213
40
0.2551147
50
181.256628
51
237.7180126
0
LINE
8
DEFAULT_255_2_778
10
18.0906198
20
40.9737265
11
18.1726198
21
41.1872265
0
LINE
8
DEFAULT_255_2_778
10
18.6830198
20
41.5327265
11
18.2544198
21
42.5630265
0
LINE
8
DEFAULT_255_2_778
10
18.2544198
20
42.5630265
11
17.9329198
21
42.5630265
0
LINE
8
DEFAULT_255_2_778
10
17.9329198
20
42.5630265
11
17.9329198
21
41.9098265
0
LINE
8
DEFAULT_255_2_778
10
18.3047198
20
41.7465265
11
18.3237198
21
41.5518265
0
LINE
8
DEFAULT_255_2_778
10
17.5739198
20
41.8031265
11
17.5612198
21
42.5696265
0
LINE
8
DEFAULT_255_2_778
10
17.5612198
20
42.5696265
11
17.3720198
21
42.5696265
0
LINE
8
DEFAULT_255_2_778
10
17.3720198
20
42.5696265
11
17.3720198
21
42.7832265
0
LINE
8
DEFAULT_255_2_778
10
17.3720198
20
42.7832265
11
17.5736198
21
42.7832265
0
LINE
8
DEFAULT_255_2_778
10
17.5736198
20
42.7832265
11
17.6996198
21
43.2856265
0
LINE
8
DEFAULT_255_2_778
10
17.6996198
20
43.2856265
11
17.9139198
21
43.2856265
0
LINE
8
DEFAULT_255_2_778
10
17.9139198
20
43.2856265
11
17.9266198
21
42.7832265
0
LINE
8
DEFAULT_255_2_778
10
17.9266198
20
42.7832265
11
18.5568198
21
42.7832265
0
LINE
8
DEFAULT_255_2_778
10
18.5568198
20
42.7832265
11
18.8592198
21
41.9540265
0
LINE
8
DEFAULT_255_2_778
10
18.8592198
20
41.9540265
11
19.1616198
21
42.7832265
0
LINE
8
DEFAULT_255_2_778
10
19.1616198
20
42.7832265
11
19.4768198
21
42.7832265
0
LINE
8
DEFAULT_255_2_778
10
19.4768198
20
42.7832265
11
18.8214198
21
41.1372265
0
ARC
8
DEFAULT_255_2_778
10
20.4886862
20
41.8479313
40
0.5325132
50
158.8117849
51
180.8166314
0
ARC
8
DEFAULT_255_2_778
10
20.1842351
20
41.9740458
40
0.2032019
50
123.934274
51
160.9412119
0
ARC
8
DEFAULT_255_2_778
10
20.1146708
20
42.0670343
40
0.0874105
50
90.4874929
51
120.1257683
0
ARC
8
DEFAULT_255_2_778
10
20.1002562
20
42.0286743
40
0.1265082
50
24.4554496
51
83.7963195
0
ARC
8
DEFAULT_255_2_778
10
19.838393
20
41.8724289
40
0.4308905
50
5.6598625
51
28.957143
0
ARC
8
DEFAULT_255_2_778
10
19.6526819
20
41.8408841
40
0.6189454
50
359.9497817
51
6.8703696
0
ARC
8
DEFAULT_255_2_778
10
19.739561
20
41.8328406
40
0.532119
50
338.804197
51
0.8077062
0
ARC
8
DEFAULT_255_2_778
10
20.0434041
20
41.7068836
40
0.2034314
50
303.9637337
51
340.9394474
0
ARC
8
DEFAULT_255_2_778
10
20.1131773
20
41.6136817
40
0.0873432
50
270.4918639
51
300.1560267
0
ARC
8
DEFAULT_255_2_778
10
20.1275984
20
41.6521157
40
0.1265149
50
204.4617097
51
263.7964427
0
ARC
8
DEFAULT_255_2_778
10
20.3893028
20
41.8083099
40
0.4307345
50
185.6642403
51
208.9631817
0
ARC
8
DEFAULT_255_2_778
10
20.5745796
20
41.8398017
40
0.6183526
50
179.9499665
51
186.873664
0
ARC
8
DEFAULT_255_2_778
10
20.3794104
20
41.8444257
40
0.5240325
50
152.511927
51
180.7855003
0
ARC
8
DEFAULT_255_2_778
10
20.153316
20
41.9723056
40
0.264594
50
107.9689651
51
154.4798484
0
ARC
8
DEFAULT_255_2_778
10
20.1171586
20
42.0501433
40
0.1796984
50
90.01006
51
104.6572928
0
ARC
8
DEFAULT_255_2_778
10
20.1028885
20
41.999023
40
0.2312574
50
28.2083535
51
86.4700607
0
ARC
8
DEFAULT_255_2_778
10
19.8816202
20
41.8518591
40
0.4964429
50
2.8146136
51
31.1060953
0
ARC
8
DEFAULT_255_2_778
10
19.7786343
20
41.8373264
40
0.6000928
50
359.9919055
51
3.7176902
0
ARC
8
DEFAULT_255_2_778
10
19.8537274
20
41.8300993
40
0.5250483
50
332.6664514
51
0.7794307
0
ARC
8
DEFAULT_255_2_778
10
20.0799829
20
41.7029762
40
0.2658372
50
288.4439106
51
334.6152105
0
ARC
8
DEFAULT_255_2_778
10
20.1170892
20
41.6243069
40
0.1797652
50
270.012078
51
285.1556488
0
ARC
8
DEFAULT_255_2_778
10
20.1313807
20
41.6754594
40
0.2313572
50
208.2191033
51
266.4678588
0
ARC
8
DEFAULT_255_2_778
10
20.3525546
20
41.8226219
40
0.4964632
50
182.8162116
51
211.116011
0
ARC
8
DEFAULT_255_2_778
10
20.4554662
20
41.8371534
40
0.6000391
50
179.9915681
51
183.7193211
0
LINE
8
DEFAULT_255_2_778
10
19.9562271
20
41.8403417
11
19.9562271
21
41.8403417
0
LINE
8
DEFAULT_255_2_778
10
19.8554271
20
41.8372417
11
19.8554271
21
41.8372417
0
ARC
8
DEFAULT_255_2_778
10
21.0810862
20
41.8479313
40
0.5325132
50
158.8117849
51
180.8166314
0
ARC
8
DEFAULT_255_2_778
10
20.7766351
20
41.9740458
40
0.2032019
50
123.934274
51
160.9412119
0
ARC
8
DEFAULT_255_2_778
10
20.7070708
20
42.0670343
40
0.0874105
50
90.4874929
51
120.1257683
0
ARC
8
DEFAULT_255_2_778
10
20.6926562
20
42.0286743
40
0.1265082
50
24.4554496
51
83.7963195
0
ARC
8
DEFAULT_255_2_778
10
20.430793
20
41.8724289
40
0.4308905
50
5.6598625
51
28.957143
0
ARC
8
DEFAULT_255_2_778
10
20.2450819
20
41.8408841
40
0.6189454
50
359.9497817
51
6.8703696
0
ARC
8
DEFAULT_255_2_778
10
20.331961
20
41.8328406
40
0.532119
50
338.804197
51
0.8077062
0
ARC
8
DEFAULT_255_2_778
10
20.6358041
20
41.7068836
40
0.2034314
50
303.9637337
51
340.9394474
0
ARC
8
DEFAULT_255_2_778
10
20.7055773
20
41.6136817
40
0.0873432
50
270.4918639
51
300.1560267
0
ARC
8
DEFAULT_255_2_778
10
20.7199984
20
41.6521157
40
0.1265149
50
204.4617097
51
263.7964427
0
ARC
8
DEFAULT_255_2_778
10
20.9817028
20
41.8083099
40
0.4307345
50
185.6642403
51
208.9631817
0
ARC
8
DEFAULT_255_2_778
10
21.1669796
20
41.8398017
40
0.6183526
50
179.9499665
51
186.873664
0
ARC
8
DEFAULT_255_2_778
10
20.9718104
20
41.8444257
40
0.5240325
50
152.511927
51
180.7855003
0
ARC
8
DEFAULT_255_2_778
10
20.745716
20
41.9723056
40
0.264594
50
107.9689651
51
154.4798484
0
ARC
8
DEFAULT_255_2_778
10
20.7095586
20
42.0501433
40
0.1796984
50
90.01006
51
104.6572928
0
ARC
8
DEFAULT_255_2_778
10
20.6952885
20
41.999023
40
0.2312574
50
28.2083535
51
86.4700607
0
ARC
8
DEFAULT_255_2_778
10
20.4740202
20
41.8518591
40
0.4964429
50
2.8146136
51
31.1060953
0
ARC
8
DEFAULT_255_2_778
10
20.3710343
20
41.8373264
40
0.6000928
50
359.9919055
51
3.7176902
0
ARC
8
DEFAULT_255_2_778
10
20.4461274
20
41.8300993
40
0.5250483
50
332.6664514
51
0.7794307
0
ARC
8
DEFAULT_255_2_778
10
20.6723829
20
41.7029762
40
0.2658372
50
288.4439106
51
334.6152105
0
ARC
8
DEFAULT_255_2_778
10
20.7094892
20
41.6243069
40
0.1797652
50
270.012078
51
285.1556488
0
ARC
8
DEFAULT_255_2_778
10
20.7237807
20
41.6754594
40
0.2313572
50
208.2191033
51
266.4678588
0
ARC
8
DEFAULT_255_2_778
10
20.9449546
20
41.8226219
40
0.4964632
50
182.8162116
51
211.116011
0
ARC
8
DEFAULT_255_2_778
10
21.0478662
20
41.8371534
40
0.6000391
50
179.9915681
51
183.7193211
0
LINE
8
DEFAULT_255_2_778
10
20.5486271
20
41.8403417
11
20.5486271
21
41.8403417
0
LINE
8
DEFAULT_255_2_778
10
20.4478271
20
41.8372417
11
20.4478271
21
41.8372417
0
ARC
8
DEFAULT_255_2_778
10
21.6734862
20
41.8479313
40
0.5325132
50
158.8117849
51
180.8166314
0
ARC
8
DEFAULT_255_2_778
10
21.3690351
20
41.9740458
40
0.2032019
50
123.934274
51
160.9412119
0
ARC
8
DEFAULT_255_2_778
10
21.2994708
20
42.0670343
40
0.0874105
50
90.4874929
51
120.1257683
0
ARC
8
DEFAULT_255_2_778
10
21.2850562
20
42.0286743
40
0.1265082
50
24.4554496
51
83.7963195
0
ARC
8
DEFAULT_255_2_778
10
21.023193
20
41.8724289
40
0.4308905
50
5.6598625
51
28.957143
0
ARC
8
DEFAULT_255_2_778
10
20.8374819
20
41.8408841
40
0.6189454
50
359.9497817
51
6.8703696
0
ARC
8
DEFAULT_255_2_778
10
20.924361
20
41.8328406
40
0.532119
50
338.804197
51
0.8077062
0
ARC
8
DEFAULT_255_2_778
10
21.2282041
20
41.7068836
40
0.2034314
50
303.9637337
51
340.9394474
0
ARC
8
DEFAULT_255_2_778
10
21.2979773
20
41.6136817
40
0.0873432
50
270.4918639
51
300.1560267
0
ARC
8
DEFAULT_255_2_778
10
21.3123984
20
41.6521157
40
0.1265149
50
204.4617097
51
263.7964427
0
ARC
8
DEFAULT_255_2_778
10
21.5741028
20
41.8083099
40
0.4307345
50
185.6642403
51
208.9631817
0
ARC
8
DEFAULT_255_2_778
10
21.7593796
20
41.8398017
40
0.6183526
50
179.9499665
51
186.873664
0
ARC
8
DEFAULT_255_2_778
10
21.5642104
20
41.8444257
40
0.5240325
50
152.511927
51
180.7855003
0
ARC
8
DEFAULT_255_2_778
10
21.338116
20
41.9723056
40
0.264594
50
107.9689651
51
154.4798484
0
ARC
8
DEFAULT_255_2_778
10
21.3019586
20
42.0501433
40
0.1796984
50
90.01006
51
104.6572928
0
ARC
8
DEFAULT_255_2_778
10
21.2876885
20
41.999023
40
0.2312574
50
28.2083535
51
86.4700607
0
ARC
8
DEFAULT_255_2_778
10
21.0664202
20
41.8518591
40
0.4964429
50
2.8146136
51
31.1060953
0
ARC
8
DEFAULT_255_2_778
10
20.9634343
20
41.8373264
40
0.6000928
50
359.9919055
51
3.7176902
0
ARC
8
DEFAULT_255_2_778
10
21.0385274
20
41.8300993
40
0.5250483
50
332.6664514
51
0.7794307
0
ARC
8
DEFAULT_255_2_778
10
21.2647829
20
41.7029762
40
0.2658372
50
288.4439106
51
334.6152105
0
ARC
8
DEFAULT_255_2_778
10
21.3018892
20
41.6243069
40
0.1797652
50
270.012078
51
285.1556488
0
ARC
8
DEFAULT_255_2_778
10
21.3161807
20
41.6754594
40
0.2313572
50
208.2191033
51
266.4678588
0
ARC
8
DEFAULT_255_2_778
10
21.5373546
20
41.8226219
40
0.4964632
50
182.8162116
51
211.116011
0
ARC
8
DEFAULT_255_2_778
10
21.6402662
20
41.8371534
40
0.6000391
50
179.9915681
51
183.7193211
0
LINE
8
DEFAULT_255_2_778
10
21.1410271
20
41.8403417
11
21.1410271
21
41.8403417
0
LINE
8
DEFAULT_255_2_778
10
21.0402271
20
41.8372417
11
21.0402271
21
41.8372417
0
ARC
8
DEFAULT_255_2_778
10
9.3873819
20
42.1733426
40
0.1950108
50
91.6788031
51
181.813939
0
ARC
8
DEFAULT_255_2_778
10
9.375889
20
42.1732798
40
0.1950756
50
358.2051219
51
88.3021655
0
ARC
8
DEFAULT_255_2_778
10
9.3758891
20
42.1610596
40
0.1950754
50
271.6978133
51
1.7949071
0
ARC
8
DEFAULT_255_2_778
10
9.3873819
20
42.1609969
40
0.1950108
50
178.186061
51
268.3211969
0
ARC
8
DEFAULT_255_2_778
10
9.5333727
20
42.1739309
40
0.4668529
50
145.043768
51
180.8298084
0
ARC
8
DEFAULT_255_2_778
10
9.3902029
20
42.2816132
40
0.287883
50
91.6987406
51
146.2830079
0
ARC
8
DEFAULT_255_2_778
10
9.3664457
20
42.2646621
40
0.3050877
50
23.4934874
51
87.1398977
0
ARC
8
DEFAULT_255_2_778
10
9.2119732
20
42.1707629
40
0.484809
50
359.5753549
51
26.3944218
0
ARC
8
DEFAULT_255_2_778
10
9.2302375
20
42.16042
40
0.4665802
50
325.0256173
51
0.8288991
0
ARC
8
DEFAULT_255_2_778
10
9.3731106
20
42.0528699
40
0.2879274
50
271.7032906
51
326.2656695
0
ARC
8
DEFAULT_255_2_778
10
9.3969078
20
42.0699987
40
0.3053095
50
203.3271307
51
267.1389871
0
ARC
8
DEFAULT_255_2_778
10
9.5516258
20
42.163593
40
0.4850703
50
179.5775117
51
206.2433806
0
ARC
8
DEFAULT_255_2_778
10
9.3711242
20
42.1482025
40
0.6700752
50
95.9615992
51
178.9168048
0
ARC
8
DEFAULT_255_2_778
10
9.3941457
20
42.0801302
40
0.7403396
50
89.982733
51
97.186551
0
ARC
8
DEFAULT_255_2_778
10
9.3986015
20
42.1103279
40
0.7101545
50
48.1622127
51
90.3414937
0
ARC
8
DEFAULT_255_2_778
10
9.4447028
20
42.1593697
40
0.6428678
50
0.1336951
51
48.3079447
0
ARC
8
DEFAULT_255_2_778
10
9.4177539
20
42.1734035
40
0.6699322
50
275.9543621
51
358.9279918
0
ARC
8
DEFAULT_255_2_778
10
9.3945956
20
42.2422114
40
0.7409416
50
269.9824665
51
277.1836307
0
ARC
8
DEFAULT_255_2_778
10
9.3901051
20
42.2117743
40
0.7105173
50
228.7495498
51
270.3438303
0
ARC
8
DEFAULT_255_2_778
10
9.3444767
20
42.1623952
40
0.6433097
50
180.1358579
51
228.9051204
0
LINE
8
DEFAULT_255_2_778
10
11.1149688
20
42.5068698
11
11.1149688
21
41.8785698
0
ARC
8
DEFAULT_255_2_778
10
10.4507178
20
43.0717512
40
1.3656176
50
292.8223416
51
299.1049387
0
ARC
8
DEFAULT_255_2_778
10
10.7172229
20
42.4300623
40
0.6708024
50
282.4794629
51
293.1002978
0
ARC
8
DEFAULT_255_2_778
10
10.7905801
20
42.1045416
40
0.3371233
50
270.5838487
51
282.2615078
0
ARC
8
DEFAULT_255_2_778
10
10.7886817
20
41.937928
40
0.1705756
50
241.3798642
51
271.7918735
0
ARC
8
DEFAULT_255_2_778
10
10.7725697
20
41.901112
40
0.1305871
50
222.8095502
51
239.8477433
0
ARC
8
DEFAULT_255_2_778
10
10.8632448
20
42.0256648
40
0.2833162
50
195.5923976
51
228.8379937
0
ARC
8
DEFAULT_255_2_778
10
11.2482514
20
42.1494125
40
0.6875956
50
182.8988217
51
196.901328
0
ARC
8
DEFAULT_255_2_778
10
11.7546763
20
42.1915595
40
1.1956176
50
179.9089191
51
183.6886871
0
ARC
8
DEFAULT_255_2_778
10
12.1230229
20
42.1919544
40
1.5639636
50
177.2544012
51
179.9448392
0
LINE
8
DEFAULT_255_2_778
10
10.5608547
20
42.2668705
11
10.5608688
21
42.2671698
0
ARC
8
DEFAULT_255_2_778
10
11.0254754
20
42.2022208
40
0.4691244
50
149.0121274
51
172.0420019
0
ARC
8
DEFAULT_255_2_778
10
10.8596413
20
42.2926494
40
0.280511
50
88.5440138
51
147.4067729
0
ARC
8
DEFAULT_255_2_778
10
10.7906193
20
41.7424864
40
0.8340669
50
72.0203436
51
84.7616527
0
ARC
8
DEFAULT_255_2_778
10
10.9080282
20
42.1205191
40
0.4382821
50
61.8252032
51
71.3646611
0
ARC
8
DEFAULT_255_2_778
10
10.4986962
20
42.7909032
40
1.2918982
50
287.0682731
51
298.4915226
0
ARC
8
DEFAULT_255_2_778
10
10.6577818
20
42.2679772
40
0.7453122
50
270.6811176
51
287.1763457
0
ARC
8
DEFAULT_255_2_778
10
10.6665525
20
42.1019494
40
0.5792318
50
267.7358327
51
270.0088232
0
ARC
8
DEFAULT_255_2_778
10
10.6470952
20
41.9423768
40
0.4192211
50
203.9093897
51
269.5317059
0
ARC
8
DEFAULT_255_2_778
10
11.1145726
20
42.2017122
40
0.9528801
50
192.6009015
51
206.7737237
0
ARC
8
DEFAULT_255_2_778
10
11.5163822
20
42.3100427
40
1.3687639
50
192.6165694
51
193.3570279
0
ARC
8
DEFAULT_255_2_778
10
11.2164444
20
42.2042151
40
1.05363
50
182.6356817
51
190.5628607
0
ARC
8
DEFAULT_255_2_778
10
11.0629576
20
42.1946692
40
0.89987
50
180.0135228
51
182.4779265
0
ARC
8
DEFAULT_255_2_778
10
10.8371185
20
42.2105664
40
0.6742234
50
136.7456723
51
181.3691273
0
ARC
8
DEFAULT_255_2_778
10
10.687757
20
42.2993873
40
0.5059802
50
89.2314975
51
132.4774114
0
ARC
8
DEFAULT_255_2_778
10
10.6944571
20
42.1886601
40
0.6166618
50
87.8056342
51
89.9919799
0
ARC
8
DEFAULT_255_2_778
10
10.7056164
20
41.6469717
40
1.157965
50
70.3175508
51
89.3838437
0
ARC
8
DEFAULT_255_2_778
10
10.6142508
20
41.3394874
40
1.4783609
50
70.2024224
51
70.9971735
0
ARC
8
DEFAULT_255_2_778
10
6.8356463
20
42.8578908
40
0.4410946
50
358.399361
51
20.0218069
0
ARC
8
DEFAULT_255_2_778
10
7.0501301
20
42.9339859
40
0.2135292
50
20.5419455
51
86.7410997
0
ARC
8
DEFAULT_255_2_778
10
6.965547
20
42.8939555
40
0.314717
50
287.8983612
51
351.2113386
0
ARC
8
DEFAULT_255_2_778
10
7.0636919
20
42.8427198
40
0.618465
50
4.9299985
51
29.9140029
0
ARC
8
DEFAULT_255_2_778
10
7.1679648
20
42.8835178
40
0.5080106
50
31.7908677
51
73.6304902
0
ARC
8
DEFAULT_255_2_778
10
7.032524
20
42.5014821
40
0.9130031
50
72.2320975
51
84.9703096
0
ARC
8
DEFAULT_255_2_778
10
6.9980565
20
43.2662673
40
0.9427779
50
276.9765222
51
292.3131775
0
ARC
8
DEFAULT_255_2_778
10
7.177357
20
42.8587302
40
0.4978062
50
291.0302401
51
353.4987619
0
ARC
8
DEFAULT_255_2_778
10
6.907836
20
42.9140679
40
0.7722473
50
351.6832812
51
358.6496898
0
LINE
8
DEFAULT_255_2_778
10
9.1924688
20
42.1671698
11
9.1924688
21
42.1671698
0
LINE
8
DEFAULT_255_2_778
10
9.0665688
20
42.1671698
11
9.0665688
21
42.1671698
0
LINE
8
DEFAULT_255_2_778
10
8.7011688
20
42.1608698
11
8.7011688
21
42.1608698
0
LINE
8
DEFAULT_255_2_778
10
11.1149688
20
42.5068698
11
11.1149688
21
42.5068698
0
LINE
8
DEFAULT_255_2_778
10
11.1149688
20
42.7302698
11
11.1149688
21
43.4826698
0
LINE
8
DEFAULT_255_2_778
10
11.1149688
20
43.4826698
11
11.4787688
21
43.5239698
0
LINE
8
DEFAULT_255_2_778
10
11.4787688
20
43.5239698
11
11.4787688
21
41.5562698
0
LINE
8
DEFAULT_255_2_778
10
11.4787688
20
41.5562698
11
11.1231688
21
41.5562698
0
LINE
8
DEFAULT_255_2_778
10
11.1231688
20
41.5562698
11
11.1149688
21
41.6554698
0
LINE
8
DEFAULT_255_2_778
10
11.1149688
20
42.7304698
11
11.1149688
21
42.7302698
0
LINE
8
DEFAULT_255_2_778
10
7.0622688
20
43.1471698
11
6.7977688
21
43.1471698
0
LINE
8
DEFAULT_255_2_778
10
6.7977688
20
43.1471698
11
6.7977688
21
42.5944698
0
LINE
8
DEFAULT_255_2_778
10
6.7977688
20
42.5944698
11
7.0622688
21
42.5944698
0
LINE
8
DEFAULT_255_2_778
10
7.2765688
20
42.8458698
11
7.2765688
21
42.8455698
0
LINE
8
DEFAULT_255_2_778
10
7.1125688
20
43.4109698
11
6.4066688
21
43.4109698
0
LINE
8
DEFAULT_255_2_778
10
6.4066688
20
43.4109698
11
6.4066688
21
41.5514698
0
LINE
8
DEFAULT_255_2_778
10
6.4066688
20
41.5514698
11
6.7974688
21
41.5514698
0
LINE
8
DEFAULT_255_2_778
10
6.7974688
20
41.5514698
11
6.7974688
21
42.3304698
0
LINE
8
DEFAULT_255_2_778
10
6.7974688
20
42.3304698
11
7.1125688
21
42.3304698
0
LINE
8
DEFAULT_255_2_778
10
7.6798688
20
42.8958698
11
7.6798688
21
42.8958698
0
ARC
8
DEFAULT_255_2_778
10
19.7178096
20
42.7809316
40
0.1241506
50
90.5265294
51
180.7174335
0
ARC
8
DEFAULT_255_2_778
10
19.7156079
20
42.7809112
40
0.1241704
50
359.2920777
51
89.5104656
0
ARC
8
DEFAULT_255_2_778
10
19.7156079
20
42.7778429
40
0.1241704
50
270.4895344
51
0.7079223
0
ARC
8
DEFAULT_255_2_778
10
19.7178097
20
42.7778225
40
0.1241507
50
179.2825375
51
269.4734631
0
LINE
8
DEFAULT_255_2_778
10
19.5936688
20
42.7793771
11
19.5936688
21
42.7793771
0
ARC
8
DEFAULT_255_2_778
10
19.7159701
20
42.7796527
40
0.1600856
50
89.815832
51
180.0770398
0
ARC
8
DEFAULT_255_2_778
10
19.7169993
20
42.7796527
40
0.1600856
50
359.9229602
51
90.184168
0
ARC
8
DEFAULT_255_2_778
10
19.7169781
20
42.7791436
40
0.1601069
50
269.8234249
51
0.1051606
0
ARC
8
DEFAULT_255_2_778
10
19.7159913
20
42.7791437
40
0.160107
50
179.8948697
51
270.1765625
0
LINE
8
DEFAULT_255_2_778
10
19.5558847
20
42.7794375
11
19.5558847
21
42.7794375
0
ARC
8
DEFAULT_255_2_778
10
19.7173671
20
42.736743
40
0.0239886
50
28.4465281
51
103.4267637
0
ARC
8
DEFAULT_255_2_778
10
19.6923938
20
42.5244542
40
0.2364193
50
85.2923939
51
90.3233848
0
ARC
8
DEFAULT_255_2_778
10
19.7079096
20
42.1247581
40
0.7359887
50
91.4445043
51
94.5082143
0
ARC
8
DEFAULT_255_2_778
10
19.7011498
20
42.3501121
40
0.510537
50
90.0204411
51
91.3236595
0
ARC
8
DEFAULT_255_2_778
10
19.7067649
20
42.6257216
40
0.234999
50
77.9191012
51
91.4136047
0
ARC
8
DEFAULT_255_2_778
10
19.7539008
20
42.8219791
40
0.0335995
50
19.4828986
51
86.5059996
0
ARC
8
DEFAULT_255_2_778
10
19.7648421
20
42.8295932
40
0.0210433
50
359.8753665
51
9.8287108
0
ARC
8
DEFAULT_255_2_778
10
19.7362646
20
42.8344597
40
0.0498633
50
318.6549341
51
354.3463421
0
ARC
8
DEFAULT_255_2_778
10
19.6181615
20
42.9221366
40
0.1968255
50
312.3913188
51
322.2071703
0
ARC
8
DEFAULT_255_2_778
10
19.7323609
20
42.7339106
40
0.0466808
50
7.8211356
51
66.6544263
0
ARC
8
DEFAULT_255_2_778
10
19.5988118
20
42.7060628
40
0.1830194
50
4.3516874
51
10.7699648
0
ARC
8
DEFAULT_255_2_778
10
19.8039496
20
42.7162234
40
0.0229506
50
170.6553415
51
230.4661874
0
ARC
8
DEFAULT_255_2_778
10
19.7917715
20
42.7066989
40
0.0085297
50
253.4430888
51
270.5900942
0
ARC
8
DEFAULT_255_2_778
10
19.7115119
20
42.8031272
40
0.0341371
50
13.1090465
51
106.1583193
0
ARC
8
DEFAULT_255_2_778
10
19.6946118
20
42.6580504
40
0.1780193
50
87.6176468
51
90.0490737
0
ARC
8
DEFAULT_255_2_778
10
19.704515
20
42.8539726
40
0.0658749
50
261.2196532
51
305.0769943
0
ARC
8
DEFAULT_255_2_778
10
19.7330859
20
42.8076224
40
0.0119745
50
320.847334
51
0.7046022
0
LINE
8
DEFAULT_255_2_778
10
19.7921594
20
42.6979697
11
19.7511594
21
42.6979697
0
LINE
8
DEFAULT_255_2_778
10
19.7511594
20
42.6979697
11
19.7384594
21
42.7481697
0
LINE
8
DEFAULT_255_2_778
10
19.6910594
20
42.7608697
11
19.6910594
21
42.6981697
0
LINE
8
DEFAULT_255_2_778
10
19.6910594
20
42.6981697
11
19.6532594
21
42.6981697
0
LINE
8
DEFAULT_255_2_778
10
19.6532594
20
42.6981697
11
19.6500594
21
42.8584697
0
LINE
8
DEFAULT_255_2_778
10
19.7918594
20
42.6981697
11
19.7921594
21
42.6979697
0
LINE
8
DEFAULT_255_2_778
10
19.6944594
20
42.8360697
11
19.6944594
21
42.7888697
0
ARC
8
DEFAULT_255_2_778
10
22.0516426
20
41.4139609
40
0.1859656
50
91.2045372
51
181.4098501
0
ARC
8
DEFAULT_255_2_778
10
22.04384
20
41.4138785
40
0.1860476
50
358.6161552
51
88.8008978
0
ARC
8
DEFAULT_255_2_778
10
22.0437755
20
41.4049541
40
0.1861106
50
271.2185606
51
1.3643499
0
ARC
8
DEFAULT_255_2_778
10
22.0517085
20
41.4045751
40
0.1857322
50
178.57764
51
268.7736356
0
ARC
8
DEFAULT_255_2_778
10
22.9491426
20
41.4261609
40
0.1859656
50
91.2045372
51
181.4098501
0
ARC
8
DEFAULT_255_2_778
10
22.9413241
20
41.4261609
40
0.1859656
50
358.5901499
51
88.7954628
0
ARC
8
DEFAULT_255_2_778
10
22.9413241
20
41.4170099
40
0.1859656
50
271.2045372
51
1.4098501
0
ARC
8
DEFAULT_255_2_778
10
22.9491047
20
41.4167712
40
0.1857262
50
178.6072549
51
268.8056271
0
ARC
8
DEFAULT_255_2_778
10
22.5004267
20
41.4138785
40
0.1860476
50
91.1991022
51
181.3838448
0
ARC
8
DEFAULT_255_2_778
10
22.4926241
20
41.4139609
40
0.1859656
50
358.5901499
51
88.7954628
0
ARC
8
DEFAULT_255_2_778
10
22.4925595
20
41.4048716
40
0.1860286
50
271.2240081
51
1.3903789
0
ARC
8
DEFAULT_255_2_778
10
22.5004923
20
41.4046574
40
0.1858142
50
178.6036506
51
268.7791685
0
LINE
8
DEFAULT_255_2_778
10
21.8660334
20
41.4091854
11
21.8657334
21
41.4093854
0
LINE
8
DEFAULT_255_2_778
10
22.7634334
20
41.4212854
11
22.7632334
21
41.4215854
0
LINE
8
DEFAULT_255_2_778
10
22.3147334
20
41.4091854
11
22.3144334
21
41.4093854
0
ARC
8
DEFAULT_255_2_778
10
12.2412908
20
42.1746179
40
0.3756367
50
270.2518229
51
277.9224239
0
ARC
8
DEFAULT_255_2_778
10
12.2267567
20
41.9621058
40
0.163922
50
191.9135594
51
275.6664103
0
ARC
8
DEFAULT_255_2_778
10
12.2912552
20
42.0896972
40
0.6680449
50
207.8643513
51
221.7718618
0
ARC
8
DEFAULT_255_2_778
10
12.0737789
20
41.8832613
40
0.3684417
50
220.3588923
51
270.0277924
0
ARC
8
DEFAULT_255_2_778
10
12.0683238
20
42.0153085
40
0.5005206
50
270.6449322
51
287.6494066
0
ARC
8
DEFAULT_255_2_778
10
11.977822
20
42.3112608
40
0.8099892
50
287.4026496
51
297.6988649
0
ARC
8
DEFAULT_255_2_778
10
11.7698217
20
42.7144576
40
1.2636684
50
297.5514274
51
304.3018591
0
ARC
8
DEFAULT_255_2_778
10
12.3708589
20
41.9388997
40
0.1058286
50
290.4109967
51
338.4144294
0
ARC
8
DEFAULT_255_2_778
10
12.1869241
20
42.3080041
40
0.5177505
50
282.5203845
51
295.2483499
0
LINE
8
DEFAULT_255_2_778
10
12.0663656
20
41.9282664
11
12.0599656
21
42.7762664
0
LINE
8
DEFAULT_255_2_778
10
12.0599656
20
42.7762664
11
11.7006656
21
42.7762664
0
LINE
8
DEFAULT_255_2_778
10
11.7006656
20
42.7762664
11
11.7006656
21
41.7774664
0
LINE
8
DEFAULT_255_2_778
10
12.4819656
20
41.6705664
11
12.4946656
21
41.5575664
0
LINE
8
DEFAULT_255_2_778
10
12.4946656
20
41.5575664
11
12.8349656
21
41.5575664
0
LINE
8
DEFAULT_255_2_778
10
12.8349656
20
41.5575664
11
12.8349656
21
42.7889664
0
LINE
8
DEFAULT_255_2_778
10
12.8349656
20
42.7889664
11
12.4692656
21
42.7889664
0
LINE
8
DEFAULT_255_2_778
10
12.4692656
20
42.7889664
11
12.4692656
21
41.8967664
0
LINE
8
DEFAULT_255_1_234
10
8.5448344
20
38.8325091
11
8.2693458
21
38.8325091
0
LINE
8
DEFAULT_255_1_234
10
8.2693458
20
38.8325091
11
8.2693458
21
38.3747
0
LINE
8
DEFAULT_255_1_234
10
8.2693458
20
38.3747
11
8.1151364
21
38.3747
0
LINE
8
DEFAULT_255_1_234
10
8.1151364
20
38.3747
11
8.1151364
21
39.5441211
0
LINE
8
DEFAULT_255_1_234
10
8.1151364
20
39.5441211
11
8.5464407
21
39.5441211
0
LINE
8
DEFAULT_255_1_234
10
8.2693458
20
39.4172196
11
8.2693458
21
38.9586074
0
LINE
8
DEFAULT_255_1_234
10
8.2693458
20
38.9586074
11
8.5464407
21
38.9586074
0
LINE
8
DEFAULT_255_1_234
10
8.5552756
20
39.4172196
11
8.2693458
21
39.4172196
0
ARC
8
DEFAULT_255_1_234
10
8.5506534
20
38.9382195
40
0.6059162
50
78.8378113
51
90.3983573
0
ARC
8
DEFAULT_255_1_234
10
8.5922548
20
39.1402879
40
0.3996205
50
58.9632738
51
79.0810598
0
ARC
8
DEFAULT_255_1_234
10
8.622409
20
39.1962721
40
0.3361177
50
48.0197965
51
58.447194
0
ARC
8
DEFAULT_255_1_234
10
8.6312951
20
39.2048225
40
0.3238191
50
3.3375044
51
48.1766626
0
ARC
8
DEFAULT_255_1_234
10
8.508279
20
39.1871171
40
0.4477806
50
359.9477528
51
4.6829065
0
ARC
8
DEFAULT_255_1_234
10
8.5206107
20
39.1828628
40
0.4354656
50
346.1877825
51
0.5060252
0
ARC
8
DEFAULT_255_1_234
10
8.6564975
20
39.1475731
40
0.295089
50
310.8831995
51
346.5426355
0
ARC
8
DEFAULT_255_1_234
10
8.6256395
20
39.1892695
40
0.3468331
50
286.6925341
51
310.2288297
0
ARC
8
DEFAULT_255_1_234
10
8.5687226
20
39.3682882
40
0.5346654
50
274.6850312
51
287.0245141
0
ARC
8
DEFAULT_255_1_234
10
8.5461949
20
39.5891932
40
0.7566852
50
269.8969846
51
275.018904
0
ARC
8
DEFAULT_255_1_234
10
8.548954
20
39.3812707
40
0.4226708
50
269.6593078
51
279.4153575
0
ARC
8
DEFAULT_255_1_234
10
8.5746815
20
39.2322133
40
0.2714146
50
279.2049762
51
294.9900808
0
ARC
8
DEFAULT_255_1_234
10
8.6037141
20
39.1674508
40
0.2004525
50
295.2888114
51
311.2911209
0
ARC
8
DEFAULT_255_1_234
10
8.6108035
20
39.156922
40
0.1878703
50
311.7854996
51
347.2861051
0
ARC
8
DEFAULT_255_1_234
10
8.5124194
20
39.1822092
40
0.2894234
50
346.6893224
51
0.1059443
0
ARC
8
DEFAULT_255_1_234
10
8.4369089
20
39.1850685
40
0.3649409
50
359.6350983
51
0.0053152
0
ARC
8
DEFAULT_255_1_234
10
8.5339417
20
39.1875937
40
0.2679199
50
359.4672059
51
15.5933957
0
ARC
8
DEFAULT_255_1_234
10
8.5964306
20
39.2044779
40
0.2031932
50
15.7442113
51
46.6203375
0
ARC
8
DEFAULT_255_1_234
10
8.5816527
20
39.1874484
40
0.2257226
50
46.8628658
51
75.6676503
0
ARC
8
DEFAULT_255_1_234
10
8.5522347
20
39.0815718
40
0.3355939
50
75.276167
51
88.2915297
0
ARC
8
DEFAULT_255_1_234
10
8.5464054
20
38.9937524
40
0.4235602
50
87.8575022
51
88.8000139
0
LINE
8
DEFAULT_255_1_234
10
9.5496048
20
39.2485531
11
9.5496048
21
39.1104072
0
LINE
8
DEFAULT_255_1_234
10
9.2781321
20
38.9915375
11
9.2781321
21
38.3747
0
LINE
8
DEFAULT_255_1_234
10
9.2781321
20
38.3747
11
9.1295449
21
38.3747
0
LINE
8
DEFAULT_255_1_234
10
9.1295449
20
38.3747
11
9.1295449
21
39.2437341
0
LINE
8
DEFAULT_255_1_234
10
9.1295449
20
39.2437341
11
9.2741162
21
39.2437341
0
LINE
8
DEFAULT_255_1_234
10
9.2741162
20
39.2437341
11
9.2765257
21
39.1433374
0
ARC
8
DEFAULT_255_1_234
10
9.4829454
20
38.7044342
40
0.4114092
50
80.6754243
51
86.8932892
0
ARC
8
DEFAULT_255_1_234
10
9.4768988
20
38.60767
40
0.5083596
50
86.8038578
51
90.0431435
0
ARC
8
DEFAULT_255_1_234
10
9.4731969
20
38.8533866
40
0.2626638
50
89.2759698
51
106.6213787
0
ARC
8
DEFAULT_255_1_234
10
9.4527533
20
38.927683
40
0.1856317
50
107.1346045
51
157.6458115
0
ARC
8
DEFAULT_255_1_234
10
9.5219134
20
38.8893311
40
0.2643398
50
155.6586782
51
157.2539184
0
ARC
8
DEFAULT_255_1_234
10
9.5014337
20
39.0062157
40
0.2634121
50
127.8165941
51
148.6302098
0
ARC
8
DEFAULT_255_1_234
10
9.4760806
20
39.0322218
40
0.2273596
50
91.3329982
51
126.7875809
0
ARC
8
DEFAULT_255_1_234
10
9.4836746
20
38.9607195
40
0.299078
50
89.986594
51
92.4688449
0
ARC
8
DEFAULT_255_1_234
10
9.4845141
20
38.9882078
40
0.2715908
50
85.3589899
51
90.1623399
0
ARC
8
DEFAULT_255_1_234
10
9.4929657
20
39.0886164
40
0.1708278
50
78.401942
51
85.4594656
0
ARC
8
DEFAULT_255_1_234
10
9.5074541
20
39.1577236
40
0.1002194
50
67.7858312
51
78.5728455
0
ARC
8
DEFAULT_255_1_234
10
9.5182393
20
39.1856887
40
0.0702548
50
63.4835954
51
67.3062642
0
LINE
8
DEFAULT_255_1_234
10
9.6307254
20
38.8068075
11
9.6307254
21
38.8172488
0
LINE
8
DEFAULT_255_1_234
10
10.4218516
20
38.8100202
11
10.4218516
21
38.799579
0
ARC
8
DEFAULT_255_1_234
10
10.1893433
20
38.8204837
40
0.5586273
50
166.3003825
51
180.3317926
0
ARC
8
DEFAULT_255_1_234
10
10.1030593
20
38.8397964
40
0.4702272
50
153.8608245
51
166.0967125
0
ARC
8
DEFAULT_255_1_234
10
10.0364995
20
38.875475
40
0.3947658
50
135.1316692
51
154.253643
0
ARC
8
DEFAULT_255_1_234
10
10.0086555
20
38.9000666
40
0.3576898
50
121.7044358
51
134.776924
0
ARC
8
DEFAULT_255_1_234
10
10.0153548
20
38.8871867
40
0.3721701
50
93.4002104
51
121.5398234
0
ARC
8
DEFAULT_255_1_234
10
10.0248504
20
38.8046228
40
0.4551749
50
89.9706281
51
93.9769836
0
ARC
8
DEFAULT_255_1_234
10
10.0295596
20
38.8436362
40
0.4161854
50
71.3323442
51
90.6161982
0
ARC
8
DEFAULT_255_1_234
10
10.0458293
20
38.9038578
40
0.3539455
50
41.1815071
51
70.707185
0
ARC
8
DEFAULT_255_1_234
10
9.9980693
20
38.8604919
40
0.4184468
50
12.1971897
51
41.3445735
0
ARC
8
DEFAULT_255_1_234
10
9.80547
20
38.8146425
40
0.616399
50
359.5703439
51
12.5804035
0
ARC
8
DEFAULT_255_1_234
10
9.8527775
20
38.7964116
40
0.5690829
50
347.0197749
51
0.3188898
0
ARC
8
DEFAULT_255_1_234
10
9.9486277
20
38.7757808
40
0.4710501
50
334.3504053
51
346.846361
0
ARC
8
DEFAULT_255_1_234
10
10.0331701
20
38.7318805
40
0.3758475
50
310.422922
51
334.8045033
0
ARC
8
DEFAULT_255_1_234
10
10.0413526
20
38.7254782
40
0.3656736
50
301.8486886
51
310.097356
0
ARC
8
DEFAULT_255_1_234
10
10.0381252
20
38.7330638
40
0.3738224
50
274.307774
51
301.655379
0
ARC
8
DEFAULT_255_1_234
10
10.027056
20
38.8208361
40
0.4621997
50
269.9546461
51
274.8588071
0
ARC
8
DEFAULT_255_1_234
10
10.0221493
20
38.7707249
40
0.4121134
50
250.888809
51
270.631312
0
ARC
8
DEFAULT_255_1_234
10
10.0071413
20
38.7148277
40
0.3544073
50
221.1701932
51
250.2227191
0
ARC
8
DEFAULT_255_1_234
10
10.0555568
20
38.7589439
40
0.4198961
50
191.6263638
51
221.3526367
0
ARC
8
DEFAULT_255_1_234
10
10.2443563
20
38.8026329
40
0.6136451
50
179.610213
51
192.0693181
0
ARC
8
DEFAULT_255_1_234
10
10.2866791
20
38.7963633
40
0.5065736
50
179.636298
51
190.6162791
0
ARC
8
DEFAULT_255_1_234
10
10.1224459
20
38.764359
40
0.3392576
50
190.4136628
51
208.7170242
0
ARC
8
DEFAULT_255_1_234
10
10.0714084
20
38.7390366
40
0.2823401
50
209.1867941
51
217.4225593
0
ARC
8
DEFAULT_255_1_234
10
10.0184918
20
38.6924558
40
0.2120636
50
216.1156896
51
265.2575835
0
ARC
8
DEFAULT_255_1_234
10
10.0264066
20
38.7498109
40
0.2698952
50
264.5897417
51
270.0601757
0
ARC
8
DEFAULT_255_1_234
10
10.0297127
20
38.7118185
40
0.2319225
50
269.2532621
51
291.8792492
0
ARC
8
DEFAULT_255_1_234
10
10.0326348
20
38.6940238
40
0.2143562
50
292.9269754
51
323.1776747
0
ARC
8
DEFAULT_255_1_234
10
9.993317
20
38.7288452
40
0.2667346
50
322.2518483
51
323.0930371
0
ARC
8
DEFAULT_255_1_234
10
9.9638829
20
38.746999
40
0.3011886
50
323.6941278
51
343.8493282
0
ARC
8
DEFAULT_255_1_234
10
9.8060372
20
38.795035
40
0.4661719
50
343.5748474
51
355.0079071
0
ARC
8
DEFAULT_255_1_234
10
9.6052618
20
38.8158424
40
0.6680042
50
354.7285225
51
0.1206288
0
ARC
8
DEFAULT_255_1_234
10
9.7821084
20
38.8204751
40
0.4911667
50
359.623636
51
11.2015604
0
ARC
8
DEFAULT_255_1_234
10
9.9355311
20
38.852064
40
0.3345323
50
10.9989411
51
30.8319188
0
ARC
8
DEFAULT_255_1_234
10
9.9751184
20
38.8729297
40
0.2898553
50
31.3008956
51
37.3959224
0
ARC
8
DEFAULT_255_1_234
10
10.0247762
20
38.9148653
40
0.2249582
50
36.5915954
51
62.2442953
0
ARC
8
DEFAULT_255_1_234
10
10.0294216
20
38.9145602
40
0.2231053
50
63.3365542
51
89.7195421
0
ARC
8
DEFAULT_255_1_234
10
10.0251069
20
38.8576884
40
0.2800267
50
88.8936788
51
90.0047485
0
ARC
8
DEFAULT_255_1_234
10
10.0219429
20
38.9149787
40
0.2227586
50
89.1921125
51
114.7099455
0
ARC
8
DEFAULT_255_1_234
10
10.0248193
20
38.9187628
40
0.2205633
50
115.7997161
51
142.2900762
0
ARC
8
DEFAULT_255_1_234
10
10.0686925
20
38.8797658
40
0.2791541
50
141.4658779
51
142.3795754
0
ARC
8
DEFAULT_255_1_234
10
10.079583
20
38.8754557
40
0.2904292
50
143.0175714
51
163.234115
0
ARC
8
DEFAULT_255_1_234
10
10.2374002
20
38.8255054
40
0.4559523
50
162.9447461
51
174.3732162
0
ARC
8
DEFAULT_255_1_234
10
10.4519816
20
38.8014143
40
0.6718682
50
174.1228657
51
180.1565175
0
LINE
8
DEFAULT_255_1_234
10
10.5720451
20
38.8052012
11
10.5720451
21
38.8164456
0
LINE
8
DEFAULT_255_1_234
10
11.1567557
20
39.155385
11
11.1567557
21
39.608375
0
LINE
8
DEFAULT_255_1_234
10
11.1567557
20
39.608375
11
11.3053428
21
39.608375
0
LINE
8
DEFAULT_255_1_234
10
11.3053428
20
39.608375
11
11.3053428
21
38.3747
0
LINE
8
DEFAULT_255_1_234
10
11.3053428
20
38.3747
11
11.1688033
21
38.3747
0
LINE
8
DEFAULT_255_1_234
10
11.1688033
20
38.3747
11
11.1615747
21
38.4678682
0
LINE
8
DEFAULT_255_1_234
10
11.1567557
20
38.6116363
11
11.1567557
21
39.0108137
0
ARC
8
DEFAULT_255_1_234
10
11.2595605
20
38.8208457
40
0.6875294
50
169.1661407
51
180.3666851
0
ARC
8
DEFAULT_255_1_234
10
11.039925
20
38.8646387
40
0.4635805
50
150.2838427
51
169.3798909
0
ARC
8
DEFAULT_255_1_234
10
10.9765867
20
38.8970238
40
0.392532
50
142.1062393
51
149.806405
0
ARC
8
DEFAULT_255_1_234
10
10.9193599
20
38.9468749
40
0.3167807
50
118.4283255
51
142.8643566
0
ARC
8
DEFAULT_255_1_234
10
10.9094944
20
38.9531137
40
0.3066506
50
89.9199246
51
117.3621547
0
ARC
8
DEFAULT_255_1_234
10
10.9149923
20
38.8773731
40
0.3824245
50
89.9987914
51
90.7595231
0
ARC
8
DEFAULT_255_1_234
10
10.9187314
20
38.9008667
40
0.3589502
50
72.8978905
51
90.5955712
0
ARC
8
DEFAULT_255_1_234
10
10.9385262
20
38.9723123
40
0.2848505
50
39.9932841
51
72.477307
0
ARC
8
DEFAULT_255_1_234
10
10.935601
20
38.6510579
40
0.2908996
50
275.084999
51
320.969419
0
ARC
8
DEFAULT_255_1_234
10
10.914173
20
38.7777893
40
0.4191533
50
269.8935077
51
276.4672393
0
ARC
8
DEFAULT_255_1_234
10
10.9073745
20
38.6510703
40
0.2924958
50
222.0839186
51
271.1792213
0
ARC
8
DEFAULT_255_1_234
10
10.9684255
20
38.7135816
40
0.3797413
50
217.5160585
51
222.9101888
0
ARC
8
DEFAULT_255_1_234
10
11.0178094
20
38.7475781
40
0.4396261
50
193.0962774
51
217.1109254
0
ARC
8
DEFAULT_255_1_234
10
11.2135193
20
38.7964128
40
0.6413192
50
181.1070734
51
193.3838631
0
ARC
8
DEFAULT_255_1_234
10
11.3801252
20
38.8050869
40
0.8080801
50
179.9919009
51
181.4937549
0
ARC
8
DEFAULT_255_1_234
10
11.2984854
20
38.796472
40
0.5778615
50
179.6919417
51
188.6549204
0
ARC
8
DEFAULT_255_1_234
10
11.096527
20
38.7646672
40
0.3734182
50
188.4936033
51
202.2187731
0
ARC
8
DEFAULT_255_1_234
10
10.9997978
20
38.7263391
40
0.2693801
50
202.4517848
51
215.9307642
0
ARC
8
DEFAULT_255_1_234
10
10.9405424
20
38.6791191
40
0.1937215
50
214.9062306
51
264.2077075
0
ARC
8
DEFAULT_255_1_234
10
10.9499252
20
38.738915
40
0.2541804
50
263.4637896
51
270.0934907
0
ARC
8
DEFAULT_255_1_234
10
10.9539169
20
38.7297045
40
0.2449958
50
269.1634649
51
291.0931088
0
ARC
8
DEFAULT_255_1_234
10
10.9620874
20
38.6964994
40
0.2111194
50
292.2674853
51
328.1937478
0
ARC
8
DEFAULT_255_1_234
10
10.8929292
20
38.7464026
40
0.2962539
50
327.0410354
51
332.9414029
0
ARC
8
DEFAULT_255_1_234
10
10.934249
20
38.8940886
40
0.2512647
50
27.6811062
51
48.7893196
0
ARC
8
DEFAULT_255_1_234
10
10.9625771
20
38.9201916
40
0.2130039
50
49.8959006
51
87.010286
0
ARC
8
DEFAULT_255_1_234
10
10.9521629
20
38.8414504
40
0.292249
50
85.7764096
51
90.0424572
0
ARC
8
DEFAULT_255_1_234
10
10.9492345
20
38.9074006
40
0.2263149
50
89.313423
51
109.4265906
0
ARC
8
DEFAULT_255_1_234
10
10.9418056
20
38.9378962
40
0.1951098
50
110.3478057
51
145.1577858
0
ARC
8
DEFAULT_255_1_234
10
11.0071849
20
38.890275
40
0.2759807
50
144.7982748
51
162.8715388
0
ARC
8
DEFAULT_255_1_234
10
11.1766499
20
38.8357842
40
0.453983
50
162.5984223
51
173.3418672
0
ARC
8
DEFAULT_255_1_234
10
11.4434277
20
38.8026851
40
0.7228019
50
173.1877442
51
180.2462216
0
LINE
8
DEFAULT_255_1_234
10
12.0755865
20
38.3747
11
12.0723738
21
38.4606396
0
LINE
8
DEFAULT_255_1_234
10
11.532641
20
38.6782997
11
11.532641
21
39.2437341
0
LINE
8
DEFAULT_255_1_234
10
11.532641
20
39.2437341
11
11.6812282
21
39.2437341
0
LINE
8
DEFAULT_255_1_234
10
11.6812282
20
39.2437341
11
11.6812282
21
38.6823156
0
LINE
8
DEFAULT_255_1_234
10
12.068358
20
38.6116363
11
12.068358
21
39.2437341
0
LINE
8
DEFAULT_255_1_234
10
12.068358
20
39.2437341
11
12.2169451
21
39.2437341
0
LINE
8
DEFAULT_255_1_234
10
12.2169451
20
39.2437341
11
12.2169451
21
38.3747
0
LINE
8
DEFAULT_255_1_234
10
12.2169451
20
38.3747
11
12.0755865
21
38.3747
0
ARC
8
DEFAULT_255_1_234
10
11.8608203
20
38.642406
40
0.2789157
50
282.5436552
51
319.3308843
0
ARC
8
DEFAULT_255_1_234
10
11.8221036
20
38.7930137
40
0.4343667
50
269.8917857
51
283.214153
0
ARC
8
DEFAULT_255_1_234
10
11.8177721
20
38.9090183
40
0.5503818
50
269.9995424
51
270.3655186
0
ARC
8
DEFAULT_255_1_234
10
11.8147197
20
38.739953
40
0.3813286
50
257.7355913
51
270.4579866
0
ARC
8
DEFAULT_255_1_234
10
11.7849896
20
38.6100503
40
0.2480795
50
233.3384413
51
258.0721298
0
ARC
8
DEFAULT_255_1_234
10
11.7715503
20
38.5881041
40
0.2224626
50
221.9626381
51
232.7401232
0
ARC
8
DEFAULT_255_1_234
10
11.7995552
20
38.609633
40
0.2576959
50
197.9450831
51
221.3585622
0
ARC
8
DEFAULT_255_1_234
10
11.9390747
20
38.6572997
40
0.4051213
50
185.8088195
51
198.2790125
0
ARC
8
DEFAULT_255_1_234
10
12.128255
20
38.6797963
40
0.5956158
50
180.1439627
51
186.1199408
0
ARC
8
DEFAULT_255_1_234
10
12.0381418
20
38.678756
40
0.3569313
50
179.4285986
51
191.0735588
0
ARC
8
DEFAULT_255_1_234
10
11.8697846
20
38.6440017
40
0.1850421
50
190.5251661
51
212.6990766
0
ARC
8
DEFAULT_255_1_234
10
11.8233639
20
38.618383
40
0.1321852
50
214.2246197
51
264.4398755
0
ARC
8
DEFAULT_255_1_234
10
11.8410975
20
38.7093426
40
0.224609
50
262.1850223
51
270.1952455
0
ARC
8
DEFAULT_255_1_234
10
11.8452865
20
38.8369524
40
0.3522342
50
269.4431043
51
282.9585023
0
ARC
8
DEFAULT_255_1_234
10
11.8789555
20
38.6999561
40
0.2111871
50
282.391263
51
311.9722193
0
ARC
8
DEFAULT_255_1_234
10
11.8797152
20
38.6926809
40
0.2053153
50
313.1724425
51
336.7506893
0
LINE
8
DEFAULT_255_1_234
10
12.9960237
20
38.6485823
11
13.1365792
21
38.6485823
0
LINE
8
DEFAULT_255_1_234
10
12.4040846
20
38.8011853
11
12.4040846
21
38.8260837
0
LINE
8
DEFAULT_255_1_234
10
13.1365792
20
38.9449534
11
12.9960237
21
38.9449534
0
LINE
8
DEFAULT_255_1_234
10
12.5526718
20
38.8204615
11
12.5526718
21
38.7923504
0
ARC
8
DEFAULT_255_1_234
10
12.7948273
20
38.6939121
40
0.2140268
50
269.0327816
51
309.2224514
0
ARC
8
DEFAULT_255_1_234
10
12.8158027
20
38.6724108
40
0.1841255
50
308.396669
51
329.6984113
0
ARC
8
DEFAULT_255_1_234
10
12.8295882
20
38.661982
40
0.166974
50
330.401383
51
355.3970571
0
ARC
8
DEFAULT_255_1_234
10
12.8752748
20
38.6637082
40
0.2617417
50
329.2357853
51
356.6870514
0
ARC
8
DEFAULT_255_1_234
10
12.820277
20
38.6927971
40
0.3238945
50
324.8706984
51
329.7905871
0
ARC
8
DEFAULT_255_1_234
10
12.8124489
20
38.6995106
40
0.3341614
50
298.8769168
51
324.7016144
0
ARC
8
DEFAULT_255_1_234
10
12.779268
20
38.7523917
40
0.3965068
50
296.9023738
51
299.385174
0
ARC
8
DEFAULT_255_1_234
10
12.7922294
20
38.7236422
40
0.365007
50
269.8406811
51
297.1299281
0
ARC
8
DEFAULT_255_1_234
10
12.786895
20
38.7874407
40
0.4288259
50
253.315473
51
270.5771285
0
ARC
8
DEFAULT_255_1_234
10
12.7621985
20
38.6980739
40
0.3361372
50
221.1002312
51
252.9744583
0
ARC
8
DEFAULT_255_1_234
10
12.8081983
20
38.737559
40
0.3967576
50
194.5394537
51
221.0302238
0
ARC
8
DEFAULT_255_1_234
10
12.9930804
20
38.7890952
40
0.5886672
50
182.0499201
51
194.8773585
0
ARC
8
DEFAULT_255_1_234
10
13.1701002
20
38.800906
40
0.7660157
50
179.9791086
51
182.4591564
0
ARC
8
DEFAULT_255_1_234
10
12.9963046
20
38.8290498
40
0.5922274
50
168.614861
51
180.2869651
0
ARC
8
DEFAULT_255_1_234
10
12.8761191
20
38.8526269
40
0.4697532
50
154.9162259
51
168.5402336
0
ARC
8
DEFAULT_255_1_234
10
12.7839699
20
38.898163
40
0.3669966
50
133.5746694
51
155.2558665
0
ARC
8
DEFAULT_255_1_234
10
12.7676857
20
38.9120467
40
0.3457206
50
122.0165146
51
133.2055214
0
ARC
8
DEFAULT_255_1_234
10
12.7712696
20
38.9032361
40
0.355095
50
97.8731644
51
121.7531281
0
ARC
8
DEFAULT_255_1_234
10
12.7891779
20
38.7975159
40
0.4622833
50
89.8471353
51
98.2769494
0
ARC
8
DEFAULT_255_1_234
10
12.7940531
20
38.8585091
40
0.401305
50
73.3760412
51
90.5199766
0
ARC
8
DEFAULT_255_1_234
10
12.8136895
20
38.9307516
40
0.3264695
50
47.7085968
51
73.0509704
0
ARC
8
DEFAULT_255_1_234
10
12.8266765
20
38.9420128
40
0.309407
50
3.7443473
51
48.0843753
0
ARC
8
DEFAULT_255_1_234
10
12.7279714
20
38.9262614
40
0.4090351
50
2.6192045
51
5.0432185
0
ARC
8
DEFAULT_255_1_234
10
12.7736568
20
38.9302592
40
0.2228519
50
3.780656
51
23.9356886
0
ARC
8
DEFAULT_255_1_234
10
12.7965184
20
38.9383155
40
0.198697
50
24.4869552
51
46.9440088
0
ARC
8
DEFAULT_255_1_234
10
12.7966034
20
38.9406484
40
0.1969404
50
46.498716
51
89.3298174
0
ARC
8
DEFAULT_255_1_234
10
12.7904388
20
38.8811723
40
0.2565428
50
88.1083975
51
90.0061569
0
ARC
8
DEFAULT_255_1_234
10
12.7876818
20
38.8865759
40
0.251154
50
89.3773333
51
107.2071161
0
ARC
8
DEFAULT_255_1_234
10
12.7733941
20
38.938319
40
0.1975072
50
107.6883219
51
143.3583002
0
ARC
8
DEFAULT_255_1_234
10
12.8301325
20
38.8956873
40
0.2684762
50
143.2846717
51
162.935323
0
ARC
8
DEFAULT_255_1_234
10
12.9806926
20
38.8473652
40
0.4265927
50
162.6650068
51
174.0805419
0
ARC
8
DEFAULT_255_1_234
10
13.1949766
20
38.8224636
40
0.6423078
50
173.8423985
51
180.1785963
0
ARC
8
DEFAULT_255_1_234
10
13.1401866
20
38.7893039
40
0.5875227
50
179.7028978
51
188.2277152
0
ARC
8
DEFAULT_255_1_234
10
12.9300167
20
38.7578247
40
0.3750127
50
188.0629871
51
201.1160002
0
ARC
8
DEFAULT_255_1_234
10
12.8202366
20
38.7159238
40
0.2575093
50
201.2187293
51
216.9761968
0
ARC
8
DEFAULT_255_1_234
10
12.7750929
20
38.6820993
40
0.2010998
50
217.0135981
51
265.2056839
0
ARC
8
DEFAULT_255_1_234
10
12.7906788
20
38.7742695
40
0.2943543
50
263.681807
51
270.104251
0
LINE
8
DEFAULT_255_1_234
10
13.3566488
20
39.4541656
11
13.5052359
21
39.4541656
0
LINE
8
DEFAULT_255_1_234
10
13.5052359
20
39.4541656
11
13.5052359
21
39.2437341
0
LINE
8
DEFAULT_255_1_234
10
13.5052359
20
39.2437341
11
13.6674771
21
39.2437341
0
LINE
8
DEFAULT_255_1_234
10
13.6674771
20
39.2437341
11
13.6674771
21
39.1288802
0
LINE
8
DEFAULT_255_1_234
10
13.6674771
20
39.1288802
11
13.5052359
21
39.1288802
0
LINE
8
DEFAULT_255_1_234
10
13.5052359
20
39.1288802
11
13.5052359
21
38.5899506
0
LINE
8
DEFAULT_255_1_234
10
13.6714929
20
38.4951761
11
13.6714929
21
38.3747
0
LINE
8
DEFAULT_255_1_234
10
13.3566488
20
38.5899506
11
13.3566488
21
39.1288802
0
LINE
8
DEFAULT_255_1_234
10
13.3566488
20
39.1288802
11
13.1984235
21
39.1288802
0
LINE
8
DEFAULT_255_1_234
10
13.1984235
20
39.1288802
11
13.1984235
21
39.2437341
0
LINE
8
DEFAULT_255_1_234
10
13.1984235
20
39.2437341
11
13.3566488
21
39.2437341
0
LINE
8
DEFAULT_255_1_234
10
13.3566488
20
39.2437341
11
13.3566488
21
39.4541656
0
ARC
8
DEFAULT_255_1_234
10
13.7059862
20
38.5889084
40
0.200753
50
179.7025659
51
187.917967
0
ARC
8
DEFAULT_255_1_234
10
13.6313888
20
38.5781724
40
0.1253883
50
187.7545981
51
200.2447476
0
ARC
8
DEFAULT_255_1_234
10
13.5893209
20
38.5624859
40
0.0804913
50
200.130383
51
219.174133
0
ARC
8
DEFAULT_255_1_234
10
13.5757386
20
38.5532515
40
0.0641445
50
220.4434483
51
249.6172
0
ARC
8
DEFAULT_255_1_234
10
13.5912236
20
38.5921968
40
0.1060489
50
249.1032952
51
262.775154
0
ARC
8
DEFAULT_255_1_234
10
13.6000408
20
38.6550715
40
0.1695354
50
262.4913187
51
270.2611758
0
ARC
8
DEFAULT_255_1_234
10
13.5997825
20
38.6766103
40
0.191075
50
270.3091804
51
275.6625139
0
ARC
8
DEFAULT_255_1_234
10
13.585505
20
38.8267435
40
0.3418851
50
275.5610264
51
279.0879356
0
ARC
8
DEFAULT_255_1_234
10
13.5524927
20
39.0362699
40
0.5539959
50
279.0365489
51
281.5011378
0
ARC
8
DEFAULT_255_1_234
10
13.5168004
20
39.2166423
40
0.7378639
50
281.4243939
51
282.1017894
0
ARC
8
DEFAULT_255_1_234
10
13.5511251
20
38.8084858
40
0.4501761
50
275.2597045
51
285.5083879
0
ARC
8
DEFAULT_255_1_234
10
13.5572576
20
38.7528606
40
0.3942242
50
270.0268409
51
275.1132796
0
ARC
8
DEFAULT_255_1_234
10
13.5552541
20
38.6201614
40
0.261534
50
257.3573315
51
270.479383
0
ARC
8
DEFAULT_255_1_234
10
13.5339431
20
38.5303406
40
0.1692304
50
230.8037497
51
257.741658
0
ARC
8
DEFAULT_255_1_234
10
13.5271335
20
38.5193777
40
0.1564393
50
219.974146
51
230.1990686
0
ARC
8
DEFAULT_255_1_234
10
13.5603281
20
38.5447579
40
0.1981916
50
196.5084186
51
219.4318458
0
ARC
8
DEFAULT_255_1_234
10
13.6618727
20
38.5766194
40
0.3046086
50
184.6404872
51
196.8269686
0
ARC
8
DEFAULT_255_1_234
10
13.7863791
20
38.5891908
40
0.4297309
50
179.8986958
51
184.9681077
0
LINE
8
DEFAULT_255_1_234
10
14.0024005
20
39.2437341
11
14.0024005
21
38.3747
0
LINE
8
DEFAULT_255_1_234
10
14.0024005
20
38.3747
11
13.8538134
21
38.3747
0
LINE
8
DEFAULT_255_1_234
10
13.8538134
20
38.3747
11
13.8538134
21
39.2437341
0
LINE
8
DEFAULT_255_1_234
10
13.8538134
20
39.2437341
11
14.0024005
21
39.2437341
0
ARC
8
DEFAULT_255_1_234
10
13.9396282
20
39.4751889
40
0.097867
50
161.415052
51
180.5526306
0
ARC
8
DEFAULT_255_1_234
10
13.9272061
20
39.4786077
40
0.0850062
50
138.1827368
51
160.9307106
0
ARC
8
DEFAULT_255_1_234
10
13.9162006
20
39.4881588
40
0.0704362
50
104.6368899
51
138.0039868
0
ARC
8
DEFAULT_255_1_234
10
13.9269161
20
39.4514963
40
0.1086221
50
92.0600725
51
105.2189128
0
ARC
8
DEFAULT_255_1_234
10
13.9292509
20
39.4172117
40
0.1429728
50
89.9756393
51
92.5012496
0
ARC
8
DEFAULT_255_1_234
10
13.9302529
20
39.4397731
40
0.1204151
50
78.0235316
51
90.4478182
0
ARC
8
DEFAULT_255_1_234
10
13.9394621
20
39.4811295
40
0.0780493
50
55.051506
51
78.3369085
0
ARC
8
DEFAULT_255_1_234
10
13.9444895
20
39.4895711
40
0.0682538
50
42.0501187
51
54.4513741
0
ARC
8
DEFAULT_255_1_234
10
13.9309762
20
39.4771798
40
0.0865878
50
1.7497075
51
42.1496013
0
ARC
8
DEFAULT_255_1_234
10
13.9055095
20
39.4742738
40
0.1121515
50
359.9852656
51
2.8364544
0
ARC
8
DEFAULT_255_1_234
10
13.9221087
20
39.4733229
40
0.0955566
50
342.1070653
51
0.552888
0
ARC
8
DEFAULT_255_1_234
10
13.9363784
20
39.4693904
40
0.0807713
50
316.7107116
51
341.6516965
0
ARC
8
DEFAULT_255_1_234
10
13.9430822
20
39.4633823
40
0.0717724
50
285.4397031
51
316.5324284
0
ARC
8
DEFAULT_255_1_234
10
13.9320739
20
39.4999554
40
0.1099597
50
272.3547054
51
285.8953117
0
ARC
8
DEFAULT_255_1_234
10
13.9293897
20
39.5365048
40
0.1465932
50
269.9695369
51
272.8160237
0
ARC
8
DEFAULT_255_1_234
10
13.9284078
20
39.5145863
40
0.1246779
50
258.8431134
51
270.4153935
0
ARC
8
DEFAULT_255_1_234
10
13.919412
20
39.4710414
40
0.0802162
50
238.5431189
51
259.1288175
0
ARC
8
DEFAULT_255_1_234
10
13.9126005
20
39.4586856
40
0.0661247
50
222.5062634
51
237.9906969
0
ARC
8
DEFAULT_255_1_234
10
13.9253593
20
39.4702889
40
0.0833707
50
184.1069131
51
222.460413
0
ARC
8
DEFAULT_255_1_234
10
13.9522833
20
39.4741349
40
0.1105176
50
179.9429482
51
185.0960898
0
LINE
8
DEFAULT_255_1_234
10
14.3060002
20
39.2437341
11
14.526873
21
38.5762966
0
LINE
8
DEFAULT_255_1_234
10
14.526873
20
38.5762966
11
14.7421236
21
39.2437341
0
LINE
8
DEFAULT_255_1_234
10
14.7421236
20
39.2437341
11
14.8939235
21
39.2437341
0
LINE
8
DEFAULT_255_1_234
10
14.8939235
20
39.2437341
11
14.582292
21
38.3747
0
LINE
8
DEFAULT_255_1_234
10
14.582292
20
38.3747
11
14.4690445
21
38.3747
0
LINE
8
DEFAULT_255_1_234
10
14.4690445
20
38.3747
11
14.1542004
21
39.2437341
0
LINE
8
DEFAULT_255_1_234
10
14.1542004
20
39.2437341
11
14.3060002
21
39.2437341
0
LINE
8
DEFAULT_255_1_234
10
15.1983264
20
39.2437341
11
15.1983264
21
38.3747
0
LINE
8
DEFAULT_255_1_234
10
15.1983264
20
38.3747
11
15.0497392
21
38.3747
0
LINE
8
DEFAULT_255_1_234
10
15.0497392
20
38.3747
11
15.0497392
21
39.2437341
0
LINE
8
DEFAULT_255_1_234
10
15.0497392
20
39.2437341
11
15.1983264
21
39.2437341
0
ARC
8
DEFAULT_255_1_234
10
15.1355541
20
39.4751889
40
0.097867
50
161.415052
51
180.5526306
0
ARC
8
DEFAULT_255_1_234
10
15.1231319
20
39.4786077
40
0.0850062
50
138.1827368
51
160.9307106
0
ARC
8
DEFAULT_255_1_234
10
15.1121265
20
39.4881588
40
0.0704362
50
104.6368899
51
138.0039868
0
ARC
8
DEFAULT_255_1_234
10
15.1228419
20
39.4514963
40
0.1086221
50
92.0600725
51
105.2189128
0
ARC
8
DEFAULT_255_1_234
10
15.1251768
20
39.4172117
40
0.1429728
50
89.9756393
51
92.5012496
0
ARC
8
DEFAULT_255_1_234
10
15.1261787
20
39.4397731
40
0.1204151
50
78.0235316
51
90.4478182
0
ARC
8
DEFAULT_255_1_234
10
15.1353879
20
39.4811295
40
0.0780493
50
55.051506
51
78.3369085
0
ARC
8
DEFAULT_255_1_234
10
15.1404153
20
39.4895711
40
0.0682538
50
42.0501187
51
54.4513741
0
ARC
8
DEFAULT_255_1_234
10
15.126902
20
39.4771798
40
0.0865878
50
1.7497075
51
42.1496013
0
ARC
8
DEFAULT_255_1_234
10
15.1014353
20
39.4742738
40
0.1121515
50
359.9852656
51
2.8364544
0
ARC
8
DEFAULT_255_1_234
10
15.1180345
20
39.4733229
40
0.0955566
50
342.1070653
51
0.552888
0
ARC
8
DEFAULT_255_1_234
10
15.1323043
20
39.4693904
40
0.0807713
50
316.7107116
51
341.6516965
0
ARC
8
DEFAULT_255_1_234
10
15.139008
20
39.4633823
40
0.0717724
50
285.4397031
51
316.5324284
0
ARC
8
DEFAULT_255_1_234
10
15.1279997
20
39.4999554
40
0.1099597
50
272.3547054
51
285.8953117
0
ARC
8
DEFAULT_255_1_234
10
15.1253155
20
39.5365048
40
0.1465932
50
269.9695369
51
272.8160237
0
ARC
8
DEFAULT_255_1_234
10
15.1243336
20
39.5145863
40
0.1246779
50
258.8431134
51
270.4153935
0
ARC
8
DEFAULT_255_1_234
10
15.1153379
20
39.4710414
40
0.0802162
50
238.5431189
51
259.1288175
0
ARC
8
DEFAULT_255_1_234
10
15.1085264
20
39.4586856
40
0.0661247
50
222.5062634
51
237.9906969
0
ARC
8
DEFAULT_255_1_234
10
15.1212851
20
39.4702889
40
0.0833707
50
184.1069131
51
222.460413
0
ARC
8
DEFAULT_255_1_234
10
15.1482092
20
39.4741349
40
0.1105176
50
179.9429482
51
185.0960898
0
LINE
8
DEFAULT_255_1_234
10
15.4890753
20
39.4541656
11
15.6376625
21
39.4541656
0
LINE
8
DEFAULT_255_1_234
10
15.6376625
20
39.4541656
11
15.6376625
21
39.2437341
0
LINE
8
DEFAULT_255_1_234
10
15.6376625
20
39.2437341
11
15.7999036
21
39.2437341
0
LINE
8
DEFAULT_255_1_234
10
15.7999036
20
39.2437341
11
15.7999036
21
39.1288802
0
LINE
8
DEFAULT_255_1_234
10
15.7999036
20
39.1288802
11
15.6376625
21
39.1288802
0
LINE
8
DEFAULT_255_1_234
10
15.6376625
20
39.1288802
11
15.6376625
21
38.5899506
0
LINE
8
DEFAULT_255_1_234
10
15.8039194
20
38.4951761
11
15.8039194
21
38.3747
0
LINE
8
DEFAULT_255_1_234
10
15.4890753
20
38.5899506
11
15.4890753
21
39.1288802
0
LINE
8
DEFAULT_255_1_234
10
15.4890753
20
39.1288802
11
15.33085
21
39.1288802
0
LINE
8
DEFAULT_255_1_234
10
15.33085
20
39.1288802
11
15.33085
21
39.2437341
0
LINE
8
DEFAULT_255_1_234
10
15.33085
20
39.2437341
11
15.4890753
21
39.2437341
0
LINE
8
DEFAULT_255_1_234
10
15.4890753
20
39.2437341
11
15.4890753
21
39.4541656
0
ARC
8
DEFAULT_255_1_234
10
15.8384127
20
38.5889084
40
0.200753
50
179.7025659
51
187.917967
0
ARC
8
DEFAULT_255_1_234
10
15.7638153
20
38.5781724
40
0.1253883
50
187.7545981
51
200.2447476
0
ARC
8
DEFAULT_255_1_234
10
15.7217474
20
38.5624859
40
0.0804913
50
200.130383
51
219.174133
0
ARC
8
DEFAULT_255_1_234
10
15.7081651
20
38.5532515
40
0.0641445
50
220.4434483
51
249.6172
0
ARC
8
DEFAULT_255_1_234
10
15.7236501
20
38.5921968
40
0.1060489
50
249.1032952
51
262.775154
0
ARC
8
DEFAULT_255_1_234
10
15.7324673
20
38.6550715
40
0.1695354
50
262.4913187
51
270.2611758
0
ARC
8
DEFAULT_255_1_234
10
15.7322091
20
38.6766103
40
0.191075
50
270.3091804
51
275.6625139
0
ARC
8
DEFAULT_255_1_234
10
15.7179315
20
38.8267435
40
0.3418851
50
275.5610264
51
279.0879356
0
ARC
8
DEFAULT_255_1_234
10
15.6849192
20
39.0362699
40
0.5539959
50
279.0365489
51
281.5011378
0
ARC
8
DEFAULT_255_1_234
10
15.6492269
20
39.2166423
40
0.7378639
50
281.4243939
51
282.1017894
0
ARC
8
DEFAULT_255_1_234
10
15.6835516
20
38.8084858
40
0.4501761
50
275.2597045
51
285.5083879
0
ARC
8
DEFAULT_255_1_234
10
15.6896841
20
38.7528606
40
0.3942242
50
270.0268409
51
275.1132796
0
ARC
8
DEFAULT_255_1_234
10
15.6876806
20
38.6201614
40
0.261534
50
257.3573315
51
270.479383
0
ARC
8
DEFAULT_255_1_234
10
15.6663697
20
38.5303406
40
0.1692304
50
230.8037497
51
257.741658
0
ARC
8
DEFAULT_255_1_234
10
15.65956
20
38.5193777
40
0.1564393
50
219.974146
51
230.1990686
0
ARC
8
DEFAULT_255_1_234
10
15.6927546
20
38.5447579
40
0.1981916
50
196.5084186
51
219.4318458
0
ARC
8
DEFAULT_255_1_234
10
15.7942992
20
38.5766194
40
0.3046086
50
184.6404872
51
196.8269686
0
ARC
8
DEFAULT_255_1_234
10
15.9188056
20
38.5891908
40
0.4297309
50
179.8986958
51
184.9681077
0
LINE
8
DEFAULT_255_1_234
10
16.0408557
20
39.2437341
11
16.2577126
21
38.5923601
0
LINE
8
DEFAULT_255_1_234
10
16.2577126
20
38.5923601
11
16.4601125
21
39.2437341
0
LINE
8
DEFAULT_255_1_234
10
16.4601125
20
39.2437341
11
16.6191409
21
39.2437341
0
LINE
8
DEFAULT_255_1_234
10
16.6191409
20
39.2437341
11
16.2697603
21
38.24057
0
LINE
8
DEFAULT_255_1_234
10
16.0119415
20
38.023713
11
15.9838304
21
38.0261226
0
LINE
8
DEFAULT_255_1_234
10
15.9838304
20
38.0261226
11
15.9284114
21
38.0365638
0
LINE
8
DEFAULT_255_1_234
10
15.9284114
20
38.0365638
11
15.9284114
21
38.1570399
0
LINE
8
DEFAULT_255_1_234
10
15.9284114
20
38.1570399
11
15.9685701
21
38.1538272
0
LINE
8
DEFAULT_255_1_234
10
16.1557096
20
38.295989
11
16.1886397
21
38.3843381
0
LINE
8
DEFAULT_255_1_234
10
16.1886397
20
38.3843381
11
15.8786146
21
39.2437341
0
LINE
8
DEFAULT_255_1_234
10
15.8786146
20
39.2437341
11
16.0408557
21
39.2437341
0
ARC
8
DEFAULT_255_1_234
10
15.8062945
20
38.4090403
40
0.4931356
50
327.7224013
51
340.0237316
0
ARC
8
DEFAULT_255_1_234
10
15.9815161
20
38.295872
40
0.2845645
50
305.2163759
51
328.1469174
0
ARC
8
DEFAULT_255_1_234
10
16.0160212
20
38.2549893
40
0.2313123
50
268.9893887
51
304.0733175
0
ARC
8
DEFAULT_255_1_234
10
15.9700414
20
38.4573864
40
0.3035628
50
269.7222887
51
278.0404605
0
ARC
8
DEFAULT_255_1_234
10
15.9856237
20
38.3513823
40
0.1964222
50
277.8648378
51
290.8634365
0
ARC
8
DEFAULT_255_1_234
10
16.0064226
20
38.2958422
40
0.1371168
50
291.0076295
51
305.5967213
0
ARC
8
DEFAULT_255_1_234
10
16.0045417
20
38.2942702
40
0.1369553
50
306.6194038
51
324.1023288
0
ARC
8
DEFAULT_255_1_234
10
15.9298231
20
38.34972
40
0.2299972
50
323.8264381
51
334.2987676
0
ARC
8
DEFAULT_255_1_234
10
15.805434
20
38.4108087
40
0.3685747
50
334.1277399
51
340.8153554
0
ARC
8
DEFAULT_255_1_234
10
15.7078275
20
38.4467465
40
0.4725741
50
340.5889714
51
341.3967148
0
LINE
8
DEFAULT_255_1_234
10
17.2247339
20
39.5497433
11
17.2247339
21
38.3747
0
LINE
8
DEFAULT_255_1_234
10
17.2247339
20
38.3747
11
17.0753436
21
38.3747
0
LINE
8
DEFAULT_255_1_234
10
17.0753436
20
38.3747
11
17.0753436
21
39.3650133
0
LINE
8
DEFAULT_255_1_234
10
17.0753436
20
39.3650133
11
16.7757598
21
39.2549785
0
LINE
8
DEFAULT_255_1_234
10
16.7757598
20
39.2549785
11
16.7757598
21
39.3899117
0
LINE
8
DEFAULT_255_1_234
10
16.7757598
20
39.3899117
11
17.2014419
21
39.5497433
0
LINE
8
DEFAULT_255_1_234
10
17.2014419
20
39.5497433
11
17.2247339
21
39.5497433
0
LINE
8
DEFAULT_255_1_234
10
18.3933519
20
39.0662327
11
18.3933519
21
38.8734709
0
LINE
8
DEFAULT_255_1_234
10
17.6552351
20
38.8533916
11
17.6552351
21
39.0517755
0
LINE
8
DEFAULT_255_1_234
10
18.2447647
20
38.8333123
11
18.2447647
21
39.0766739
0
LINE
8
DEFAULT_255_1_234
10
17.8038223
20
39.0879184
11
17.8038223
21
38.8501789
0
ARC
8
DEFAULT_255_1_234
10
17.1686408
20
38.8685805
40
1.2247208
50
353.8441951
51
0.2287902
0
ARC
8
DEFAULT_255_1_234
10
17.6325912
20
38.8167806
40
0.7578929
50
344.4934747
51
353.9765454
0
ARC
8
DEFAULT_255_1_234
10
17.9318502
20
38.7316981
40
0.4467846
50
329.2803592
51
344.7472793
0
ARC
8
DEFAULT_255_1_234
10
18.0311327
20
38.6772018
40
0.3336173
50
324.9352394
51
328.6160465
0
ARC
8
DEFAULT_255_1_234
10
18.0688436
20
38.6508427
40
0.2876076
50
280.580143
51
324.9173126
0
ARC
8
DEFAULT_255_1_234
10
18.0287228
20
38.8179099
40
0.4592847
50
269.5977311
51
281.6734359
0
ARC
8
DEFAULT_255_1_234
10
18.0215134
20
38.8059173
40
0.4472986
50
256.6228859
51
270.51044
0
ARC
8
DEFAULT_255_1_234
10
17.9813112
20
38.6510877
40
0.2873874
50
215.8618325
51
257.2788573
0
ARC
8
DEFAULT_255_1_234
10
18.0834143
20
38.7195977
40
0.4102928
50
197.9693508
51
215.2623606
0
ARC
8
DEFAULT_255_1_234
10
18.3319259
20
38.8034709
40
0.6725652
50
187.8816417
51
198.2346507
0
ARC
8
DEFAULT_255_1_234
10
18.7277467
20
38.8606079
40
1.0724845
50
180.8976217
51
188.0055519
0
ARC
8
DEFAULT_255_1_234
10
19.0077655
20
38.8709777
40
1.3526448
50
180.7449369
51
181.1510016
0
ARC
8
DEFAULT_255_1_234
10
18.8500384
20
39.0566042
40
1.1948131
50
173.7675579
51
180.231553
0
ARC
8
DEFAULT_255_1_234
10
18.3982531
20
39.1076666
40
0.7401564
50
164.3058563
51
173.9002247
0
ARC
8
DEFAULT_255_1_234
10
18.10706
20
39.1915656
40
0.4371288
50
148.7922025
51
164.568378
0
ARC
8
DEFAULT_255_1_234
10
18.0119052
20
39.2446929
40
0.3282386
50
144.5883898
51
148.1176286
0
ARC
8
DEFAULT_255_1_234
10
17.977595
20
39.2686315
40
0.2864044
50
101.6440918
51
144.514236
0
ARC
8
DEFAULT_255_1_234
10
18.0201017
20
39.0997069
40
0.4604934
50
89.5284041
51
102.5819763
0
ARC
8
DEFAULT_255_1_234
10
18.0280104
20
39.0958018
40
0.464401
50
77.0437873
51
90.5081339
0
ARC
8
DEFAULT_255_1_234
10
18.0682106
20
39.2600615
40
0.2953195
50
48.2778575
51
77.4994676
0
ARC
8
DEFAULT_255_1_234
10
18.0754737
20
39.2729746
40
0.2808655
50
36.3142134
51
47.6305865
0
ARC
8
DEFAULT_255_1_234
10
17.9886044
20
39.2144515
40
0.3855453
50
18.2931786
51
35.6769206
0
ARC
8
DEFAULT_255_1_234
10
17.7342803
20
39.1271593
40
0.654423
50
8.024666
51
18.5605216
0
ARC
8
DEFAULT_255_1_234
10
17.3179723
20
39.0656792
40
1.0752407
50
1.1274072
51
8.1718305
0
ARC
8
DEFAULT_255_1_234
10
16.9943914
20
39.0529885
40
1.3990231
50
0.5424119
51
1.3863029
0
ARC
8
DEFAULT_255_1_234
10
17.1765292
20
39.0802342
40
1.0682415
50
359.8090433
51
4.9407866
0
ARC
8
DEFAULT_255_1_234
10
17.5975306
20
39.1178113
40
0.6455691
50
4.8362157
51
12.2904523
0
ARC
8
DEFAULT_255_1_234
10
17.873042
20
39.1791965
40
0.3633074
50
12.0805627
51
23.8173984
0
ARC
8
DEFAULT_255_1_234
10
17.9904126
20
39.2288919
40
0.2358723
50
24.2871213
51
31.3935614
0
ARC
8
DEFAULT_255_1_234
10
18.0428823
20
39.2632233
40
0.1732111
50
30.7407893
51
82.4657128
0
ARC
8
DEFAULT_255_1_234
10
18.0248957
20
39.1748691
40
0.263235
50
81.1060089
51
90.2184952
0
ARC
8
DEFAULT_255_1_234
10
18.0213256
20
39.2006924
40
0.2374236
50
89.3806855
51
105.6762551
0
ARC
8
DEFAULT_255_1_234
10
18.0029887
20
39.2673567
40
0.1682847
50
105.7981136
51
149.7388061
0
ARC
8
DEFAULT_255_1_234
10
18.1093965
20
39.203395
40
0.2924306
50
149.4208916
51
163.6286378
0
ARC
8
DEFAULT_255_1_234
10
18.3184853
20
39.139625
40
0.5110213
50
163.3763315
51
172.1410975
0
ARC
8
DEFAULT_255_1_234
10
18.6485572
20
39.0923518
40
0.8444586
50
172.0259487
51
178.0703232
0
ARC
8
DEFAULT_255_1_234
10
18.9515662
20
39.0779906
40
1.1477868
50
177.8631668
51
179.5044149
0
ARC
8
DEFAULT_255_1_234
10
18.8443066
20
38.8465389
40
1.0404907
50
179.7995573
51
185.2460446
0
ARC
8
DEFAULT_255_1_234
10
18.4400105
20
38.8082513
40
0.6343885
50
185.1411642
51
193.0079639
0
ARC
8
DEFAULT_255_1_234
10
18.1756578
20
38.7457641
40
0.3627568
50
192.7897626
51
205.2507664
0
ARC
8
DEFAULT_255_1_234
10
18.0710125
20
38.6990415
40
0.2481908
50
205.8005384
51
211.2537509
0
ARC
8
DEFAULT_255_1_234
10
18.0186565
20
38.663958
40
0.1852521
50
210.3789793
51
238.4008143
0
ARC
8
DEFAULT_255_1_234
10
18.0167087
20
38.6686376
40
0.1882621
50
239.6520629
51
265.9793761
0
ARC
8
DEFAULT_255_1_234
10
18.0252288
20
38.7358427
40
0.2559272
50
265.1315437
51
270.060332
0
ARC
8
DEFAULT_255_1_234
10
18.0281066
20
38.7034534
40
0.2235528
50
269.3314664
51
287.2178029
0
ARC
8
DEFAULT_255_1_234
10
18.0418918
20
38.6531279
40
0.1714108
50
287.7958004
51
329.080874
0
ARC
8
DEFAULT_255_1_234
10
17.9461375
20
38.712893
40
0.2842745
50
328.6634704
51
343.3325132
0
ARC
8
DEFAULT_255_1_234
10
17.7288395
20
38.7805863
40
0.5118644
50
343.0499468
51
351.9393422
0
ARC
8
DEFAULT_255_1_234
10
17.3821695
20
38.8316949
40
0.8622784
50
351.8069023
51
357.7959224
0
ARC
8
DEFAULT_255_1_234
10
17.0586251
20
38.8484721
40
1.1862365
50
357.5871873
51
359.2677531
0
LINE
8
DEFAULT_255_1_234
10
19.3170018
20
39.0662327
11
19.3170018
21
38.8734709
0
LINE
8
DEFAULT_255_1_234
10
18.578885
20
38.8533916
11
18.578885
21
39.0517755
0
LINE
8
DEFAULT_255_1_234
10
19.1684146
20
38.8333123
11
19.1684146
21
39.0766739
0
LINE
8
DEFAULT_255_1_234
10
18.7274722
20
39.0879184
11
18.7274722
21
38.8501789
0
ARC
8
DEFAULT_255_1_234
10
18.0922907
20
38.8685805
40
1.2247208
50
353.8441951
51
0.2287902
0
ARC
8
DEFAULT_255_1_234
10
18.5562411
20
38.8167806
40
0.7578929
50
344.4934747
51
353.9765454
0
ARC
8
DEFAULT_255_1_234
10
18.8555001
20
38.7316981
40
0.4467846
50
329.2803592
51
344.7472793
0
ARC
8
DEFAULT_255_1_234
10
18.9547826
20
38.6772018
40
0.3336173
50
324.9352394
51
328.6160465
0
ARC
8
DEFAULT_255_1_234
10
18.9924935
20
38.6508427
40
0.2876076
50
280.580143
51
324.9173126
0
ARC
8
DEFAULT_255_1_234
10
18.9523727
20
38.8179099
40
0.4592847
50
269.5977311
51
281.6734359
0
ARC
8
DEFAULT_255_1_234
10
18.9451633
20
38.8059173
40
0.4472986
50
256.6228859
51
270.51044
0
ARC
8
DEFAULT_255_1_234
10
18.9049611
20
38.6510877
40
0.2873874
50
215.8618325
51
257.2788573
0
ARC
8
DEFAULT_255_1_234
10
19.0070642
20
38.7195977
40
0.4102928
50
197.9693508
51
215.2623606
0
ARC
8
DEFAULT_255_1_234
10
19.2555758
20
38.8034709
40
0.6725652
50
187.8816417
51
198.2346507
0
ARC
8
DEFAULT_255_1_234
10
19.6513966
20
38.8606079
40
1.0724845
50
180.8976217
51
188.0055519
0
ARC
8
DEFAULT_255_1_234
10
19.9314154
20
38.8709777
40
1.3526448
50
180.7449369
51
181.1510016
0
ARC
8
DEFAULT_255_1_234
10
19.7736883
20
39.0566042
40
1.1948131
50
173.7675579
51
180.231553
0
ARC
8
DEFAULT_255_1_234
10
19.321903
20
39.1076666
40
0.7401564
50
164.3058563
51
173.9002247
0
ARC
8
DEFAULT_255_1_234
10
19.0307099
20
39.1915656
40
0.4371288
50
148.7922025
51
164.568378
0
ARC
8
DEFAULT_255_1_234
10
18.9355551
20
39.2446929
40
0.3282386
50
144.5883898
51
148.1176286
0
ARC
8
DEFAULT_255_1_234
10
18.9012449
20
39.2686315
40
0.2864044
50
101.6440918
51
144.514236
0
ARC
8
DEFAULT_255_1_234
10
18.9437516
20
39.0997069
40
0.4604934
50
89.5284041
51
102.5819763
0
ARC
8
DEFAULT_255_1_234
10
18.9516603
20
39.0958018
40
0.464401
50
77.0437873
51
90.5081339
0
ARC
8
DEFAULT_255_1_234
10
18.9918605
20
39.2600615
40
0.2953195
50
48.2778575
51
77.4994676
0
ARC
8
DEFAULT_255_1_234
10
18.9991236
20
39.2729746
40
0.2808655
50
36.3142134
51
47.6305865
0
ARC
8
DEFAULT_255_1_234
10
18.9122543
20
39.2144515
40
0.3855453
50
18.2931786
51
35.6769206
0
ARC
8
DEFAULT_255_1_234
10
18.6579302
20
39.1271593
40
0.654423
50
8.024666
51
18.5605216
0
ARC
8
DEFAULT_255_1_234
10
18.2416222
20
39.0656792
40
1.0752407
50
1.1274072
51
8.1718305
0
ARC
8
DEFAULT_255_1_234
10
17.9180413
20
39.0529885
40
1.3990231
50
0.5424119
51
1.3863029
0
ARC
8
DEFAULT_255_1_234
10
18.1001791
20
39.0802342
40
1.0682415
50
359.8090433
51
4.9407866
0
ARC
8
DEFAULT_255_1_234
10
18.5211805
20
39.1178113
40
0.6455691
50
4.8362157
51
12.2904523
0
ARC
8
DEFAULT_255_1_234
10
18.796692
20
39.1791965
40
0.3633074
50
12.0805627
51
23.8173984
0
ARC
8
DEFAULT_255_1_234
10
18.9140625
20
39.2288919
40
0.2358723
50
24.2871213
51
31.3935614
0
ARC
8
DEFAULT_255_1_234
10
18.9665322
20
39.2632233
40
0.1732111
50
30.7407893
51
82.4657128
0
ARC
8
DEFAULT_255_1_234
10
18.9485456
20
39.1748691
40
0.263235
50
81.1060089
51
90.2184952
0
ARC
8
DEFAULT_255_1_234
10
18.9449755
20
39.2006924
40
0.2374236
50
89.3806855
51
105.6762551
0
ARC
8
DEFAULT_255_1_234
10
18.9266386
20
39.2673567
40
0.1682847
50
105.7981136
51
149.7388061
0
ARC
8
DEFAULT_255_1_234
10
19.0330464
20
39.203395
40
0.2924306
50
149.4208916
51
163.6286378
0
ARC
8
DEFAULT_255_1_234
10
19.2421352
20
39.139625
40
0.5110213
50
163.3763315
51
172.1410975
0
ARC
8
DEFAULT_255_1_234
10
19.5722071
20
39.0923518
40
0.8444586
50
172.0259487
51
178.0703232
0
ARC
8
DEFAULT_255_1_234
10
19.8752161
20
39.0779906
40
1.1477868
50
177.8631668
51
179.5044149
0
ARC
8
DEFAULT_255_1_234
10
19.7679565
20
38.8465389
40
1.0404907
50
179.7995573
51
185.2460446
0
ARC
8
DEFAULT_255_1_234
10
19.3636604
20
38.8082513
40
0.6343885
50
185.1411642
51
193.0079639
0
ARC
8
DEFAULT_255_1_234
10
19.0993077
20
38.7457641
40
0.3627568
50
192.7897626
51
205.2507664
0
ARC
8
DEFAULT_255_1_234
10
18.9946624
20
38.6990415
40
0.2481908
50
205.8005384
51
211.2537509
0
ARC
8
DEFAULT_255_1_234
10
18.9423064
20
38.663958
40
0.1852521
50
210.3789793
51
238.4008143
0
ARC
8
DEFAULT_255_1_234
10
18.9403586
20
38.6686376
40
0.1882621
50
239.6520629
51
265.9793761
0
ARC
8
DEFAULT_255_1_234
10
18.9488787
20
38.7358427
40
0.2559272
50
265.1315437
51
270.060332
0
ARC
8
DEFAULT_255_1_234
10
18.9517565
20
38.7034534
40
0.2235528
50
269.3314664
51
287.2178029
0
ARC
8
DEFAULT_255_1_234
10
18.9655417
20
38.6531279
40
0.1714108
50
287.7958004
51
329.080874
0
ARC
8
DEFAULT_255_1_234
10
18.8697874
20
38.712893
40
0.2842745
50
328.6634704
51
343.3325132
0
ARC
8
DEFAULT_255_1_234
10
18.6524894
20
38.7805863
40
0.5118644
50
343.0499468
51
351.9393422
0
ARC
8
DEFAULT_255_1_234
10
18.3058194
20
38.8316949
40
0.8622784
50
351.8069023
51
357.7959224
0
ARC
8
DEFAULT_255_1_234
10
17.982275
20
38.8484721
40
1.1862365
50
357.5871873
51
359.2677531
0
LINE
8
DEFAULT_255_1_234
10
20.2406517
20
39.0662327
11
20.2406517
21
38.8734709
0
LINE
8
DEFAULT_255_1_234
10
19.5025349
20
38.8533916
11
19.5025349
21
39.0517755
0
LINE
8
DEFAULT_255_1_234
10
20.0920645
20
38.8333123
11
20.0920645
21
39.0766739
0
LINE
8
DEFAULT_255_1_234
10
19.6511221
20
39.0879184
11
19.6511221
21
38.8501789
0
ARC
8
DEFAULT_255_1_234
10
19.0159406
20
38.8685805
40
1.2247208
50
353.8441951
51
0.2287902
0
ARC
8
DEFAULT_255_1_234
10
19.479891
20
38.8167806
40
0.7578929
50
344.4934747
51
353.9765454
0
ARC
8
DEFAULT_255_1_234
10
19.77915
20
38.7316981
40
0.4467846
50
329.2803592
51
344.7472793
0
ARC
8
DEFAULT_255_1_234
10
19.8784325
20
38.6772018
40
0.3336173
50
324.9352394
51
328.6160465
0
ARC
8
DEFAULT_255_1_234
10
19.9161434
20
38.6508427
40
0.2876076
50
280.580143
51
324.9173126
0
ARC
8
DEFAULT_255_1_234
10
19.8760226
20
38.8179099
40
0.4592847
50
269.5977311
51
281.6734359
0
ARC
8
DEFAULT_255_1_234
10
19.8688132
20
38.8059173
40
0.4472986
50
256.6228859
51
270.51044
0
ARC
8
DEFAULT_255_1_234
10
19.828611
20
38.6510877
40
0.2873874
50
215.8618325
51
257.2788573
0
ARC
8
DEFAULT_255_1_234
10
19.9307141
20
38.7195977
40
0.4102928
50
197.9693508
51
215.2623606
0
ARC
8
DEFAULT_255_1_234
10
20.1792257
20
38.8034709
40
0.6725652
50
187.8816417
51
198.2346507
0
ARC
8
DEFAULT_255_1_234
10
20.5750465
20
38.8606079
40
1.0724845
50
180.8976217
51
188.0055519
0
ARC
8
DEFAULT_255_1_234
10
20.8550653
20
38.8709777
40
1.3526448
50
180.7449369
51
181.1510016
0
ARC
8
DEFAULT_255_1_234
10
20.6973382
20
39.0566042
40
1.1948131
50
173.7675579
51
180.231553
0
ARC
8
DEFAULT_255_1_234
10
20.2455529
20
39.1076666
40
0.7401564
50
164.3058563
51
173.9002247
0
ARC
8
DEFAULT_255_1_234
10
19.9543598
20
39.1915656
40
0.4371288
50
148.7922025
51
164.568378
0
ARC
8
DEFAULT_255_1_234
10
19.859205
20
39.2446929
40
0.3282386
50
144.5883898
51
148.1176286
0
ARC
8
DEFAULT_255_1_234
10
19.8248948
20
39.2686315
40
0.2864044
50
101.6440918
51
144.514236
0
ARC
8
DEFAULT_255_1_234
10
19.8674015
20
39.0997069
40
0.4604934
50
89.5284041
51
102.5819763
0
ARC
8
DEFAULT_255_1_234
10
19.8753102
20
39.0958018
40
0.464401
50
77.0437873
51
90.5081339
0
ARC
8
DEFAULT_255_1_234
10
19.9155104
20
39.2600615
40
0.2953195
50
48.2778575
51
77.4994676
0
ARC
8
DEFAULT_255_1_234
10
19.9227735
20
39.2729746
40
0.2808655
50
36.3142134
51
47.6305865
0
ARC
8
DEFAULT_255_1_234
10
19.8359042
20
39.2144515
40
0.3855453
50
18.2931786
51
35.6769206
0
ARC
8
DEFAULT_255_1_234
10
19.5815801
20
39.1271593
40
0.654423
50
8.024666
51
18.5605216
0
ARC
8
DEFAULT_255_1_234
10
19.1652721
20
39.0656792
40
1.0752407
50
1.1274072
51
8.1718305
0
ARC
8
DEFAULT_255_1_234
10
18.8416912
20
39.0529885
40
1.3990231
50
0.5424119
51
1.3863029
0
ARC
8
DEFAULT_255_1_234
10
19.023829
20
39.0802342
40
1.0682415
50
359.8090433
51
4.9407866
0
ARC
8
DEFAULT_255_1_234
10
19.4448304
20
39.1178113
40
0.6455691
50
4.8362157
51
12.2904523
0
ARC
8
DEFAULT_255_1_234
10
19.7203419
20
39.1791965
40
0.3633074
50
12.0805627
51
23.8173984
0
ARC
8
DEFAULT_255_1_234
10
19.8377124
20
39.2288919
40
0.2358723
50
24.2871213
51
31.3935614
0
ARC
8
DEFAULT_255_1_234
10
19.8901821
20
39.2632233
40
0.1732111
50
30.7407893
51
82.4657128
0
ARC
8
DEFAULT_255_1_234
10
19.8721955
20
39.1748691
40
0.263235
50
81.1060089
51
90.2184952
0
ARC
8
DEFAULT_255_1_234
10
19.8686254
20
39.2006924
40
0.2374236
50
89.3806855
51
105.6762551
0
ARC
8
DEFAULT_255_1_234
10
19.8502885
20
39.2673567
40
0.1682847
50
105.7981136
51
149.7388061
0
ARC
8
DEFAULT_255_1_234
10
19.9566963
20
39.203395
40
0.2924306
50
149.4208916
51
163.6286378
0
ARC
8
DEFAULT_255_1_234
10
20.1657851
20
39.139625
40
0.5110213
50
163.3763315
51
172.1410975
0
ARC
8
DEFAULT_255_1_234
10
20.495857
20
39.0923518
40
0.8444586
50
172.0259487
51
178.0703232
0
ARC
8
DEFAULT_255_1_234
10
20.798866
20
39.0779906
40
1.1477868
50
177.8631668
51
179.5044149
0
ARC
8
DEFAULT_255_1_234
10
20.6916064
20
38.8465389
40
1.0404907
50
179.7995573
51
185.2460446
0
ARC
8
DEFAULT_255_1_234
10
20.2873104
20
38.8082513
40
0.6343885
50
185.1411642
51
193.0079639
0
ARC
8
DEFAULT_255_1_234
10
20.0229576
20
38.7457641
40
0.3627568
50
192.7897626
51
205.2507664
0
ARC
8
DEFAULT_255_1_234
10
19.9183123
20
38.6990415
40
0.2481908
50
205.8005384
51
211.2537509
0
ARC
8
DEFAULT_255_1_234
10
19.8659564
20
38.663958
40
0.1852521
50
210.3789793
51
238.4008143
0
ARC
8
DEFAULT_255_1_234
10
19.8640085
20
38.6686376
40
0.1882621
50
239.6520629
51
265.9793761
0
ARC
8
DEFAULT_255_1_234
10
19.8725286
20
38.7358427
40
0.2559272
50
265.1315437
51
270.060332
0
ARC
8
DEFAULT_255_1_234
10
19.8754064
20
38.7034534
40
0.2235528
50
269.3314664
51
287.2178029
0
ARC
8
DEFAULT_255_1_234
10
19.8891916
20
38.6531279
40
0.1714108
50
287.7958004
51
329.080874
0
ARC
8
DEFAULT_255_1_234
10
19.7934373
20
38.712893
40
0.2842745
50
328.6634704
51
343.3325132
0
ARC
8
DEFAULT_255_1_234
10
19.5761393
20
38.7805863
40
0.5118644
50
343.0499468
51
351.9393422
0
ARC
8
DEFAULT_255_1_234
10
19.2294693
20
38.8316949
40
0.8622784
50
351.8069023
51
357.7959224
0
ARC
8
DEFAULT_255_1_234
10
18.9059249
20
38.8484721
40
1.1862365
50
357.5871873
51
359.2677531
0
LINE
8
DEFAULT_255_2_778
10
9.3932417
20
28.9719082
11
10.7161417
21
28.9719082
0
LINE
8
DEFAULT_255_2_778
10
10.7161417
20
28.9719082
11
10.7161417
21
19.7115082
0
LINE
8
DEFAULT_255_2_778
10
9.3932834
20
19.7114333
11
12.0390834
21
19.7114333
0
LINE
8
DEFAULT_255_2_778
10
12.0390834
20
19.7114333
11
12.0390834
21
14.4197333
0
LINE
8
DEFAULT_255_2_778
10
12.0390834
20
14.4197333
11
9.3932834
21
14.4197333
0
LINE
8
DEFAULT_255_2_778
10
9.3932834
20
14.4197333
11
9.3932834
21
19.7114333
0
ARC
8
DEFAULT_255_2_778_1
10
13.1928591
20
14.522177
40
4.816461
50
120.9442904
51
122.351755
0
ARC
8
DEFAULT_255_2_778_1
10
12.7462523
20
15.2258039
40
3.9830657
50
122.3407904
51
124.1946752
0
ARC
8
DEFAULT_255_2_778_1
10
12.3063464
20
15.8723306
40
3.2010724
50
124.1855758
51
126.4338849
0
ARC
8
DEFAULT_255_2_778_1
10
11.9204129
20
16.3950611
40
2.5513094
50
126.4326926
51
128.8877368
0
ARC
8
DEFAULT_255_2_778_1
10
11.5855968
20
16.8094658
40
2.0185498
50
128.8749205
51
131.8726567
0
ARC
8
DEFAULT_255_2_778_1
10
11.2884677
20
17.1404854
40
1.5737356
50
131.8616166
51
135.4168838
0
ARC
8
DEFAULT_255_2_778_1
10
11.025668
20
17.3986765
40
1.2053256
50
135.3893975
51
139.9687014
0
ARC
8
DEFAULT_255_2_778_1
10
10.7927889
20
17.5935102
40
0.9016937
50
139.9301659
51
145.9260426
0
ARC
8
DEFAULT_255_2_778_1
10
10.596654
20
17.7255104
40
0.6652776
50
145.8787362
51
153.8146208
0
ARC
8
DEFAULT_255_2_778_1
10
10.4445553
20
17.7998797
40
0.4959714
50
153.770634
51
164.3484794
0
ARC
8
DEFAULT_255_2_778_1
10
10.3432387
20
17.8280786
40
0.3908039
50
164.3220276
51
179.8083066
0
ARC
8
DEFAULT_255_2_778_1
10
10.3642789
20
17.836215
40
0.4118985
50
180.9499449
51
213.8111542
0
ARC
8
DEFAULT_255_2_778_1
10
10.6401828
20
18.0057896
40
0.73561
50
212.8271214
51
224.258472
0
ARC
8
DEFAULT_255_2_778_1
10
11.0230335
20
18.3751236
40
1.267567
50
224.1376218
51
231.4508261
0
ARC
8
DEFAULT_255_2_778_1
10
11.6657195
20
19.1781168
40
2.2960809
50
231.3955893
51
236.1256478
0
ARC
8
DEFAULT_255_2_778_1
10
13.4980223
20
21.9246293
40
5.5976905
50
236.2233172
51
239.1314682
0
ARC
8
DEFAULT_255_2_778_1
10
25.447927
20
41.6523568
40
28.6623793
50
238.8606853
51
239.0711101
0
ARC
8
DEFAULT_255_2_778_1
10
6.2757281
20
9.5552653
40
8.7248518
50
57.2420924
51
59.4062964
0
ARC
8
DEFAULT_255_2_778_1
10
9.5034241
20
14.5862102
40
2.747542
50
52.8289294
51
57.079028
0
ARC
8
DEFAULT_255_2_778_1
10
10.2780783
20
15.6065488
40
1.466457
50
46.3041868
51
52.8596521
0
ARC
8
DEFAULT_255_2_778_1
10
10.7103073
20
16.0566842
40
0.8424061
50
36.2174211
51
46.4090895
0
ARC
8
DEFAULT_255_2_778_1
10
10.9948088
20
16.2615128
40
0.4918609
50
17.400375
51
36.5489745
0
ARC
8
DEFAULT_255_2_778_1
10
11.1088994
20
16.3013754
40
0.3710912
50
0.0676858
51
16.7951297
0
ARC
8
DEFAULT_255_2_778_1
10
11.0878613
20
16.3032428
40
0.3921317
50
343.8035191
51
359.7912046
0
ARC
8
DEFAULT_255_2_778_1
10
10.9815912
20
16.3337167
40
0.5026844
50
333.2506233
51
343.8465691
0
ARC
8
DEFAULT_255_2_778_1
10
10.8277757
20
16.4104313
40
0.6745679
50
325.6600948
51
333.3122657
0
ARC
8
DEFAULT_255_2_778_1
10
10.6323344
20
16.5432296
40
0.9108568
50
319.7560915
51
325.6976089
0
ARC
8
DEFAULT_255_2_778_1
10
10.404199
20
16.7350002
40
1.2088854
50
315.4577584
51
319.8037947
0
ARC
8
DEFAULT_255_2_778_1
10
10.1408127
20
16.9938507
40
1.5781764
50
311.7298824
51
315.4670864
0
ARC
8
DEFAULT_255_2_778_1
10
9.8317879
20
17.3394074
40
2.0417554
50
308.723055
51
311.7470879
0
ARC
8
DEFAULT_255_2_778_1
10
9.477589
20
17.7806492
40
2.6075745
50
306.1165163
51
308.7300151
0
ARC
8
DEFAULT_255_2_778_1
10
9.0746091
20
18.3319523
40
3.2904564
50
303.9559446
51
306.1266333
0
ARC
8
DEFAULT_255_2_778_1
10
8.6630432
20
18.941215
40
4.0257023
50
302.3733397
51
303.9712246
0
ARC
8
DEFAULT_255_2_778_1
10
8.2434347
20
19.6027058
40
4.8090549
50
300.9434827
51
302.3758078
0
LINE
8
DEFAULT_255_2_778
10
10.7161335
20
14.4197497
11
10.7161335
21
5.1593497
0
LINE
8
DEFAULT_255_2_778
10
10.7161335
20
5.1593497
11
9.3932335
21
5.1593497
0
LINE
8
DEFAULT_255_2_778
10
19.9765335
20
28.9718497
11
18.6536335
21
28.9718497
0
LINE
8
DEFAULT_255_2_778
10
18.6536335
20
28.9718497
11
18.6536335
21
27.6489497
0
LINE
8
DEFAULT_255_2_778
10
17.3307834
20
27.6489333
11
19.9765834
21
27.6489333
0
LINE
8
DEFAULT_255_2_778
10
19.9765834
20
27.6489333
11
19.9765834
21
22.3572333
0
LINE
8
DEFAULT_255_2_778
10
19.9765834
20
22.3572333
11
17.3307834
21
22.3572333
0
LINE
8
DEFAULT_255_2_778
10
17.3307834
20
22.3572333
11
17.3307834
21
27.6489333
0
ARC
8
DEFAULT_255_2_778_1
10
21.130363
20
22.459677
40
4.816461
50
120.9442904
51
122.351755
0
ARC
8
DEFAULT_255_2_778_1
10
20.6837561
20
23.1633039
40
3.9830657
50
122.3407904
51
124.1946752
0
ARC
8
DEFAULT_255_2_778_1
10
20.2438503
20
23.8098306
40
3.2010724
50
124.1855758
51
126.4338849
0
ARC
8
DEFAULT_255_2_778_1
10
19.8579167
20
24.3325611
40
2.5513094
50
126.4326926
51
128.8877368
0
ARC
8
DEFAULT_255_2_778_1
10
19.5231006
20
24.7469658
40
2.0185498
50
128.8749205
51
131.8726567
0
ARC
8
DEFAULT_255_2_778_1
10
19.2259715
20
25.0779854
40
1.5737356
50
131.8616166
51
135.4168838
0
ARC
8
DEFAULT_255_2_778_1
10
18.9631718
20
25.3361765
40
1.2053256
50
135.3893975
51
139.9687014
0
ARC
8
DEFAULT_255_2_778_1
10
18.7302927
20
25.5310102
40
0.9016937
50
139.9301659
51
145.9260426
0
ARC
8
DEFAULT_255_2_778_1
10
18.5341578
20
25.6630104
40
0.6652776
50
145.8787362
51
153.8146208
0
ARC
8
DEFAULT_255_2_778_1
10
18.3820592
20
25.7373797
40
0.4959714
50
153.770634
51
164.3484794
0
ARC
8
DEFAULT_255_2_778_1
10
18.2807425
20
25.7655786
40
0.3908039
50
164.3220276
51
179.8083066
0
ARC
8
DEFAULT_255_2_778_1
10
18.3017827
20
25.773715
40
0.4118985
50
180.9499449
51
213.8111542
0
ARC
8
DEFAULT_255_2_778_1
10
18.5776866
20
25.9432896
40
0.73561
50
212.8271214
51
224.258472
0
ARC
8
DEFAULT_255_2_778_1
10
18.9605373
20
26.3126236
40
1.267567
50
224.1376218
51
231.4508261
0
ARC
8
DEFAULT_255_2_778_1
10
19.6032233
20
27.1156168
40
2.2960809
50
231.3955893
51
236.1256478
0
ARC
8
DEFAULT_255_2_778_1
10
21.4355261
20
29.8621293
40
5.5976905
50
236.2233172
51
239.1314682
0
ARC
8
DEFAULT_255_2_778_1
10
33.3854308
20
49.5898568
40
28.6623793
50
238.8606853
51
239.0711101
0
ARC
8
DEFAULT_255_2_778_1
10
14.2132319
20
17.4927653
40
8.7248518
50
57.2420924
51
59.4062964
0
ARC
8
DEFAULT_255_2_778_1
10
17.4409279
20
22.5237102
40
2.747542
50
52.8289294
51
57.079028
0
ARC
8
DEFAULT_255_2_778_1
10
18.2155821
20
23.5440488
40
1.466457
50
46.3041868
51
52.8596521
0
ARC
8
DEFAULT_255_2_778_1
10
18.6478111
20
23.9941842
40
0.8424061
50
36.2174211
51
46.4090895
0
ARC
8
DEFAULT_255_2_778_1
10
18.9323127
20
24.1990128
40
0.4918609
50
17.400375
51
36.5489745
0
ARC
8
DEFAULT_255_2_778_1
10
19.0464032
20
24.2388754
40
0.3710912
50
0.0676858
51
16.7951297
0
ARC
8
DEFAULT_255_2_778_1
10
19.0253651
20
24.2407428
40
0.3921317
50
343.8035191
51
359.7912046
0
ARC
8
DEFAULT_255_2_778_1
10
18.919095
20
24.2712167
40
0.5026844
50
333.2506233
51
343.8465691
0
ARC
8
DEFAULT_255_2_778_1
10
18.7652796
20
24.3479313
40
0.6745679
50
325.6600948
51
333.3122657
0
ARC
8
DEFAULT_255_2_778_1
10
18.5698382
20
24.4807296
40
0.9108568
50
319.7560915
51
325.6976089
0
ARC
8
DEFAULT_255_2_778_1
10
18.3417028
20
24.6725002
40
1.2088854
50
315.4577584
51
319.8037947
0
ARC
8
DEFAULT_255_2_778_1
10
18.0783165
20
24.9313507
40
1.5781764
50
311.7298824
51
315.4670864
0
ARC
8
DEFAULT_255_2_778_1
10
17.7692917
20
25.2769074
40
2.0417554
50
308.723055
51
311.7470879
0
ARC
8
DEFAULT_255_2_778_1
10
17.4150928
20
25.7181492
40
2.6075745
50
306.1165163
51
308.7300151
0
ARC
8
DEFAULT_255_2_778_1
10
17.0121129
20
26.2694523
40
3.2904564
50
303.9559446
51
306.1266333
0
ARC
8
DEFAULT_255_2_778_1
10
16.600547
20
26.878715
40
4.0257023
50
302.3733397
51
303.9712246
0
ARC
8
DEFAULT_255_2_778_1
10
16.1809385
20
27.5402058
40
4.8090549
50
300.9434827
51
302.3758078
0
LINE
8
DEFAULT_255_2_778
10
18.6536417
20
22.3572583
11
18.6536417
21
21.0343583
0
LINE
8
DEFAULT_255_2_778
10
18.6536417
20
21.0343583
11
19.9765417
21
21.0343583
0
LINE
8
DEFAULT_255_1_234
10
4.9274119
20
36.5116792
11
4.9274119
21
36.3904
0
LINE
8
DEFAULT_255_1_234
10
4.9274119
20
36.3904
11
4.161184
21
36.3904
0
LINE
8
DEFAULT_255_1_234
10
4.161184
20
36.3904
11
4.161184
21
36.4972221
0
LINE
8
DEFAULT_255_1_234
10
4.161184
20
36.4972221
11
4.5659836
21
36.9469995
0
LINE
8
DEFAULT_255_1_234
10
4.2872823
20
37.2152595
11
4.1386952
21
37.2152595
0
LINE
8
DEFAULT_255_1_234
10
4.6535296
20
36.8514218
11
4.3402918
21
36.5116792
0
LINE
8
DEFAULT_255_1_234
10
4.3402918
20
36.5116792
11
4.9274119
21
36.5116792
0
ARC
8
DEFAULT_255_1_234
10
3.216967
20
38.1399527
40
1.8008286
50
318.5132453
51
320.7828378
0
ARC
8
DEFAULT_255_1_234
10
3.7456644
20
37.7096426
40
1.1191493
50
320.7372736
51
323.9737074
0
ARC
8
DEFAULT_255_1_234
10
4.1376501
20
37.4256361
40
0.6350923
50
323.8961724
51
328.6421089
0
ARC
8
DEFAULT_255_1_234
10
4.3423096
20
37.2994031
40
0.3946393
50
328.8299013
51
331.789948
0
ARC
8
DEFAULT_255_1_234
10
4.4420274
20
37.2479509
40
0.2824501
50
331.4255242
51
352.9364833
0
ARC
8
DEFAULT_255_1_234
10
4.4556775
20
37.2448976
40
0.2685315
50
353.2248685
51
0.0169286
0
ARC
8
DEFAULT_255_1_234
10
4.4766652
20
37.247195
40
0.2475536
50
359.4866256
51
15.9339782
0
ARC
8
DEFAULT_255_1_234
10
4.5273637
20
37.2608286
40
0.1950618
50
16.1714718
51
43.5284424
0
ARC
8
DEFAULT_255_1_234
10
4.5350946
20
37.2685573
40
0.184134
50
43.4415429
51
83.1661404
0
ARC
8
DEFAULT_255_1_234
10
4.5216864
20
37.1948771
40
0.258926
50
82.160215
51
90.1505798
0
ARC
8
DEFAULT_255_1_234
10
4.5185291
20
37.1411865
40
0.3126255
50
89.5460705
51
102.5418777
0
ARC
8
DEFAULT_255_1_234
10
4.4942377
20
37.2442665
40
0.2067346
50
102.1739365
51
129.2061916
0
ARC
8
DEFAULT_255_1_234
10
4.4863449
20
37.2567094
40
0.1921118
50
129.7279328
51
135.7542026
0
ARC
8
DEFAULT_255_1_234
10
4.4984977
20
37.2470045
40
0.2075944
50
136.175737
51
166.3674722
0
ARC
8
DEFAULT_255_1_234
10
4.5991896
20
37.2200182
40
0.3118201
50
165.9092917
51
178.8683903
0
ARC
8
DEFAULT_255_1_234
10
4.6856757
20
37.2153179
40
0.3983935
50
178.438168
51
180.0083905
0
ARC
8
DEFAULT_255_1_234
10
4.5455359
20
37.2192231
40
0.4068601
50
163.2878735
51
180.5581814
0
ARC
8
DEFAULT_255_1_234
10
4.4653621
20
37.241284
40
0.3237344
50
133.454115
51
162.9470031
0
ARC
8
DEFAULT_255_1_234
10
4.4832162
20
37.2223
40
0.349795
50
100.7869394
51
133.4384016
0
ARC
8
DEFAULT_255_1_234
10
4.5179934
20
37.0674319
40
0.5084616
50
89.6605301
51
101.3704185
0
ARC
8
DEFAULT_255_1_234
10
4.5246273
20
37.0735496
40
0.502348
50
78.2171172
51
90.4130393
0
ARC
8
DEFAULT_255_1_234
10
4.5601351
20
37.2359637
40
0.3361092
50
55.9268222
51
78.4888551
0
ARC
8
DEFAULT_255_1_234
10
4.5797791
20
37.2698324
40
0.2970617
50
47.9292255
51
55.4054003
0
ARC
8
DEFAULT_255_1_234
10
4.5899352
20
37.2801502
40
0.2825983
50
4.3347696
51
48.0560701
0
ARC
8
DEFAULT_255_1_234
10
4.4803745
20
37.2631601
40
0.393225
50
359.925209
51
5.5967654
0
ARC
8
DEFAULT_255_1_234
10
4.5232637
20
37.2687816
40
0.3503892
50
337.8914096
51
358.9967724
0
ARC
8
DEFAULT_255_1_234
10
4.2519049
20
37.3734706
40
0.6412172
50
326.9135351
51
338.3505194
0
ARC
8
DEFAULT_255_1_234
10
3.8533353
20
37.6289284
40
1.1146189
50
319.6472867
51
327.095818
0
ARC
8
DEFAULT_255_1_234
10
3.4700356
20
37.9451
40
1.6114559
50
317.2586784
51
319.9046139
0
LINE
8
DEFAULT_255_1_234
10
5.7121127
20
37.5598211
11
5.7121127
21
36.783152
0
LINE
8
DEFAULT_255_1_234
10
5.7121127
20
36.783152
11
5.8743538
21
36.783152
0
LINE
8
DEFAULT_255_1_234
10
5.8743538
20
36.783152
11
5.8743538
21
36.6618728
0
LINE
8
DEFAULT_255_1_234
10
5.8743538
20
36.6618728
11
5.7121127
21
36.6618728
0
LINE
8
DEFAULT_255_1_234
10
5.7121127
20
36.6618728
11
5.7121127
21
36.3904
0
LINE
8
DEFAULT_255_1_234
10
5.7121127
20
36.3904
11
5.5627224
21
36.3904
0
LINE
8
DEFAULT_255_1_234
10
5.5627224
20
36.3904
11
5.5627224
21
36.6618728
0
LINE
8
DEFAULT_255_1_234
10
5.5627224
20
36.6618728
11
5.0302181
21
36.6618728
0
LINE
8
DEFAULT_255_1_234
10
5.0302181
20
36.6618728
11
5.0302181
21
36.7494187
0
LINE
8
DEFAULT_255_1_234
10
5.0302181
20
36.7494187
11
5.5538875
21
37.5598211
0
LINE
8
DEFAULT_255_1_234
10
5.5538875
20
37.5598211
11
5.7121127
21
37.5598211
0
LINE
8
DEFAULT_255_1_234
10
5.5450525
20
37.3244912
11
5.1988846
21
36.783152
0
LINE
8
DEFAULT_255_1_234
10
5.1988846
20
36.783152
11
5.5627224
21
36.783152
0
LINE
8
DEFAULT_255_1_234
10
5.5627224
20
36.783152
11
5.5627224
21
37.3566181
0
LINE
8
DEFAULT_255_1_234
10
5.5627224
20
37.3566181
11
5.5450525
21
37.3244912
0
LINE
8
DEFAULT_255_1_234
10
6.101652
20
37.5598211
11
6.434166
21
36.5952093
0
LINE
8
DEFAULT_255_1_234
10
6.434166
20
36.5952093
11
6.7682863
21
37.5598211
0
LINE
8
DEFAULT_255_1_234
10
6.7682863
20
37.5598211
11
6.9369528
21
37.5598211
0
LINE
8
DEFAULT_255_1_234
10
6.9369528
20
37.5598211
11
6.5032389
21
36.3904
0
LINE
8
DEFAULT_255_1_234
10
6.5032389
20
36.3904
11
6.3666994
21
36.3904
0
LINE
8
DEFAULT_255_1_234
10
6.3666994
20
36.3904
11
5.9337887
21
37.5598211
0
LINE
8
DEFAULT_255_1_234
10
5.9337887
20
37.5598211
11
6.101652
21
37.5598211
0
LINE
8
DEFAULT_255_1_234
10
4.3185522
20
5.8098211
11
4.6510662
21
4.8452093
0
LINE
8
DEFAULT_255_1_234
10
4.6510662
20
4.8452093
11
4.9851865
21
5.8098211
0
LINE
8
DEFAULT_255_1_234
10
4.9851865
20
5.8098211
11
5.153853
21
5.8098211
0
LINE
8
DEFAULT_255_1_234
10
5.153853
20
5.8098211
11
4.7201391
21
4.6404
0
LINE
8
DEFAULT_255_1_234
10
4.7201391
20
4.6404
11
4.5835996
21
4.6404
0
LINE
8
DEFAULT_255_1_234
10
4.5835996
20
4.6404
11
4.1506889
21
5.8098211
0
LINE
8
DEFAULT_255_1_234
10
4.1506889
20
5.8098211
11
4.3185522
21
5.8098211
0
LINE
8
DEFAULT_255_1_234
10
5.8991983
20
5.8098211
11
5.8991983
21
5.033152
0
LINE
8
DEFAULT_255_1_234
10
5.8991983
20
5.033152
11
6.0614394
21
5.033152
0
LINE
8
DEFAULT_255_1_234
10
6.0614394
20
5.033152
11
6.0614394
21
4.9118728
0
LINE
8
DEFAULT_255_1_234
10
6.0614394
20
4.9118728
11
5.8991983
21
4.9118728
0
LINE
8
DEFAULT_255_1_234
10
5.8991983
20
4.9118728
11
5.8991983
21
4.6404
0
LINE
8
DEFAULT_255_1_234
10
5.8991983
20
4.6404
11
5.749808
21
4.6404
0
LINE
8
DEFAULT_255_1_234
10
5.749808
20
4.6404
11
5.749808
21
4.9118728
0
LINE
8
DEFAULT_255_1_234
10
5.749808
20
4.9118728
11
5.2173037
21
4.9118728
0
LINE
8
DEFAULT_255_1_234
10
5.2173037
20
4.9118728
11
5.2173037
21
4.9994187
0
LINE
8
DEFAULT_255_1_234
10
5.2173037
20
4.9994187
11
5.740973
21
5.8098211
0
LINE
8
DEFAULT_255_1_234
10
5.740973
20
5.8098211
11
5.8991983
21
5.8098211
0
LINE
8
DEFAULT_255_1_234
10
5.7321381
20
5.5744912
11
5.3859702
21
5.033152
0
LINE
8
DEFAULT_255_1_234
10
5.3859702
20
5.033152
11
5.749808
21
5.033152
0
LINE
8
DEFAULT_255_1_234
10
5.749808
20
5.033152
11
5.749808
21
5.6066181
0
LINE
8
DEFAULT_255_1_234
10
5.749808
20
5.6066181
11
5.7321381
21
5.5744912
0
LINE
8
DEFAULT_255_1_234
10
6.6365119
20
5.6090276
11
6.6365119
21
5.2676788
0
LINE
8
DEFAULT_255_1_234
10
6.6365119
20
5.2676788
11
6.9626004
21
5.2676788
0
LINE
8
DEFAULT_255_1_234
10
6.9626004
20
5.2676788
11
6.9626004
21
5.1271233
0
LINE
8
DEFAULT_255_1_234
10
6.9626004
20
5.1271233
11
6.6365119
21
5.1271233
0
LINE
8
DEFAULT_255_1_234
10
6.6365119
20
5.1271233
11
6.6365119
21
4.7576634
0
LINE
8
DEFAULT_255_1_234
10
6.6365119
20
4.7576634
11
6.4871215
21
4.7576634
0
LINE
8
DEFAULT_255_1_234
10
6.4871215
20
4.7576634
11
6.4871215
21
5.1271233
0
LINE
8
DEFAULT_255_1_234
10
6.4871215
20
5.1271233
11
6.161033
21
5.1271233
0
LINE
8
DEFAULT_255_1_234
10
6.161033
20
5.1271233
11
6.161033
21
5.2676788
0
LINE
8
DEFAULT_255_1_234
10
6.161033
20
5.2676788
11
6.4871215
21
5.2676788
0
LINE
8
DEFAULT_255_1_234
10
6.4871215
20
5.2676788
11
6.4871215
21
5.6090276
0
LINE
8
DEFAULT_255_1_234
10
6.4871215
20
5.6090276
11
6.6365119
21
5.6090276
0
LINE
8
DEFAULT_255_1_234
10
4.3185522
20
13.7473211
11
4.6510662
21
12.7827093
0
LINE
8
DEFAULT_255_1_234
10
4.6510662
20
12.7827093
11
4.9851865
21
13.7473211
0
LINE
8
DEFAULT_255_1_234
10
4.9851865
20
13.7473211
11
5.153853
21
13.7473211
0
LINE
8
DEFAULT_255_1_234
10
5.153853
20
13.7473211
11
4.7201391
21
12.5779
0
LINE
8
DEFAULT_255_1_234
10
4.7201391
20
12.5779
11
4.5835996
21
12.5779
0
LINE
8
DEFAULT_255_1_234
10
4.5835996
20
12.5779
11
4.1506889
21
13.7473211
0
LINE
8
DEFAULT_255_1_234
10
4.1506889
20
13.7473211
11
4.3185522
21
13.7473211
0
LINE
8
DEFAULT_255_1_234
10
5.4879733
20
13.1136169
11
5.4879733
21
13.2348962
0
LINE
8
DEFAULT_255_1_234
10
5.4879733
20
13.2348962
11
5.5996145
21
13.2348962
0
LINE
8
DEFAULT_255_1_234
10
5.4092623
20
13.4405087
11
5.2606751
21
13.4405087
0
LINE
8
DEFAULT_255_1_234
10
5.2502338
20
12.8863188
11
5.3996242
21
12.8863188
0
LINE
8
DEFAULT_255_1_234
10
5.5996145
20
13.1136169
11
5.4879733
21
13.1136169
0
ARC
8
DEFAULT_255_1_234
10
5.5967011
20
13.5741713
40
0.3392876
50
270.4919872
51
281.8951556
0
ARC
8
DEFAULT_255_1_234
10
5.6208273
20
13.4639702
40
0.2264817
50
281.6691735
51
301.2943132
0
ARC
8
DEFAULT_255_1_234
10
5.6378483
20
13.4328304
40
0.1910381
50
301.7833094
51
311.7545298
0
ARC
8
DEFAULT_255_1_234
10
5.6470059
20
13.4226748
40
0.1773635
50
311.7323931
51
354.2802411
0
ARC
8
DEFAULT_255_1_234
10
5.5743684
20
13.4351722
40
0.2509385
50
353.0937916
51
0.1181479
0
ARC
8
DEFAULT_255_1_234
10
5.5282469
20
13.4399386
40
0.2970898
50
359.1805295
51
15.0453146
0
ARC
8
DEFAULT_255_1_234
10
5.6628306
20
13.4791992
40
0.1569564
50
13.9577229
51
77.6713066
0
ARC
8
DEFAULT_255_1_234
10
5.6241835
20
13.3406949
40
0.3006298
50
76.1116566
51
90.7026153
0
ARC
8
DEFAULT_255_1_234
10
5.6182673
20
13.3680545
40
0.2732568
50
89.5324876
51
103.531937
0
ARC
8
DEFAULT_255_1_234
10
5.5982117
20
13.4479884
40
0.1908508
50
103.2931773
51
133.5619022
0
ARC
8
DEFAULT_255_1_234
10
5.5937606
20
13.4539375
40
0.1834746
50
133.8349307
51
173.5344437
0
ARC
8
DEFAULT_255_1_234
10
5.6660649
20
13.4411213
40
0.2568033
50
172.5096846
51
180.1366907
0
ARC
8
DEFAULT_255_1_234
10
5.5709543
20
13.4445622
40
0.3103056
50
155.3484492
51
180.7484736
0
ARC
8
DEFAULT_255_1_234
10
5.5660632
20
13.4416846
40
0.3070957
50
131.5744599
51
154.4798489
0
ARC
8
DEFAULT_255_1_234
10
5.5973779
20
13.410031
40
0.3515643
50
96.9875458
51
131.9690667
0
ARC
8
DEFAULT_255_1_234
10
5.6193259
20
13.2854636
40
0.4779224
50
89.8596053
51
97.7825159
0
ARC
8
DEFAULT_255_1_234
10
5.6241322
20
13.2592616
40
0.5041361
50
78.3655447
51
90.4131539
0
ARC
8
DEFAULT_255_1_234
10
5.659924
20
13.4251887
40
0.3344039
50
56.6229102
51
78.638727
0
ARC
8
DEFAULT_255_1_234
10
5.6814184
20
13.4627805
40
0.2912001
50
47.0253525
51
56.0854072
0
ARC
8
DEFAULT_255_1_234
10
5.6833964
20
13.4667223
40
0.2869704
50
10.9208013
51
46.7778124
0
ARC
8
DEFAULT_255_1_234
10
5.547003
20
13.4351857
40
0.426899
50
359.6364486
51
11.6087304
0
ARC
8
DEFAULT_255_1_234
10
5.7304874
20
13.4336752
40
0.243409
50
332.3549906
51
359.7179418
0
ARC
8
DEFAULT_255_1_234
10
5.6654476
20
13.4645142
40
0.3153459
50
325.2333722
51
332.8745602
0
ARC
8
DEFAULT_255_1_234
10
5.6807099
20
13.4538828
40
0.2967456
50
292.9802137
51
325.2392345
0
ARC
8
DEFAULT_255_1_234
10
5.6532473
20
13.5072863
40
0.3566604
50
292.5402179
51
293.6924929
0
ARC
8
DEFAULT_255_1_234
10
5.6925069
20
12.8618091
40
0.3307468
50
57.6435486
51
72.8625112
0
ARC
8
DEFAULT_255_1_234
10
5.7279569
20
12.9192549
40
0.2632492
50
36.7248896
51
57.4697979
0
ARC
8
DEFAULT_255_1_234
10
5.7268202
20
12.920522
40
0.2634081
50
8.0545065
51
36.356114
0
ARC
8
DEFAULT_255_1_234
10
5.6405387
20
12.9050174
40
0.3510261
50
359.8320645
51
8.5869982
0
ARC
8
DEFAULT_255_1_234
10
5.6030163
20
12.9002101
40
0.3885653
50
343.9829931
51
0.5571613
0
ARC
8
DEFAULT_255_1_234
10
5.691636
20
12.8759438
40
0.2966924
50
311.6359546
51
343.7651759
0
ARC
8
DEFAULT_255_1_234
10
5.6537929
20
12.9186102
40
0.3537231
50
279.7829875
51
311.6255694
0
ARC
8
DEFAULT_255_1_234
10
5.6236705
20
13.062328
40
0.5004971
50
269.7286406
51
280.3856417
0
ARC
8
DEFAULT_255_1_234
10
5.6174778
20
13.0581996
40
0.4963778
50
256.6828919
51
270.4412052
0
ARC
8
DEFAULT_255_1_234
10
5.5836074
20
12.9197394
40
0.3538406
50
229.4223008
51
256.8556159
0
ARC
8
DEFAULT_255_1_234
10
5.5421467
20
12.8730736
40
0.2914296
50
181.818294
51
229.6455059
0
ARC
8
DEFAULT_255_1_234
10
5.6461423
20
12.8861496
40
0.3959084
50
179.9755256
51
183.2323064
0
ARC
8
DEFAULT_255_1_234
10
5.6289169
20
12.8841037
40
0.2293034
50
179.4465117
51
196.2869258
0
ARC
8
DEFAULT_255_1_234
10
5.5801577
20
12.8707651
40
0.1787621
50
196.5661473
51
227.705904
0
ARC
8
DEFAULT_255_1_234
10
5.5965672
20
12.8891155
40
0.2033784
50
227.7652068
51
257.8762805
0
ARC
8
DEFAULT_255_1_234
10
5.6190642
20
12.9834156
40
0.3003081
50
257.4584385
51
270.426602
0
ARC
8
DEFAULT_255_1_234
10
5.6236208
20
13.0123996
40
0.329292
50
269.5962073
51
280.8789248
0
ARC
8
DEFAULT_255_1_234
10
5.6465737
20
12.8977685
40
0.2123908
50
280.6346389
51
299.8595945
0
ARC
8
DEFAULT_255_1_234
10
5.6656644
20
12.8615212
40
0.171457
50
300.3576302
51
314.5517981
0
ARC
8
DEFAULT_255_1_234
10
5.6573704
20
12.8675919
40
0.1816095
50
315.0728369
51
345.0431014
0
ARC
8
DEFAULT_255_1_234
10
5.5650518
20
12.8944841
40
0.2777492
50
344.5986631
51
357.9269593
0
ARC
8
DEFAULT_255_1_234
10
5.4754844
20
12.9006276
40
0.3674917
50
357.4748886
51
0.0231117
0
ARC
8
DEFAULT_255_1_234
10
5.5777954
20
12.9030679
40
0.2651907
50
359.5047933
51
13.4239635
0
ARC
8
DEFAULT_255_1_234
10
5.6644597
20
12.9252478
40
0.1757509
50
12.9498199
51
48.7551375
0
ARC
8
DEFAULT_255_1_234
10
5.6462331
20
12.90034
40
0.2065134
50
49.5088623
51
72.1836453
0
ARC
8
DEFAULT_255_1_234
10
5.6104484
20
12.7941291
40
0.3185836
50
71.9010081
51
84.3554254
0
ARC
8
DEFAULT_255_1_234
10
5.5943116
20
12.6580326
40
0.4556151
50
84.0193428
51
89.333121
0
LINE
8
DEFAULT_255_1_234
10
6.6365119
20
13.5465276
11
6.6365119
21
13.2051788
0
LINE
8
DEFAULT_255_1_234
10
6.6365119
20
13.2051788
11
6.9626004
21
13.2051788
0
LINE
8
DEFAULT_255_1_234
10
6.9626004
20
13.2051788
11
6.9626004
21
13.0646233
0
LINE
8
DEFAULT_255_1_234
10
6.9626004
20
13.0646233
11
6.6365119
21
13.0646233
0
LINE
8
DEFAULT_255_1_234
10
6.6365119
20
13.0646233
11
6.6365119
21
12.6951634
0
LINE
8
DEFAULT_255_1_234
10
6.6365119
20
12.6951634
11
6.4871215
21
12.6951634
0
LINE
8
DEFAULT_255_1_234
10
6.4871215
20
12.6951634
11
6.4871215
21
13.0646233
0
LINE
8
DEFAULT_255_1_234
10
6.4871215
20
13.0646233
11
6.161033
21
13.0646233
0
LINE
8
DEFAULT_255_1_234
10
6.161033
20
13.0646233
11
6.161033
21
13.2051788
0
LINE
8
DEFAULT_255_1_234
10
6.161033
20
13.2051788
11
6.4871215
21
13.2051788
0
LINE
8
DEFAULT_255_1_234
10
6.4871215
20
13.2051788
11
6.4871215
21
13.5465276
0
LINE
8
DEFAULT_255_1_234
10
6.4871215
20
13.5465276
11
6.6365119
21
13.5465276
0
LINE
8
DEFAULT_255_1_234
10
4.3185522
20
21.6848211
11
4.6510662
21
20.7202093
0
LINE
8
DEFAULT_255_1_234
10
4.6510662
20
20.7202093
11
4.9851865
21
21.6848211
0
LINE
8
DEFAULT_255_1_234
10
4.9851865
20
21.6848211
11
5.153853
21
21.6848211
0
LINE
8
DEFAULT_255_1_234
10
5.153853
20
21.6848211
11
4.7201391
21
20.5154
0
LINE
8
DEFAULT_255_1_234
10
4.7201391
20
20.5154
11
4.5835996
21
20.5154
0
LINE
8
DEFAULT_255_1_234
10
4.5835996
20
20.5154
11
4.1506889
21
21.6848211
0
LINE
8
DEFAULT_255_1_234
10
4.1506889
20
21.6848211
11
4.3185522
21
21.6848211
0
LINE
8
DEFAULT_255_1_234
10
6.0381474
20
20.6366792
11
6.0381474
21
20.5154
0
LINE
8
DEFAULT_255_1_234
10
6.0381474
20
20.5154
11
5.2719195
21
20.5154
0
LINE
8
DEFAULT_255_1_234
10
5.2719195
20
20.5154
11
5.2719195
21
20.6222221
0
LINE
8
DEFAULT_255_1_234
10
5.2719195
20
20.6222221
11
5.6767191
21
21.0719995
0
LINE
8
DEFAULT_255_1_234
10
5.3980178
20
21.3402595
11
5.2494307
21
21.3402595
0
LINE
8
DEFAULT_255_1_234
10
5.7642651
20
20.9764218
11
5.4510273
21
20.6366792
0
LINE
8
DEFAULT_255_1_234
10
5.4510273
20
20.6366792
11
6.0381474
21
20.6366792
0
ARC
8
DEFAULT_255_1_234
10
4.3277025
20
22.2649527
40
1.8008286
50
318.5132453
51
320.7828378
0
ARC
8
DEFAULT_255_1_234
10
4.8563999
20
21.8346426
40
1.1191493
50
320.7372736
51
323.9737074
0
ARC
8
DEFAULT_255_1_234
10
5.2483855
20
21.5506361
40
0.6350923
50
323.8961724
51
328.6421089
0
ARC
8
DEFAULT_255_1_234
10
5.4530451
20
21.4244031
40
0.3946393
50
328.8299013
51
331.789948
0
ARC
8
DEFAULT_255_1_234
10
5.5527629
20
21.3729509
40
0.2824501
50
331.4255242
51
352.9364833
0
ARC
8
DEFAULT_255_1_234
10
5.566413
20
21.3698976
40
0.2685315
50
353.2248685
51
0.0169286
0
ARC
8
DEFAULT_255_1_234
10
5.5874007
20
21.372195
40
0.2475536
50
359.4866256
51
15.9339782
0
ARC
8
DEFAULT_255_1_234
10
5.6380992
20
21.3858286
40
0.1950618
50
16.1714718
51
43.5284424
0
ARC
8
DEFAULT_255_1_234
10
5.6458301
20
21.3935573
40
0.184134
50
43.4415429
51
83.1661404
0
ARC
8
DEFAULT_255_1_234
10
5.6324219
20
21.3198771
40
0.258926
50
82.160215
51
90.1505798
0
ARC
8
DEFAULT_255_1_234
10
5.6292646
20
21.2661865
40
0.3126255
50
89.5460705
51
102.5418777
0
ARC
8
DEFAULT_255_1_234
10
5.6049732
20
21.3692665
40
0.2067346
50
102.1739365
51
129.2061916
0
ARC
8
DEFAULT_255_1_234
10
5.5970804
20
21.3817094
40
0.1921118
50
129.7279328
51
135.7542026
0
ARC
8
DEFAULT_255_1_234
10
5.6092332
20
21.3720045
40
0.2075944
50
136.175737
51
166.3674722
0
ARC
8
DEFAULT_255_1_234
10
5.7099251
20
21.3450182
40
0.3118201
50
165.9092917
51
178.8683903
0
ARC
8
DEFAULT_255_1_234
10
5.7964112
20
21.3403179
40
0.3983935
50
178.438168
51
180.0083905
0
ARC
8
DEFAULT_255_1_234
10
5.6562714
20
21.3442231
40
0.4068601
50
163.2878735
51
180.5581814
0
ARC
8
DEFAULT_255_1_234
10
5.5760976
20
21.366284
40
0.3237344
50
133.454115
51
162.9470031
0
ARC
8
DEFAULT_255_1_234
10
5.5939517
20
21.3473
40
0.349795
50
100.7869394
51
133.4384016
0
ARC
8
DEFAULT_255_1_234
10
5.6287289
20
21.1924319
40
0.5084616
50
89.6605301
51
101.3704185
0
ARC
8
DEFAULT_255_1_234
10
5.6353627
20
21.1985496
40
0.502348
50
78.2171172
51
90.4130393
0
ARC
8
DEFAULT_255_1_234
10
5.6708706
20
21.3609637
40
0.3361092
50
55.9268222
51
78.4888551
0
ARC
8
DEFAULT_255_1_234
10
5.6905146
20
21.3948324
40
0.2970617
50
47.9292255
51
55.4054003
0
ARC
8
DEFAULT_255_1_234
10
5.7006707
20
21.4051502
40
0.2825983
50
4.3347696
51
48.0560701
0
ARC
8
DEFAULT_255_1_234
10
5.59111
20
21.3881601
40
0.393225
50
359.925209
51
5.5967654
0
ARC
8
DEFAULT_255_1_234
10
5.6339992
20
21.3937816
40
0.3503892
50
337.8914096
51
358.9967724
0
ARC
8
DEFAULT_255_1_234
10
5.3626404
20
21.4984706
40
0.6412172
50
326.9135351
51
338.3505194
0
ARC
8
DEFAULT_255_1_234
10
4.9640708
20
21.7539284
40
1.1146189
50
319.6472867
51
327.095818
0
ARC
8
DEFAULT_255_1_234
10
4.5807711
20
22.0701
40
1.6114559
50
317.2586784
51
319.9046139
0
LINE
8
DEFAULT_255_1_234
10
6.6365119
20
21.4840276
11
6.6365119
21
21.1426788
0
LINE
8
DEFAULT_255_1_234
10
6.6365119
20
21.1426788
11
6.9626004
21
21.1426788
0
LINE
8
DEFAULT_255_1_234
10
6.9626004
20
21.1426788
11
6.9626004
21
21.0021233
0
LINE
8
DEFAULT_255_1_234
10
6.9626004
20
21.0021233
11
6.6365119
21
21.0021233
0
LINE
8
DEFAULT_255_1_234
10
6.6365119
20
21.0021233
11
6.6365119
21
20.6326634
0
LINE
8
DEFAULT_255_1_234
10
6.6365119
20
20.6326634
11
6.4871215
21
20.6326634
0
LINE
8
DEFAULT_255_1_234
10
6.4871215
20
20.6326634
11
6.4871215
21
21.0021233
0
LINE
8
DEFAULT_255_1_234
10
6.4871215
20
21.0021233
11
6.161033
21
21.0021233
0
LINE
8
DEFAULT_255_1_234
10
6.161033
20
21.0021233
11
6.161033
21
21.1426788
0
LINE
8
DEFAULT_255_1_234
10
6.161033
20
21.1426788
11
6.4871215
21
21.1426788
0
LINE
8
DEFAULT_255_1_234
10
6.4871215
20
21.1426788
11
6.4871215
21
21.4840276
0
LINE
8
DEFAULT_255_1_234
10
6.4871215
20
21.4840276
11
6.6365119
21
21.4840276
0
LINE
8
DEFAULT_255_1_234
10
4.3185522
20
29.6223211
11
4.6510662
21
28.6577093
0
LINE
8
DEFAULT_255_1_234
10
4.6510662
20
28.6577093
11
4.9851865
21
29.6223211
0
LINE
8
DEFAULT_255_1_234
10
4.9851865
20
29.6223211
11
5.153853
21
29.6223211
0
LINE
8
DEFAULT_255_1_234
10
5.153853
20
29.6223211
11
4.7201391
21
28.4529
0
LINE
8
DEFAULT_255_1_234
10
4.7201391
20
28.4529
11
4.5835996
21
28.4529
0
LINE
8
DEFAULT_255_1_234
10
4.5835996
20
28.4529
11
4.1506889
21
29.6223211
0
LINE
8
DEFAULT_255_1_234
10
4.1506889
20
29.6223211
11
4.3185522
21
29.6223211
0
LINE
8
DEFAULT_255_1_234
10
5.7602492
20
29.6279433
11
5.7602492
21
28.4529
0
LINE
8
DEFAULT_255_1_234
10
5.7602492
20
28.4529
11
5.6108589
21
28.4529
0
LINE
8
DEFAULT_255_1_234
10
5.6108589
20
28.4529
11
5.6108589
21
29.4432133
0
LINE
8
DEFAULT_255_1_234
10
5.6108589
20
29.4432133
11
5.311275
21
29.3331785
0
LINE
8
DEFAULT_255_1_234
10
5.311275
20
29.3331785
11
5.311275
21
29.4681117
0
LINE
8
DEFAULT_255_1_234
10
5.311275
20
29.4681117
11
5.7369572
21
29.6279433
0
LINE
8
DEFAULT_255_1_234
10
5.7369572
20
29.6279433
11
5.7602492
21
29.6279433
0
LINE
8
DEFAULT_255_1_234
10
6.6365119
20
29.4215276
11
6.6365119
21
29.0801788
0
LINE
8
DEFAULT_255_1_234
10
6.6365119
20
29.0801788
11
6.9626004
21
29.0801788
0
LINE
8
DEFAULT_255_1_234
10
6.9626004
20
29.0801788
11
6.9626004
21
28.9396233
0
LINE
8
DEFAULT_255_1_234
10
6.9626004
20
28.9396233
11
6.6365119
21
28.9396233
0
LINE
8
DEFAULT_255_1_234
10
6.6365119
20
28.9396233
11
6.6365119
21
28.5701634
0
LINE
8
DEFAULT_255_1_234
10
6.6365119
20
28.5701634
11
6.4871215
21
28.5701634
0
LINE
8
DEFAULT_255_1_234
10
6.4871215
20
28.5701634
11
6.4871215
21
28.9396233
0
LINE
8
DEFAULT_255_1_234
10
6.4871215
20
28.9396233
11
6.161033
21
28.9396233
0
LINE
8
DEFAULT_255_1_234
10
6.161033
20
28.9396233
11
6.161033
21
29.0801788
0
LINE
8
DEFAULT_255_1_234
10
6.161033
20
29.0801788
11
6.4871215
21
29.0801788
0
LINE
8
DEFAULT_255_1_234
10
6.4871215
20
29.0801788
11
6.4871215
21
29.4215276
0
LINE
8
DEFAULT_255_1_234
10
6.4871215
20
29.4215276
11
6.6365119
21
29.4215276
0
LINE
8
DEFAULT_255_1_234
10
23.1654817
20
37.0819327
11
23.1654817
21
36.8891709
0
LINE
8
DEFAULT_255_1_234
10
22.427365
20
36.8690916
11
22.427365
21
37.0674755
0
LINE
8
DEFAULT_255_1_234
10
23.0168946
20
36.8490123
11
23.0168946
21
37.0923739
0
LINE
8
DEFAULT_255_1_234
10
22.5759521
20
37.1036184
11
22.5759521
21
36.8658789
0
ARC
8
DEFAULT_255_1_234
10
21.9407707
20
36.8842805
40
1.2247208
50
353.8441951
51
0.2287902
0
ARC
8
DEFAULT_255_1_234
10
22.4047211
20
36.8324806
40
0.7578929
50
344.4934747
51
353.9765454
0
ARC
8
DEFAULT_255_1_234
10
22.7039801
20
36.7473981
40
0.4467846
50
329.2803592
51
344.7472793
0
ARC
8
DEFAULT_255_1_234
10
22.8032626
20
36.6929018
40
0.3336173
50
324.9352394
51
328.6160465
0
ARC
8
DEFAULT_255_1_234
10
22.8409734
20
36.6665427
40
0.2876076
50
280.580143
51
324.9173126
0
ARC
8
DEFAULT_255_1_234
10
22.8008527
20
36.8336099
40
0.4592847
50
269.5977311
51
281.6734359
0
ARC
8
DEFAULT_255_1_234
10
22.7936433
20
36.8216173
40
0.4472986
50
256.6228859
51
270.51044
0
ARC
8
DEFAULT_255_1_234
10
22.753441
20
36.6667877
40
0.2873874
50
215.8618325
51
257.2788573
0
ARC
8
DEFAULT_255_1_234
10
22.8555442
20
36.7352977
40
0.4102928
50
197.9693508
51
215.2623606
0
ARC
8
DEFAULT_255_1_234
10
23.1040558
20
36.8191709
40
0.6725652
50
187.8816417
51
198.2346507
0
ARC
8
DEFAULT_255_1_234
10
23.4998766
20
36.8763079
40
1.0724845
50
180.8976217
51
188.0055519
0
ARC
8
DEFAULT_255_1_234
10
23.7798954
20
36.8866777
40
1.3526448
50
180.7449369
51
181.1510016
0
ARC
8
DEFAULT_255_1_234
10
23.6221683
20
37.0723042
40
1.1948131
50
173.7675579
51
180.231553
0
ARC
8
DEFAULT_255_1_234
10
23.170383
20
37.1233666
40
0.7401564
50
164.3058563
51
173.9002247
0
ARC
8
DEFAULT_255_1_234
10
22.8791899
20
37.2072656
40
0.4371288
50
148.7922025
51
164.568378
0
ARC
8
DEFAULT_255_1_234
10
22.7840351
20
37.2603929
40
0.3282386
50
144.5883898
51
148.1176286
0
ARC
8
DEFAULT_255_1_234
10
22.7497249
20
37.2843315
40
0.2864044
50
101.6440918
51
144.514236
0
ARC
8
DEFAULT_255_1_234
10
22.7922315
20
37.1154069
40
0.4604934
50
89.5284041
51
102.5819763
0
ARC
8
DEFAULT_255_1_234
10
22.8001403
20
37.1115018
40
0.464401
50
77.0437873
51
90.5081339
0
ARC
8
DEFAULT_255_1_234
10
22.8403405
20
37.2757615
40
0.2953195
50
48.2778575
51
77.4994676
0
ARC
8
DEFAULT_255_1_234
10
22.8476036
20
37.2886746
40
0.2808655
50
36.3142134
51
47.6305865
0
ARC
8
DEFAULT_255_1_234
10
22.7607343
20
37.2301515
40
0.3855453
50
18.2931786
51
35.6769206
0
ARC
8
DEFAULT_255_1_234
10
22.5064102
20
37.1428593
40
0.654423
50
8.024666
51
18.5605216
0
ARC
8
DEFAULT_255_1_234
10
22.0901022
20
37.0813792
40
1.0752407
50
1.1274072
51
8.1718305
0
ARC
8
DEFAULT_255_1_234
10
21.7665213
20
37.0686885
40
1.3990231
50
0.5424119
51
1.3863029
0
ARC
8
DEFAULT_255_1_234
10
21.948659
20
37.0959342
40
1.0682415
50
359.8090433
51
4.9407866
0
ARC
8
DEFAULT_255_1_234
10
22.3696604
20
37.1335113
40
0.6455691
50
4.8362157
51
12.2904523
0
ARC
8
DEFAULT_255_1_234
10
22.6451719
20
37.1948965
40
0.3633074
50
12.0805627
51
23.8173984
0
ARC
8
DEFAULT_255_1_234
10
22.7625425
20
37.2445919
40
0.2358723
50
24.2871213
51
31.3935614
0
ARC
8
DEFAULT_255_1_234
10
22.8150122
20
37.2789233
40
0.1732111
50
30.7407893
51
82.4657128
0
ARC
8
DEFAULT_255_1_234
10
22.7970256
20
37.1905691
40
0.263235
50
81.1060089
51
90.2184952
0
ARC
8
DEFAULT_255_1_234
10
22.7934555
20
37.2163924
40
0.2374236
50
89.3806855
51
105.6762551
0
ARC
8
DEFAULT_255_1_234
10
22.7751186
20
37.2830567
40
0.1682847
50
105.7981136
51
149.7388061
0
ARC
8
DEFAULT_255_1_234
10
22.8815264
20
37.219095
40
0.2924306
50
149.4208916
51
163.6286378
0
ARC
8
DEFAULT_255_1_234
10
23.0906152
20
37.155325
40
0.5110213
50
163.3763315
51
172.1410975
0
ARC
8
DEFAULT_255_1_234
10
23.4206871
20
37.1080518
40
0.8444586
50
172.0259487
51
178.0703232
0
ARC
8
DEFAULT_255_1_234
10
23.723696
20
37.0936906
40
1.1477868
50
177.8631668
51
179.5044149
0
ARC
8
DEFAULT_255_1_234
10
23.6164365
20
36.8622389
40
1.0404907
50
179.7995573
51
185.2460446
0
ARC
8
DEFAULT_255_1_234
10
23.2121404
20
36.8239513
40
0.6343885
50
185.1411642
51
193.0079639
0
ARC
8
DEFAULT_255_1_234
10
22.9477877
20
36.7614641
40
0.3627568
50
192.7897626
51
205.2507664
0
ARC
8
DEFAULT_255_1_234
10
22.8431424
20
36.7147415
40
0.2481908
50
205.8005384
51
211.2537509
0
ARC
8
DEFAULT_255_1_234
10
22.7907864
20
36.679658
40
0.1852521
50
210.3789793
51
238.4008143
0
ARC
8
DEFAULT_255_1_234
10
22.7888386
20
36.6843376
40
0.1882621
50
239.6520629
51
265.9793761
0
ARC
8
DEFAULT_255_1_234
10
22.7973586
20
36.7515427
40
0.2559272
50
265.1315437
51
270.060332
0
ARC
8
DEFAULT_255_1_234
10
22.8002365
20
36.7191534
40
0.2235528
50
269.3314664
51
287.2178029
0
ARC
8
DEFAULT_255_1_234
10
22.8140217
20
36.6688279
40
0.1714108
50
287.7958004
51
329.080874
0
ARC
8
DEFAULT_255_1_234
10
22.7182674
20
36.728593
40
0.2842745
50
328.6634704
51
343.3325132
0
ARC
8
DEFAULT_255_1_234
10
22.5009694
20
36.7962863
40
0.5118644
50
343.0499468
51
351.9393422
0
ARC
8
DEFAULT_255_1_234
10
22.1542994
20
36.8473949
40
0.8622784
50
351.8069023
51
357.7959224
0
ARC
8
DEFAULT_255_1_234
10
21.830755
20
36.8641721
40
1.1862365
50
357.5871873
51
359.2677531
0
LINE
8
DEFAULT_255_1_234
10
23.4490021
20
37.5598211
11
23.7815161
21
36.5952093
0
LINE
8
DEFAULT_255_1_234
10
23.7815161
20
36.5952093
11
24.1156364
21
37.5598211
0
LINE
8
DEFAULT_255_1_234
10
24.1156364
20
37.5598211
11
24.2843029
21
37.5598211
0
LINE
8
DEFAULT_255_1_234
10
24.2843029
20
37.5598211
11
23.850589
21
36.3904
0
LINE
8
DEFAULT_255_1_234
10
23.850589
20
36.3904
11
23.7140495
21
36.3904
0
LINE
8
DEFAULT_255_1_234
10
23.7140495
20
36.3904
11
23.2811388
21
37.5598211
0
LINE
8
DEFAULT_255_1_234
10
23.2811388
20
37.5598211
11
23.4490021
21
37.5598211
0
LINE
8
DEFAULT_255_1_234
10
21.4698522
20
21.6848211
11
21.8023662
21
20.7202093
0
LINE
8
DEFAULT_255_1_234
10
21.8023662
20
20.7202093
11
22.1364865
21
21.6848211
0
LINE
8
DEFAULT_255_1_234
10
22.1364865
20
21.6848211
11
22.305153
21
21.6848211
0
LINE
8
DEFAULT_255_1_234
10
22.305153
20
21.6848211
11
21.8714391
21
20.5154
0
LINE
8
DEFAULT_255_1_234
10
21.8714391
20
20.5154
11
21.7348996
21
20.5154
0
LINE
8
DEFAULT_255_1_234
10
21.7348996
20
20.5154
11
21.3019889
21
21.6848211
0
LINE
8
DEFAULT_255_1_234
10
21.3019889
20
21.6848211
11
21.4698522
21
21.6848211
0
LINE
8
DEFAULT_255_1_234
10
23.1894474
20
20.6366792
11
23.1894474
21
20.5154
0
LINE
8
DEFAULT_255_1_234
10
23.1894474
20
20.5154
11
22.4232195
21
20.5154
0
LINE
8
DEFAULT_255_1_234
10
22.4232195
20
20.5154
11
22.4232195
21
20.6222221
0
LINE
8
DEFAULT_255_1_234
10
22.4232195
20
20.6222221
11
22.8280191
21
21.0719995
0
LINE
8
DEFAULT_255_1_234
10
22.5493178
20
21.3402595
11
22.4007307
21
21.3402595
0
LINE
8
DEFAULT_255_1_234
10
22.9155651
20
20.9764218
11
22.6023273
21
20.6366792
0
LINE
8
DEFAULT_255_1_234
10
22.6023273
20
20.6366792
11
23.1894474
21
20.6366792
0
ARC
8
DEFAULT_255_1_234
10
21.4790025
20
22.2649527
40
1.8008286
50
318.5132453
51
320.7828378
0
ARC
8
DEFAULT_255_1_234
10
22.0076999
20
21.8346426
40
1.1191493
50
320.7372736
51
323.9737074
0
ARC
8
DEFAULT_255_1_234
10
22.3996855
20
21.5506361
40
0.6350923
50
323.8961724
51
328.6421089
0
ARC
8
DEFAULT_255_1_234
10
22.6043451
20
21.4244031
40
0.3946393
50
328.8299013
51
331.789948
0
ARC
8
DEFAULT_255_1_234
10
22.7040629
20
21.3729509
40
0.2824501
50
331.4255242
51
352.9364833
0
ARC
8
DEFAULT_255_1_234
10
22.717713
20
21.3698976
40
0.2685315
50
353.2248685
51
0.0169286
0
ARC
8
DEFAULT_255_1_234
10
22.7387007
20
21.372195
40
0.2475536
50
359.4866256
51
15.9339782
0
ARC
8
DEFAULT_255_1_234
10
22.7893992
20
21.3858286
40
0.1950618
50
16.1714718
51
43.5284424
0
ARC
8
DEFAULT_255_1_234
10
22.7971301
20
21.3935573
40
0.184134
50
43.4415429
51
83.1661404
0
ARC
8
DEFAULT_255_1_234
10
22.7837219
20
21.3198771
40
0.258926
50
82.160215
51
90.1505798
0
ARC
8
DEFAULT_255_1_234
10
22.7805646
20
21.2661865
40
0.3126255
50
89.5460705
51
102.5418777
0
ARC
8
DEFAULT_255_1_234
10
22.7562732
20
21.3692665
40
0.2067346
50
102.1739365
51
129.2061916
0
ARC
8
DEFAULT_255_1_234
10
22.7483804
20
21.3817094
40
0.1921118
50
129.7279328
51
135.7542026
0
ARC
8
DEFAULT_255_1_234
10
22.7605332
20
21.3720045
40
0.2075944
50
136.175737
51
166.3674722
0
ARC
8
DEFAULT_255_1_234
10
22.8612251
20
21.3450182
40
0.3118201
50
165.9092917
51
178.8683903
0
ARC
8
DEFAULT_255_1_234
10
22.9477112
20
21.3403179
40
0.3983935
50
178.438168
51
180.0083905
0
ARC
8
DEFAULT_255_1_234
10
22.8075714
20
21.3442231
40
0.4068601
50
163.2878735
51
180.5581814
0
ARC
8
DEFAULT_255_1_234
10
22.7273976
20
21.366284
40
0.3237344
50
133.454115
51
162.9470031
0
ARC
8
DEFAULT_255_1_234
10
22.7452517
20
21.3473
40
0.349795
50
100.7869394
51
133.4384016
0
ARC
8
DEFAULT_255_1_234
10
22.7800289
20
21.1924319
40
0.5084616
50
89.6605301
51
101.3704185
0
ARC
8
DEFAULT_255_1_234
10
22.7866627
20
21.1985496
40
0.502348
50
78.2171172
51
90.4130393
0
ARC
8
DEFAULT_255_1_234
10
22.8221706
20
21.3609637
40
0.3361092
50
55.9268222
51
78.4888551
0
ARC
8
DEFAULT_255_1_234
10
22.8418146
20
21.3948324
40
0.2970617
50
47.9292255
51
55.4054003
0
ARC
8
DEFAULT_255_1_234
10
22.8519707
20
21.4051502
40
0.2825983
50
4.3347696
51
48.0560701
0
ARC
8
DEFAULT_255_1_234
10
22.74241
20
21.3881601
40
0.393225
50
359.925209
51
5.5967654
0
ARC
8
DEFAULT_255_1_234
10
22.7852992
20
21.3937816
40
0.3503892
50
337.8914096
51
358.9967724
0
ARC
8
DEFAULT_255_1_234
10
22.5139404
20
21.4984706
40
0.6412172
50
326.9135351
51
338.3505194
0
ARC
8
DEFAULT_255_1_234
10
22.1153708
20
21.7539284
40
1.1146189
50
319.6472867
51
327.095818
0
ARC
8
DEFAULT_255_1_234
10
21.7320711
20
22.0701
40
1.6114559
50
317.2586784
51
319.9046139
0
LINE
8
DEFAULT_255_1_234
10
23.7878119
20
21.4840276
11
23.7878119
21
21.1426788
0
LINE
8
DEFAULT_255_1_234
10
23.7878119
20
21.1426788
11
24.1139004
21
21.1426788
0
LINE
8
DEFAULT_255_1_234
10
24.1139004
20
21.1426788
11
24.1139004
21
21.0021233
0
LINE
8
DEFAULT_255_1_234
10
24.1139004
20
21.0021233
11
23.7878119
21
21.0021233
0
LINE
8
DEFAULT_255_1_234
10
23.7878119
20
21.0021233
11
23.7878119
21
20.6326634
0
LINE
8
DEFAULT_255_1_234
10
23.7878119
20
20.6326634
11
23.6384215
21
20.6326634
0
LINE
8
DEFAULT_255_1_234
10
23.6384215
20
20.6326634
11
23.6384215
21
21.0021233
0
LINE
8
DEFAULT_255_1_234
10
23.6384215
20
21.0021233
11
23.312333
21
21.0021233
0
LINE
8
DEFAULT_255_1_234
10
23.312333
20
21.0021233
11
23.312333
21
21.1426788
0
LINE
8
DEFAULT_255_1_234
10
23.312333
20
21.1426788
11
23.6384215
21
21.1426788
0
LINE
8
DEFAULT_255_1_234
10
23.6384215
20
21.1426788
11
23.6384215
21
21.4840276
0
LINE
8
DEFAULT_255_1_234
10
23.6384215
20
21.4840276
11
23.7878119
21
21.4840276
0
LINE
8
DEFAULT_255_1_234
10
21.4698522
20
29.6223211
11
21.8023662
21
28.6577093
0
LINE
8
DEFAULT_255_1_234
10
21.8023662
20
28.6577093
11
22.1364865
21
29.6223211
0
LINE
8
DEFAULT_255_1_234
10
22.1364865
20
29.6223211
11
22.305153
21
29.6223211
0
LINE
8
DEFAULT_255_1_234
10
22.305153
20
29.6223211
11
21.8714391
21
28.4529
0
LINE
8
DEFAULT_255_1_234
10
21.8714391
20
28.4529
11
21.7348996
21
28.4529
0
LINE
8
DEFAULT_255_1_234
10
21.7348996
20
28.4529
11
21.3019889
21
29.6223211
0
LINE
8
DEFAULT_255_1_234
10
21.3019889
20
29.6223211
11
21.4698522
21
29.6223211
0
LINE
8
DEFAULT_255_1_234
10
22.9115492
20
29.6279433
11
22.9115492
21
28.4529
0
LINE
8
DEFAULT_255_1_234
10
22.9115492
20
28.4529
11
22.7621589
21
28.4529
0
LINE
8
DEFAULT_255_1_234
10
22.7621589
20
28.4529
11
22.7621589
21
29.4432133
0
LINE
8
DEFAULT_255_1_234
10
22.7621589
20
29.4432133
11
22.462575
21
29.3331785
0
LINE
8
DEFAULT_255_1_234
10
22.462575
20
29.3331785
11
22.462575
21
29.4681117
0
LINE
8
DEFAULT_255_1_234
10
22.462575
20
29.4681117
11
22.8882572
21
29.6279433
0
LINE
8
DEFAULT_255_1_234
10
22.8882572
20
29.6279433
11
22.9115492
21
29.6279433
0
LINE
8
DEFAULT_255_1_234
10
23.7878119
20
29.4215276
11
23.7878119
21
29.0801788
0
LINE
8
DEFAULT_255_1_234
10
23.7878119
20
29.0801788
11
24.1139004
21
29.0801788
0
LINE
8
DEFAULT_255_1_234
10
24.1139004
20
29.0801788
11
24.1139004
21
28.9396233
0
LINE
8
DEFAULT_255_1_234
10
24.1139004
20
28.9396233
11
23.7878119
21
28.9396233
0
LINE
8
DEFAULT_255_1_234
10
23.7878119
20
28.9396233
11
23.7878119
21
28.5701634
0
LINE
8
DEFAULT_255_1_234
10
23.7878119
20
28.5701634
11
23.6384215
21
28.5701634
0
LINE
8
DEFAULT_255_1_234
10
23.6384215
20
28.5701634
11
23.6384215
21
28.9396233
0
LINE
8
DEFAULT_255_1_234
10
23.6384215
20
28.9396233
11
23.312333
21
28.9396233
0
LINE
8
DEFAULT_255_1_234
10
23.312333
20
28.9396233
11
23.312333
21
29.0801788
0
LINE
8
DEFAULT_255_1_234
10
23.312333
20
29.0801788
11
23.6384215
21
29.0801788
0
LINE
8
DEFAULT_255_1_234
10
23.6384215
20
29.0801788
11
23.6384215
21
29.4215276
0
LINE
8
DEFAULT_255_1_234
10
23.6384215
20
29.4215276
11
23.7878119
21
29.4215276
0
ENDSEC
0
EOF