0
SECTION
2
HEADER
9
$MEASUREMENT
70
1
0
ENDSEC
0
SECTION
2
TABLES
0
TABLE
2
LTYPE
0
LTYPE
72
65
70
64
2
CONTINUOUS
3
______
73
0
40
0
0
ENDTAB
0
TABLE
2
LAYER
0
LAYER
2
DEFAULT_255_2_778
70
0
62
255
6
CONTINUOUS
0
ENDTAB
0
ENDSEC
0
SECTION
2
ENTITIES
0
ARC
8
DEFAULT_255_2_778
10
4.5750997
20
80.2572743
40
0.6882221
50
70.6313466
51
91.0764067
0
ARC
8
DEFAULT_255_2_778
10
4.6489883
20
80.4831943
40
0.4506138
50
48.2112649
51
69.9678105
0
ARC
8
DEFAULT_255_2_778
10
4.661538
20
80.5023602
40
0.4279741
50
357.7120779
51
47.7540932
0
ARC
8
DEFAULT_255_2_778
10
4.6084193
20
80.4716321
40
0.4809452
50
332.6635747
51
1.6255259
0
ARC
8
DEFAULT_255_2_778
10
4.7108907
20
80.4289456
40
0.3704279
50
310.6438742
51
331.2501854
0
ARC
8
DEFAULT_255_2_778
10
4.6432919
20
80.5234594
40
0.4862817
50
278.6477666
51
309.433738
0
ARC
8
DEFAULT_255_2_778
10
4.5658187
20
80.9050577
40
0.8754016
50
269.623801
51
279.9055348
0
ARC
8
DEFAULT_255_2_778
10
4.5749101
20
80.6226501
40
0.4304636
50
268.3041425
51
292.79055
0
ARC
8
DEFAULT_255_2_778
10
4.635295
20
80.4617147
40
0.2587879
50
294.2674687
51
311.2927777
0
ARC
8
DEFAULT_255_2_778
10
4.6229271
20
80.4626255
40
0.267775
50
313.1528306
51
1.6951732
0
ARC
8
DEFAULT_255_2_778
10
4.4324457
20
80.4836101
40
0.4583254
50
358.3667185
51
0.0081139
0
ARC
8
DEFAULT_255_2_778
10
4.6088275
20
80.4965984
40
0.2822395
50
357.3755744
51
45.665074
0
ARC
8
DEFAULT_255_2_778
10
4.5897973
20
80.4578984
40
0.3234987
50
48.0450853
51
89.2456293
0
ARC
8
DEFAULT_255_2_778
10
4.5629531
20
80.2515696
40
0.5307117
50
86.640144
51
88.8536123
0
ARC
8
DEFAULT_255_2_778
10
6.5804223
20
80.0701597
40
1.4285026
50
350.734489
51
0.4979736
0
ARC
8
DEFAULT_255_2_778
10
7.2903283
20
79.9488394
40
0.7083461
50
333.78456
51
351.1741616
0
ARC
8
DEFAULT_255_2_778
10
7.5237567
20
79.8424142
40
0.4519799
50
325.0163747
51
332.8162474
0
ARC
8
DEFAULT_255_2_778
10
7.581052
20
79.8082166
40
0.3854602
50
273.0501832
51
324.2982416
0
ARC
8
DEFAULT_255_2_778
10
7.5367548
20
80.0721585
40
0.6520846
50
269.8959847
51
275.7037882
0
ARC
8
DEFAULT_255_2_778
10
7.5221331
20
79.914878
40
0.4949854
50
244.5658614
51
271.5556559
0
ARC
8
DEFAULT_255_2_778
10
7.4725221
20
79.79024
40
0.3612262
50
215.6169434
51
243.1816495
0
ARC
8
DEFAULT_255_2_778
10
7.6582411
20
79.9104616
40
0.5823085
50
192.2894895
51
214.5911981
0
ARC
8
DEFAULT_255_2_778
10
8.2333211
20
80.0487243
40
1.1737084
50
181.4491722
51
192.9088756
0
ARC
8
DEFAULT_255_2_778
10
8.7548323
20
80.0790479
40
1.6959063
50
180.7491255
51
182.0277372
0
ARC
8
DEFAULT_255_2_778
10
8.4471489
20
80.3247434
40
1.388134
50
170.5087647
51
180.5146432
0
ARC
8
DEFAULT_255_2_778
10
7.7521807
20
80.4467403
40
0.6825864
50
152.8027525
51
170.9896481
0
ARC
8
DEFAULT_255_2_778
10
7.5333899
20
80.5500612
40
0.4408365
50
144.6405676
51
151.749678
0
ARC
8
DEFAULT_255_2_778
10
7.4849033
20
80.5779431
40
0.3851953
50
93.6852342
51
143.8491304
0
ARC
8
DEFAULT_255_2_778
10
7.5320075
20
80.3080533
40
0.6582232
50
89.8726092
51
96.2678622
0
ARC
8
DEFAULT_255_2_778
10
7.546684
20
80.4498711
40
0.5165729
50
66.3349098
51
91.4656819
0
ARC
8
DEFAULT_255_2_778
10
7.6050434
20
80.6012281
40
0.3545942
50
36.2043243
51
65.1550684
0
ARC
8
DEFAULT_255_2_778
10
7.443168
20
80.4962845
40
0.5473098
50
12.7086288
51
35.0596395
0
ARC
8
DEFAULT_255_2_778
10
6.8668538
20
80.3530851
40
1.1410812
50
1.9050919
51
13.3566808
0
ARC
8
DEFAULT_255_2_778
10
6.2859844
20
80.3161094
40
1.722949
50
0.4877039
51
2.4918721
0
ARC
8
DEFAULT_255_2_778
10
6.6443475
20
80.356223
40
1.1732843
50
359.4165249
51
8.8801982
0
ARC
8
DEFAULT_255_2_778
10
7.3366788
20
80.4709738
40
0.4715826
50
8.090343
51
27.4746143
0
ARC
8
DEFAULT_255_2_778
10
7.5125493
20
80.5529872
40
0.2778365
50
29.2020418
51
31.5287257
0
ARC
8
DEFAULT_255_2_778
10
7.5494526
20
80.5751035
40
0.234816
50
31.6376039
51
93.9025932
0
ARC
8
DEFAULT_255_2_778
10
7.5173418
20
80.5780701
40
0.2318666
50
86.0111436
51
148.6288938
0
ARC
8
DEFAULT_255_2_778
10
7.7118399
20
80.4761595
40
0.451209
50
150.4373036
51
170.8727137
0
ARC
8
DEFAULT_255_2_778
10
8.3380738
20
80.3602573
40
1.0880039
50
170.0776966
51
180.0780568
0
ARC
8
DEFAULT_255_2_778
10
8.3927268
20
80.0407108
40
1.1427216
50
179.3850626
51
189.4522097
0
ARC
8
DEFAULT_255_2_778
10
7.73218
20
79.9244839
40
0.4720961
50
188.7032912
51
208.8374485
0
ARC
8
DEFAULT_255_2_778
10
7.5729008
20
79.8467037
40
0.2951812
50
210.5244054
51
211.4082925
0
ARC
8
DEFAULT_255_2_778
10
7.5237042
20
79.8110226
40
0.2346479
50
210.232513
51
272.8988331
0
ARC
8
DEFAULT_255_2_778
10
7.5490293
20
79.8075232
40
0.2312401
50
266.6634486
51
328.3471614
0
ARC
8
DEFAULT_255_2_778
10
7.366589
20
79.9076896
40
0.4392306
50
329.7134965
51
350.5352521
0
ARC
8
DEFAULT_255_2_778
10
6.7200248
20
80.0317205
40
1.0975057
50
349.6988452
51
359.8043003
0
ARC
8
DEFAULT_255_2_778
10
6.1572969
20
80.0519979
40
1.660401
50
359.1708995
51
359.2917956
0
ARC
8
DEFAULT_255_2_778
10
8.8177862
20
80.5472184
40
0.348729
50
325.9927388
51
0.9129788
0
ARC
8
DEFAULT_255_2_778
10
8.7710062
20
80.5816578
40
0.406777
50
295.522287
51
325.6567939
0
ARC
8
DEFAULT_255_2_778
10
8.7828326
20
79.8167076
40
0.4301286
50
35.5311727
51
67.6678231
0
ARC
8
DEFAULT_255_2_778
10
8.8302806
20
79.8512868
40
0.3714202
50
359.2731298
51
35.4438127
0
ARC
8
DEFAULT_255_2_778
10
8.8084442
20
79.829605
40
0.3935928
50
311.6214563
51
2.4711052
0
ARC
8
DEFAULT_255_2_778
10
8.7581055
20
79.9034422
40
0.48236
50
272.4395782
51
310.2657342
0
ARC
8
DEFAULT_255_2_778
10
8.7236666
20
80.1594972
40
0.7400224
50
269.9461428
51
274.2600189
0
ARC
8
DEFAULT_255_2_778
10
8.7095236
20
79.9902945
40
0.5709779
50
245.7941007
51
271.3495274
0
ARC
8
DEFAULT_255_2_778
10
8.6566146
20
79.8522504
40
0.4234596
50
228.3823066
51
244.6651406
0
ARC
8
DEFAULT_255_2_778
10
8.6393338
20
79.8295494
40
0.3950171
50
177.5732812
51
228.0692845
0
ARC
8
DEFAULT_255_2_778
10
8.6280675
20
79.8504875
40
0.3834197
50
145.7143725
51
180.6295017
0
ARC
8
DEFAULT_255_2_778
10
8.6526279
20
79.8314868
40
0.4144201
50
112.2406398
51
145.4566916
0
ARC
8
DEFAULT_255_2_778
10
8.6655796
20
80.5702861
40
0.3937129
50
213.5534734
51
244.4498626
0
ARC
8
DEFAULT_255_2_778
10
8.6340474
20
80.5469011
40
0.3545157
50
179.1476179
51
213.2205412
0
ARC
8
DEFAULT_255_2_778
10
8.6779157
20
80.5682235
40
0.3986679
50
140.269463
51
182.3070814
0
ARC
8
DEFAULT_255_2_778
10
8.6541402
20
80.5775706
40
0.3744941
50
132.4097204
51
139.0441423
0
ARC
8
DEFAULT_255_2_778
10
8.6944053
20
80.5224817
40
0.4423868
50
91.0567208
51
131.4481433
0
ARC
8
DEFAULT_255_2_778
10
8.7226407
20
80.2908042
40
0.674971
50
89.9719633
51
93.0908446
0
ARC
8
DEFAULT_255_2_778
10
8.7370723
20
80.474132
40
0.4918452
50
60.6735133
51
91.6429117
0
ARC
8
DEFAULT_255_2_778
10
8.7737665
20
80.5581509
40
0.4007263
50
47.6012072
51
59.3637567
0
ARC
8
DEFAULT_255_2_778
10
8.7789152
20
80.5707676
40
0.387966
50
357.3630059
51
46.9063262
0
ARC
8
DEFAULT_255_2_778
10
8.4769112
20
80.5519897
40
0.6895599
50
0.015399
51
0.07714
0
ARC
8
DEFAULT_255_2_778
10
8.7338811
20
79.8616646
40
0.2766926
50
357.806644
51
44.8126634
0
ARC
8
DEFAULT_255_2_778
10
8.7326457
20
79.852269
40
0.28425
50
45.9807619
51
92.3740839
0
ARC
8
DEFAULT_255_2_778
10
8.7081212
20
79.8574818
40
0.2790846
50
87.3815747
51
134.166269
0
ARC
8
DEFAULT_255_2_778
10
8.7159343
20
79.8632882
40
0.2805294
50
136.1376088
51
182.4952214
0
ARC
8
DEFAULT_255_2_778
10
8.7028331
20
79.8365706
40
0.2675555
50
176.8924315
51
224.3690855
0
ARC
8
DEFAULT_255_2_778
10
8.7016061
20
79.8601244
40
0.2837015
50
227.9451378
51
270.9435681
0
ARC
8
DEFAULT_255_2_778
10
8.722858
20
80.0562066
40
0.4800317
50
268.0206484
51
270.0134869
0
ARC
8
DEFAULT_255_2_778
10
8.7369124
20
79.8797163
40
0.3038612
50
267.3703005
51
305.6102694
0
ARC
8
DEFAULT_255_2_778
10
8.7676561
20
79.8222033
40
0.2393531
50
307.6438479
51
313.9820901
0
ARC
8
DEFAULT_255_2_778
10
8.744377
20
79.8371606
40
0.2663577
50
315.3511207
51
2.9944731
0
ARC
8
DEFAULT_255_2_778
10
8.7126171
20
80.5631558
40
0.2461371
50
87.5891269
51
134.3130955
0
ARC
8
DEFAULT_255_2_778
10
8.7270579
20
80.5630026
40
0.2565386
50
136.5975643
51
183.0003128
0
ARC
8
DEFAULT_255_2_778
10
8.7253026
20
80.5384324
40
0.2546755
50
177.4923908
51
223.2061848
0
ARC
8
DEFAULT_255_2_778
10
8.7117727
20
80.5366193
40
0.2437017
50
225.0735798
51
272.6337188
0
ARC
8
DEFAULT_255_2_778
10
8.7344546
20
80.536124
40
0.2432202
50
267.2937682
51
314.9779091
0
ARC
8
DEFAULT_255_2_778
10
8.7203037
20
80.538594
40
0.2551037
50
316.8343508
51
2.4670736
0
ARC
8
DEFAULT_255_2_778
10
8.7210005
20
80.5595613
40
0.2543666
50
357.7500224
51
44.0989811
0
ARC
8
DEFAULT_255_2_778
10
8.7303845
20
80.565462
40
0.2435321
50
44.6384235
51
91.7915261
0
LINE
8
DEFAULT_255_2_778
10
6.918771
20
45.707675
11
6.918771
21
45.453675
0
LINE
8
DEFAULT_255_2_778
10
6.918771
20
45.453675
11
12.796271
21
45.453675
0
LINE
8
DEFAULT_255_2_778
10
12.796271
20
45.453675
11
12.796271
21
26.664775
0
LINE
8
DEFAULT_255_2_778
10
12.796271
20
26.664775
11
6.918771
21
26.664775
0
LINE
8
DEFAULT_255_2_778
10
6.918771
20
26.664775
11
6.918771
21
26.410775
0
LINE
8
DEFAULT_255_2_778
10
6.918771
20
26.410775
11
12.796271
21
26.410775
0
LINE
8
DEFAULT_255_2_778
10
12.796271
20
26.410775
11
12.796271
21
7.621875
0
LINE
8
DEFAULT_255_2_778
10
12.796271
20
7.621875
11
6.918771
21
7.621875
0
LINE
8
DEFAULT_255_2_778
10
6.918771
20
7.621875
11
6.918771
21
7.367875
0
LINE
8
DEFAULT_255_2_778
10
6.918771
20
7.367875
11
13.050571
21
7.367875
0
LINE
8
DEFAULT_255_2_778
10
13.050571
20
7.367875
11
13.050571
21
45.707675
0
LINE
8
DEFAULT_255_2_778
10
13.050571
20
45.707675
11
6.918771
21
45.707675
0
LINE
8
DEFAULT_255_2_778
10
4.560071
20
80.029875
11
4.205471
21
80.029875
0
LINE
8
DEFAULT_255_2_778
10
4.205471
20
80.029875
11
4.205471
21
79.440675
0
LINE
8
DEFAULT_255_2_778
10
4.205471
20
79.440675
11
4.007071
21
79.440675
0
LINE
8
DEFAULT_255_2_778
10
4.007071
20
79.440675
11
4.007071
21
80.945375
0
LINE
8
DEFAULT_255_2_778
10
4.007071
20
80.945375
11
4.562171
21
80.945375
0
LINE
8
DEFAULT_255_2_778
10
4.560071
20
80.029675
11
4.560071
21
80.029875
0
LINE
8
DEFAULT_255_2_778
10
4.205471
20
80.782375
11
4.205471
21
80.192375
0
LINE
8
DEFAULT_255_2_778
10
4.205471
20
80.192375
11
4.562171
21
80.192375
0
LINE
8
DEFAULT_255_2_778
10
4.573571
20
80.782175
11
4.205471
21
80.782175
0
LINE
8
DEFAULT_255_2_778
10
4.205471
20
80.782175
11
4.205471
21
80.782375
0
LINE
8
DEFAULT_255_2_778
10
5.921371
20
80.952775
11
5.921371
21
79.440675
0
LINE
8
DEFAULT_255_2_778
10
5.921371
20
79.440675
11
5.728971
21
79.440675
0
LINE
8
DEFAULT_255_2_778
10
5.728971
20
79.440675
11
5.728971
21
80.714875
0
LINE
8
DEFAULT_255_2_778
10
5.728971
20
80.714875
11
5.343471
21
80.573375
0
LINE
8
DEFAULT_255_2_778
10
5.343471
20
80.573375
11
5.343471
21
80.746975
0
LINE
8
DEFAULT_255_2_778
10
5.343471
20
80.746975
11
5.891171
21
80.952475
0
LINE
8
DEFAULT_255_2_778
10
5.891171
20
80.952475
11
5.921071
21
80.952475
0
LINE
8
DEFAULT_255_2_778
10
5.921071
20
80.952475
11
5.921371
21
80.952775
0
LINE
8
DEFAULT_255_2_778
10
6.898671
20
80.157975
11
6.898671
21
80.001875
0
LINE
8
DEFAULT_255_2_778
10
6.898671
20
80.001875
11
6.394371
21
80.001875
0
LINE
8
DEFAULT_255_2_778
10
6.394371
20
80.001875
11
6.394371
21
80.157975
0
LINE
8
DEFAULT_255_2_778
10
6.394371
20
80.157975
11
6.898671
21
80.157975
0
LINE
8
DEFAULT_255_2_778
10
6.898671
20
80.157975
11
6.898671
21
80.157975
0
LINE
8
DEFAULT_255_2_778
10
8.008871
20
80.330775
11
8.008871
21
80.082575
0
LINE
8
DEFAULT_255_2_778
10
7.059071
20
80.056875
11
7.059071
21
80.312275
0
LINE
8
DEFAULT_255_2_778
10
8.008871
20
80.330775
11
8.008871
21
80.330775
0
LINE
8
DEFAULT_255_2_778
10
7.817571
20
80.030975
11
7.817571
21
80.344275
0
LINE
8
DEFAULT_255_2_778
10
7.250071
20
80.358775
11
7.250071
21
80.052975
0
LINE
8
DEFAULT_255_2_778
10
7.817571
20
80.031475
11
7.817571
21
80.030975
0
LINE
8
DEFAULT_255_2_778
10
9.166471
20
80.552175
11
9.166471
21
80.552775
0
LINE
8
DEFAULT_255_2_778
10
9.010371
20
79.851075
11
9.010371
21
79.851075
0
LINE
8
DEFAULT_255_2_778
10
8.722771
20
80.808875
11
8.722971
21
80.809075
0
LINE
8
DEFAULT_255_2_778
10
10.531671
20
80.945675
11
10.531671
21
80.782375
0
LINE
8
DEFAULT_255_2_778
10
10.531671
20
80.782375
11
10.048071
21
80.782375
0
LINE
8
DEFAULT_255_2_778
10
10.048071
20
80.782375
11
10.048071
21
79.440975
0
LINE
8
DEFAULT_255_2_778
10
10.048071
20
79.440975
11
9.850671
21
79.440975
0
LINE
8
DEFAULT_255_2_778
10
9.850671
20
79.440975
11
9.850671
21
80.782375
0
LINE
8
DEFAULT_255_2_778
10
9.850671
20
80.782375
11
9.368071
21
80.782375
0
LINE
8
DEFAULT_255_2_778
10
9.368071
20
80.782375
11
9.368071
21
80.945675
0
LINE
8
DEFAULT_255_2_778
10
9.368071
20
80.945675
11
10.531671
21
80.945675
0
LINE
8
DEFAULT_255_2_778
10
10.531671
20
80.945675
11
10.531671
21
80.945675
0
LINE
8
DEFAULT_255_2_778
10
11.647671
20
79.440675
11
11.504071
21
79.833375
0
LINE
8
DEFAULT_255_2_778
10
11.504071
20
79.833375
11
10.873571
21
79.833375
0
LINE
8
DEFAULT_255_2_778
10
10.873571
20
79.833375
11
10.731971
21
79.440675
0
LINE
8
DEFAULT_255_2_778
10
10.731971
20
79.440675
11
10.527471
21
79.440675
0
LINE
8
DEFAULT_255_2_778
10
10.527471
20
79.440675
11
11.102171
21
80.945375
0
LINE
8
DEFAULT_255_2_778
10
11.102171
20
80.945375
11
11.275671
21
80.945375
0
LINE
8
DEFAULT_255_2_778
10
11.275671
20
80.945375
11
11.851471
21
79.440375
0
LINE
8
DEFAULT_255_2_778
10
11.851471
20
79.440375
11
11.647671
21
79.440375
0
LINE
8
DEFAULT_255_2_778
10
11.647671
20
79.440375
11
11.647671
21
79.440675
0
LINE
8
DEFAULT_255_2_778
10
11.188871
20
80.700675
11
10.933571
21
79.996875
0
LINE
8
DEFAULT_255_2_778
10
10.933571
20
79.996875
11
11.445271
21
79.996875
0
LINE
8
DEFAULT_255_2_778
10
11.445271
20
79.996875
11
11.188871
21
80.700675
0
LINE
8
DEFAULT_255_2_778
10
11.188871
20
80.700675
11
11.188871
21
80.700675
0
ARC
8
DEFAULT_255_2_778
10
1.2148108
20
5.6563671
40
1.0010097
50
180.0347019
51
206.5548858
0
LINE
8
DEFAULT_255_2_778
10
1.9151011
20
18.0509609
11
4.4170011
21
18.0509609
0
LINE
8
DEFAULT_255_2_778
10
4.4170011
20
18.0509609
11
4.4170011
21
15.0521609
0
LINE
8
DEFAULT_255_2_778
10
4.4170011
20
15.0521609
11
1.9151011
21
15.0521609
0
LINE
8
DEFAULT_255_2_778
10
1.9151011
20
15.0521609
11
1.9151011
21
47.2339609
0
LINE
8
DEFAULT_255_2_778
10
2.9158011
20
35.3684609
11
3.7164011
21
35.3684609
0
LINE
8
DEFAULT_255_2_778
10
3.7164011
20
35.3684609
11
3.7164011
21
34.8686609
0
LINE
8
DEFAULT_255_2_778
10
0.2088011
20
5.9568609
11
0.2088011
21
46.9672609
0
LINE
8
DEFAULT_255_2_778
10
0.2088011
20
46.9672609
11
0.3691011
21
47.2979609
0
LINE
8
DEFAULT_255_2_778
10
0.2138011
20
5.6557609
11
0.2138011
21
6.3555609
0
LINE
8
DEFAULT_255_2_778
10
0.2138011
20
6.3555609
11
0.3638011
21
6.3555609
0
LINE
8
DEFAULT_255_2_778
10
0.3638011
20
6.3555609
11
0.3638011
21
5.6808609
0
LINE
8
DEFAULT_255_2_778
10
1.9150729
20
36.903875
11
2.9157729
21
36.903875
0
LINE
8
DEFAULT_255_2_778
10
2.9157729
20
36.903875
11
2.9157729
21
34.306775
0
LINE
8
DEFAULT_255_2_778
10
2.9157729
20
34.306775
11
1.9150729
21
34.306775
0
LINE
8
DEFAULT_255_2_778
10
2.9157729
20
34.3069863
11
2.9157729
21
32.3077863
0
LINE
8
DEFAULT_255_2_778
10
2.9157729
20
32.3077863
11
1.9150729
21
32.3077863
0
LINE
8
DEFAULT_255_2_778
10
1.9150729
20
22.3993863
11
2.6005729
21
22.3993863
0
LINE
8
DEFAULT_255_2_778
10
2.6005729
20
22.3993863
11
2.6005729
21
25.3981863
0
LINE
8
DEFAULT_255_2_778
10
2.6005729
20
25.3981863
11
1.9150729
21
25.3981863
0
LINE
8
DEFAULT_255_2_778
10
2.6006115
20
22.3993287
11
3.5663115
21
22.3993287
0
LINE
8
DEFAULT_255_2_778
10
3.5663115
20
22.3993287
11
3.5663115
21
25.3981287
0
LINE
8
DEFAULT_255_2_778
10
3.5663115
20
25.3981287
11
2.6006115
21
25.3981287
0
LINE
8
DEFAULT_255_2_778
10
1.9151115
20
37.9034287
11
2.9157115
21
37.9034287
0
LINE
8
DEFAULT_255_2_778
10
2.9157115
20
37.9034287
11
2.9157115
21
36.9038287
0
LINE
8
DEFAULT_255_2_778
10
0.3638115
20
6.3555287
11
6.2934115
21
6.3555287
0
LINE
8
DEFAULT_255_2_778
10
4.41695
20
15.0522633
11
4.41695
21
7.2022633
0
LINE
8
DEFAULT_255_2_778
10
4.41695
20
7.2022633
11
1.91505
21
7.2022633
0
LINE
8
DEFAULT_255_2_778
10
1.91505
20
7.2022633
11
1.91505
21
15.0522633
0
LINE
8
DEFAULT_255_2_778
10
1.91505
20
6.3556633
11
1.91505
21
7.2022633
0
LINE
8
DEFAULT_255_2_778
10
2.76565
20
18.0512633
11
2.76565
21
20.1401633
0
LINE
8
DEFAULT_255_2_778
10
2.76565
20
20.1401633
11
2.81565
21
20.1401633
0
LINE
8
DEFAULT_255_2_778
10
2.81565
20
20.1401633
11
2.81565
21
18.0510633
0
LINE
8
DEFAULT_255_2_778
10
1.9150823
20
20.1401385
11
2.7656823
21
20.1401385
0
LINE
8
DEFAULT_255_2_778
10
2.7656823
20
22.3994385
11
2.7656823
21
20.9402385
0
LINE
8
DEFAULT_255_2_778
10
2.7656823
20
20.9402385
11
1.9150823
21
20.9402385
0
LINE
8
DEFAULT_255_2_778
10
2.8156376
20
22.3993744
11
2.8156376
21
20.9402744
0
LINE
8
DEFAULT_255_2_778
10
2.8156376
20
20.9402744
11
2.7656376
21
20.9402744
0
LINE
8
DEFAULT_255_2_778
10
1.9150376
20
26.0379744
11
3.7163376
21
26.0379744
0
LINE
8
DEFAULT_255_2_778
10
3.7163376
20
26.0379744
11
3.7163376
21
34.8686744
0
LINE
8
DEFAULT_255_2_778
10
3.7163376
20
34.8686744
11
3.0159376
21
34.8686744
0
LINE
8
DEFAULT_255_2_778
10
3.0159376
20
34.8686744
11
3.0159376
21
30.5191744
0
LINE
8
DEFAULT_255_2_778
10
3.0159376
20
30.5191744
11
1.9150376
21
30.5191744
0
LINE
8
DEFAULT_255_2_778
10
3.7163376
20
35.3684744
11
3.7163376
21
47.2318744
0
LINE
8
DEFAULT_255_2_778
10
6.2933376
20
6.5855744
11
4.7897376
21
6.5855744
0
LINE
8
DEFAULT_255_2_778
10
4.7897376
20
6.5855744
11
4.7897376
21
45.4607744
0
LINE
8
DEFAULT_255_2_778
10
4.7897376
20
45.4607744
11
6.2933376
21
45.4607744
0
ARC
8
DEFAULT_255_2_778
10
4.1869994
20
8.8848002
40
1.4835297
50
0.0086852
51
28.530047
0
LINE
8
DEFAULT_255_2_778
10
5.6705291
20
8.8850251
11
5.6705292
21
8.8846255
0
ARC
8
DEFAULT_255_2_778
10
4.1874295
20
8.8844171
40
1.4830997
50
331.4657054
51
0.0080523
0
ARC
8
DEFAULT_255_2_778
10
4.1869994
20
12.6932002
40
1.4835297
50
0.0086852
51
28.530047
0
LINE
8
DEFAULT_255_2_778
10
5.6705291
20
12.6934251
11
5.6705292
21
12.6930255
0
ARC
8
DEFAULT_255_2_778
10
4.1874299
20
12.692817
40
1.4830993
50
331.4657
51
0.0080541
0
ARC
8
DEFAULT_255_2_778
10
4.1869994
20
24.1187002
40
1.4835297
50
0.0086852
51
28.530047
0
LINE
8
DEFAULT_255_2_778
10
5.6705291
20
24.1189251
11
5.6705292
21
24.1185255
0
ARC
8
DEFAULT_255_2_778
10
4.1874312
20
24.1183169
40
1.483098
50
331.4656815
51
0.0080603
0
ARC
8
DEFAULT_255_2_778
10
4.1874342
20
27.9272103
40
1.483095
50
359.9918941
51
28.5343341
0
LINE
8
DEFAULT_255_2_778
10
5.6705292
20
27.9270005
11
5.6705291
21
27.9266009
0
ARC
8
DEFAULT_255_2_778
10
4.1869994
20
27.9268258
40
1.4835298
50
331.469953
51
359.9913148
0
ARC
8
DEFAULT_255_2_778
10
4.1874342
20
31.7356103
40
1.483095
50
359.9918941
51
28.5343341
0
LINE
8
DEFAULT_255_2_778
10
5.6705292
20
31.7354005
11
5.6705291
21
31.7350009
0
ARC
8
DEFAULT_255_2_778
10
4.1869994
20
31.7352258
40
1.4835298
50
331.469953
51
359.9913148
0
ARC
8
DEFAULT_255_2_778
10
4.1874342
20
35.5440103
40
1.483095
50
359.9918941
51
28.5343341
0
LINE
8
DEFAULT_255_2_778
10
5.6705292
20
35.5438005
11
5.6705291
21
35.5434009
0
ARC
8
DEFAULT_255_2_778
10
4.1869994
20
35.5436258
40
1.4835298
50
331.469953
51
359.9913148
0
ARC
8
DEFAULT_255_2_778
10
4.1869994
20
16.5011002
40
1.4835297
50
0.0086852
51
28.530047
0
LINE
8
DEFAULT_255_2_778
10
5.6705291
20
16.5013251
11
5.6705292
21
16.5009255
0
ARC
8
DEFAULT_255_2_778
10
4.1874312
20
16.5007169
40
1.483098
50
331.4656815
51
0.0080603
0
ARC
8
DEFAULT_255_2_778
10
4.1869994
20
20.3095002
40
1.4835297
50
0.0086852
51
28.530047
0
LINE
8
DEFAULT_255_2_778
10
5.6705291
20
20.3097251
11
5.6705292
21
20.3093255
0
ARC
8
DEFAULT_255_2_778
10
4.1874312
20
20.3091169
40
1.483098
50
331.4656815
51
0.0080603
0
ARC
8
DEFAULT_255_2_778
10
4.1874454
20
43.160413
40
1.4830839
50
331.4655502
51
0.0077263
0
ARC
8
DEFAULT_255_2_778
10
4.1874405
20
43.1608119
40
1.4830887
50
359.9923168
51
28.5343976
0
ARC
8
DEFAULT_255_2_778
10
4.1874437
20
39.3520137
40
1.4830857
50
331.465559
51
0.0077007
0
ARC
8
DEFAULT_255_2_778
10
4.1874405
20
39.3524119
40
1.4830887
50
359.9923168
51
28.5343976
0
LINE
8
DEFAULT_255_2_778
10
6.2933792
20
45.886463
11
5.7904792
21
45.886463
0
LINE
8
DEFAULT_255_2_778
10
6.2933792
20
46.394263
11
5.7904792
21
46.394263
0
LINE
8
DEFAULT_255_2_778
10
5.7904792
20
45.460463
11
5.7904792
21
46.440263
0
LINE
8
DEFAULT_255_2_778
10
5.7904792
20
45.476963
11
6.2933792
21
45.485663
0
LINE
8
DEFAULT_255_2_778
10
5.7904792
20
45.699663
11
6.2933792
21
45.717163
0
LINE
8
DEFAULT_255_2_778
10
3.7163792
20
30.577163
11
4.7897792
21
30.595963
0
LINE
8
DEFAULT_255_2_778
10
4.7897792
20
30.696463
11
3.7163792
21
30.715263
0
LINE
8
DEFAULT_255_2_778
10
3.7163792
20
32.277163
11
4.7897792
21
32.295863
0
LINE
8
DEFAULT_255_2_778
10
5.4903792
20
37.723863
11
6.2933792
21
37.723863
0
LINE
8
DEFAULT_255_2_778
10
6.2933792
20
10.564063
11
5.4903792
21
10.564063
0
LINE
8
DEFAULT_255_2_778
10
5.4903792
20
10.564063
11
5.4903792
21
9.593363
0
LINE
8
DEFAULT_255_2_778
10
5.4903792
20
8.175963
11
5.4903792
21
7.204963
0
LINE
8
DEFAULT_255_2_778
10
5.4903792
20
7.204963
11
6.2933792
21
7.204963
0
LINE
8
DEFAULT_255_2_778
10
6.2933792
20
14.372463
11
5.4903792
21
14.372463
0
LINE
8
DEFAULT_255_2_778
10
5.4903792
20
14.372463
11
5.4903792
21
13.401763
0
LINE
8
DEFAULT_255_2_778
10
5.4903792
20
11.984363
11
5.4903792
21
11.013663
0
LINE
8
DEFAULT_255_2_778
10
5.4903792
20
11.013663
11
6.2933792
21
11.013663
0
LINE
8
DEFAULT_255_2_778
10
6.2933792
20
25.797963
11
5.4903792
21
25.797963
0
LINE
8
DEFAULT_255_2_778
10
5.4903792
20
25.797963
11
5.4903792
21
24.827263
0
LINE
8
DEFAULT_255_2_778
10
5.4903792
20
23.409863
11
5.4903792
21
22.439163
0
LINE
8
DEFAULT_255_2_778
10
5.4903792
20
22.439163
11
6.2933792
21
22.439163
0
LINE
8
DEFAULT_255_2_778
10
6.2933792
20
29.606463
11
5.4903792
21
29.606463
0
LINE
8
DEFAULT_255_2_778
10
5.4903792
20
29.606463
11
5.4903792
21
28.635663
0
LINE
8
DEFAULT_255_2_778
10
5.4903792
20
27.218263
11
5.4903792
21
26.247563
0
LINE
8
DEFAULT_255_2_778
10
5.4903792
20
26.247563
11
6.2933792
21
26.247563
0
LINE
8
DEFAULT_255_2_778
10
6.2933792
20
33.414863
11
5.4903792
21
33.414863
0
LINE
8
DEFAULT_255_2_778
10
5.4903792
20
33.414863
11
5.4903792
21
32.444063
0
LINE
8
DEFAULT_255_2_778
10
5.4903792
20
31.026663
11
5.4903792
21
30.055963
0
LINE
8
DEFAULT_255_2_778
10
5.4903792
20
30.055963
11
6.2933792
21
30.055963
0
LINE
8
DEFAULT_255_2_778
10
6.2933792
20
37.223263
11
5.4903792
21
37.223263
0
LINE
8
DEFAULT_255_2_778
10
5.4903792
20
37.223263
11
5.4903792
21
36.252463
0
LINE
8
DEFAULT_255_2_778
10
5.4903792
20
34.835063
11
5.4903792
21
33.864363
0
LINE
8
DEFAULT_255_2_778
10
5.4903792
20
33.864363
11
6.2933792
21
33.864363
0
LINE
8
DEFAULT_255_2_778
10
6.2933792
20
18.180363
11
5.4903792
21
18.180363
0
LINE
8
DEFAULT_255_2_778
10
5.4903792
20
18.180363
11
5.4903792
21
17.209663
0
LINE
8
DEFAULT_255_2_778
10
5.4903792
20
15.792263
11
5.4903792
21
14.821463
0
LINE
8
DEFAULT_255_2_778
10
5.4903792
20
14.821463
11
6.2933792
21
14.821463
0
LINE
8
DEFAULT_255_2_778
10
6.2933792
20
21.988763
11
5.4903792
21
21.988763
0
LINE
8
DEFAULT_255_2_778
10
5.4903792
20
21.988763
11
5.4903792
21
21.018063
0
LINE
8
DEFAULT_255_2_778
10
5.4903792
20
19.600663
11
5.4903792
21
18.629863
0
LINE
8
DEFAULT_255_2_778
10
5.4903792
20
18.629863
11
6.2933792
21
18.629863
0
LINE
8
DEFAULT_255_2_778
10
6.2933792
20
41.481163
11
5.4903792
21
41.481163
0
LINE
8
DEFAULT_255_2_778
10
5.4903792
20
41.481163
11
5.4903792
21
42.451963
0
LINE
8
DEFAULT_255_2_778
10
5.4903792
20
43.869263
11
5.4903792
21
44.840363
0
LINE
8
DEFAULT_255_2_778
10
5.4903792
20
44.840363
11
6.2933792
21
44.840363
0
LINE
8
DEFAULT_255_2_778
10
6.2933792
20
37.672763
11
5.4903792
21
37.672763
0
LINE
8
DEFAULT_255_2_778
10
5.4903792
20
37.672763
11
5.4903792
21
38.643563
0
LINE
8
DEFAULT_255_2_778
10
5.4903792
20
40.060863
11
5.4903792
21
41.031363
0
LINE
8
DEFAULT_255_2_778
10
5.4903792
20
41.031363
11
6.2933792
21
41.031363
0
LINE
8
DEFAULT_255_2_778
10
3.7163792
20
18.050163
11
3.7163792
21
26.037163
0
LINE
8
DEFAULT_255_2_778
10
3.7163792
20
31.213763
11
4.7897792
21
31.194963
0
LINE
8
DEFAULT_255_2_778
10
4.7897792
20
30.095663
11
3.7163792
21
30.076863
0
LINE
8
DEFAULT_255_2_778
10
3.7163792
20
37.003063
11
4.7897792
21
36.965563
0
LINE
8
DEFAULT_255_2_778
10
4.7897792
20
31.794763
11
3.7163792
21
31.775963
0
LINE
8
DEFAULT_255_2_778
10
13.7991136
20
8.3999958
11
15.8007136
21
8.3999958
0
LINE
8
DEFAULT_255_2_778
10
15.8007136
20
8.3999958
11
15.8007136
21
10.3991958
0
LINE
8
DEFAULT_255_2_778
10
15.8007136
20
10.3991958
11
13.7991136
21
10.3991958
0
LINE
8
DEFAULT_255_2_778
10
13.7991136
20
10.3991958
11
13.7991136
21
8.3999958
0
LINE
8
DEFAULT_255_2_778
10
13.7991136
20
12.2083958
11
15.8007136
21
12.2083958
0
LINE
8
DEFAULT_255_2_778
10
15.8007136
20
12.2083958
11
15.8007136
21
14.2075958
0
LINE
8
DEFAULT_255_2_778
10
15.8007136
20
14.2075958
11
13.7991136
21
14.2075958
0
LINE
8
DEFAULT_255_2_778
10
13.7991136
20
14.2075958
11
13.7991136
21
12.2083958
0
LINE
8
DEFAULT_255_2_778
10
13.7991136
20
16.0170958
11
15.8007136
21
16.0170958
0
LINE
8
DEFAULT_255_2_778
10
15.8007136
20
16.0170958
11
15.8007136
21
18.0162958
0
LINE
8
DEFAULT_255_2_778
10
15.8007136
20
18.0162958
11
13.7991136
21
18.0162958
0
LINE
8
DEFAULT_255_2_778
10
13.7991136
20
18.0162958
11
13.7991136
21
16.0170958
0
LINE
8
DEFAULT_255_2_778
10
13.7991136
20
19.8254958
11
15.8007136
21
19.8254958
0
LINE
8
DEFAULT_255_2_778
10
15.8007136
20
19.8254958
11
15.8007136
21
21.8246958
0
LINE
8
DEFAULT_255_2_778
10
15.8007136
20
21.8246958
11
13.7991136
21
21.8246958
0
LINE
8
DEFAULT_255_2_778
10
13.7991136
20
21.8246958
11
13.7991136
21
19.8254958
0
LINE
8
DEFAULT_255_2_778
10
13.7991136
20
27.4425958
11
15.8007136
21
27.4425958
0
LINE
8
DEFAULT_255_2_778
10
15.8007136
20
27.4425958
11
15.8007136
21
29.4417958
0
LINE
8
DEFAULT_255_2_778
10
15.8007136
20
29.4417958
11
13.7991136
21
29.4417958
0
LINE
8
DEFAULT_255_2_778
10
13.7991136
20
29.4417958
11
13.7991136
21
27.4425958
0
LINE
8
DEFAULT_255_2_778
10
13.7991136
20
35.0599958
11
15.8007136
21
35.0599958
0
LINE
8
DEFAULT_255_2_778
10
15.8007136
20
35.0599958
11
15.8007136
21
37.0591958
0
LINE
8
DEFAULT_255_2_778
10
15.8007136
20
37.0591958
11
13.7991136
21
37.0591958
0
LINE
8
DEFAULT_255_2_778
10
13.7991136
20
37.0591958
11
13.7991136
21
35.0599958
0
LINE
8
DEFAULT_255_2_778
10
13.7991136
20
38.8683958
11
15.8007136
21
38.8683958
0
LINE
8
DEFAULT_255_2_778
10
15.8007136
20
38.8683958
11
15.8007136
21
40.8675958
0
LINE
8
DEFAULT_255_2_778
10
15.8007136
20
40.8675958
11
13.7991136
21
40.8675958
0
LINE
8
DEFAULT_255_2_778
10
13.7991136
20
40.8675958
11
13.7991136
21
38.8683958
0
LINE
8
DEFAULT_255_2_778
10
13.7991136
20
31.2512958
11
15.8007136
21
31.2512958
0
LINE
8
DEFAULT_255_2_778
10
15.8007136
20
31.2512958
11
15.8007136
21
33.2504958
0
LINE
8
DEFAULT_255_2_778
10
15.8007136
20
33.2504958
11
13.7991136
21
33.2504958
0
LINE
8
DEFAULT_255_2_778
10
13.7991136
20
33.2504958
11
13.7991136
21
31.2512958
0
LINE
8
DEFAULT_255_2_778
10
5.7930044
20
5.6809822
11
5.7933819
21
5.680982
0
ARC
8
DEFAULT_255_2_778
10
5.7933435
20
6.1808716
40
0.4998895
50
270.0044007
51
314.9814847
0
ARC
8
DEFAULT_255_2_778
10
5.7932725
20
6.1810023
40
0.500032
50
314.9766419
51
359.9747748
0
ARC
8
DEFAULT_255_2_778
10
5.7933447
20
46.7649921
40
0.4999598
50
0.0217834
51
45.0267688
0
ARC
8
DEFAULT_255_2_778
10
5.7928208
20
46.7638295
40
0.5011527
50
45.0783338
51
89.979004
0
ARC
8
DEFAULT_255_2_778
10
17.2973055
20
-0.1987929
40
0.0472184
50
177.3265938
51
202.572613
0
ARC
8
DEFAULT_255_2_778
10
18.5124974
20
-0.097041
40
1.2662777
50
182.2912163
51
184.5090084
0
ARC
8
DEFAULT_255_2_778
10
22.9329204
20
0.0926738
40
5.6907659
50
181.3759105
51
182.4205002
0
ARC
8
DEFAULT_255_2_778
10
33.2662469
20
0.354924
40
16.0274162
50
180.8665695
51
181.4261449
0
ARC
8
DEFAULT_255_2_778
10
49.0984682
20
0.6018955
40
31.8615627
50
180.481309
51
180.8800533
0
ARC
8
DEFAULT_255_2_778
10
67.13838
20
0.7572683
40
49.9021433
50
180.1077258
51
180.485702
0
ARC
8
DEFAULT_255_2_778
10
75.7218142
20
0.7822166
40
58.4856098
50
179.9995439
51
180.1163564
0
LINE
8
DEFAULT_255_2_778
10
0.3542044
20
81.7520822
11
0.3542044
21
81.7520822
0
LINE
8
DEFAULT_255_2_778
10
0.3542044
20
81.7520822
11
0.3193044
21
83.7512822
0
LINE
8
DEFAULT_255_2_778
10
0.3193044
20
83.7512822
11
17.2050044
21
83.7512822
0
LINE
8
DEFAULT_255_2_778
10
17.2050044
20
83.7512822
11
17.2362044
21
81.6277822
0
LINE
8
DEFAULT_255_2_778
10
0.3542044
20
0.7826822
11
0.3542044
21
5.6809822
0
LINE
8
DEFAULT_255_2_778
10
0.3542044
20
5.6809822
11
5.7930044
21
5.6809822
0
LINE
8
DEFAULT_255_2_778
10
6.2933044
20
6.1807822
11
6.2933044
21
46.7651822
0
LINE
8
DEFAULT_255_2_778
10
5.7930044
20
47.2649822
11
0.3542044
21
47.2649822
0
LINE
8
DEFAULT_255_2_778
10
0.3542044
20
47.2649822
11
0.3542044
21
78.7530822
0
LINE
8
DEFAULT_255_2_778
10
17.2362044
20
0.7826822
11
17.2362044
21
78.7530822
0
LINE
8
DEFAULT_255_2_778
10
17.2362044
20
0.7826822
11
17.2362044
21
0.7826822
0
LINE
8
DEFAULT_255_2_778
10
17.2362044
20
0.7826822
11
0.3542044
21
0.7826822
0
LINE
8
DEFAULT_255_2_778
10
0.3542044
20
0.7826822
11
0.3542044
21
0.7826822
0
LINE
8
DEFAULT_255_2_778
10
0.3542044
20
0.7826822
11
0.3368044
21
-0.2169178
0
LINE
8
DEFAULT_255_2_778
10
0.3368044
20
-0.2169178
11
17.2537044
21
-0.2169178
0
LINE
8
DEFAULT_255_2_778
10
17.2362044
20
81.7520822
11
0.3542044
21
81.7520822
0
LINE
8
DEFAULT_255_2_778
10
0.3542044
20
81.7520822
11
0.3542044
21
78.7532822
0
LINE
8
DEFAULT_255_2_778
10
0.3542044
20
78.7532822
11
17.2362044
21
78.7532822
0
LINE
8
DEFAULT_255_2_778
10
17.2362044
20
78.7532822
11
17.2362044
21
81.7520822
0
ENDSEC
0
EOF