0
SECTION
2
HEADER
9
$MEASUREMENT
70
1
0
ENDSEC
0
SECTION
2
TABLES
0
TABLE
2
LTYPE
0
LTYPE
72
65
70
64
2
CONTINUOUS
3
______
73
0
40
0
0
ENDTAB
0
TABLE
2
LAYER
0
LAYER
2
DEFAULT_255_2_778
70
0
62
255
6
CONTINUOUS
0
LAYER
2
DEFAULT_255_1_234
70
0
62
255
6
CONTINUOUS
0
LAYER
2
DEFAULT_255_2_778_1
70
0
62
255
6
CONTINUOUS
0
ENDTAB
0
ENDSEC
0
SECTION
2
ENTITIES
0
ARC
8
DEFAULT_255_2_778
10
3.5700693
20
91.6802028
40
0.7914215
50
129.1312896
51
180.1450914
0
ARC
8
DEFAULT_255_2_778
10
3.5703345
20
91.6806899
40
0.7912112
50
89.854026
51
129.1684493
0
ARC
8
DEFAULT_255_2_778
10
25.7993937
20
91.6803765
40
0.7915249
50
39.4792447
51
90.147911
0
ARC
8
DEFAULT_255_2_778
10
25.7999935
20
91.6802231
40
0.7911595
50
359.8533901
51
39.5154338
0
ARC
8
DEFAULT_255_2_778
10
25.7996693
20
-1.9863495
40
0.7914836
50
309.4761667
51
0.1482649
0
ARC
8
DEFAULT_255_2_778
10
25.799398
20
-1.9867805
40
0.7913235
50
269.8517415
51
309.511178
0
ARC
8
DEFAULT_255_2_778
10
3.570342
20
-1.9867224
40
0.7913815
50
219.1282118
51
270.1454017
0
ARC
8
DEFAULT_255_2_778
10
3.5700247
20
-1.9863399
40
0.7913769
50
179.8524075
51
219.1641908
0
LINE
8
DEFAULT_255_2_778
10
3.5723503
20
92.4718987
11
25.7973503
21
92.4718987
0
LINE
8
DEFAULT_255_2_778
10
26.5911503
20
91.6781987
11
26.5911503
21
-1.9843013
0
LINE
8
DEFAULT_255_2_778
10
25.7973503
20
-2.7781013
11
3.5723503
21
-2.7781013
0
LINE
8
DEFAULT_255_2_778
10
2.7786503
20
-1.9843013
11
2.7786503
21
91.6781987
0
LINE
8
DEFAULT_255_1_234
10
11.5941344
20
-0.1934909
11
11.3186458
21
-0.1934909
0
LINE
8
DEFAULT_255_1_234
10
11.3186458
20
-0.1934909
11
11.3186458
21
-0.6513
0
LINE
8
DEFAULT_255_1_234
10
11.3186458
20
-0.6513
11
11.1644364
21
-0.6513
0
LINE
8
DEFAULT_255_1_234
10
11.1644364
20
-0.6513
11
11.1644364
21
0.5181211
0
LINE
8
DEFAULT_255_1_234
10
11.1644364
20
0.5181211
11
11.5957407
21
0.5181211
0
LINE
8
DEFAULT_255_1_234
10
11.3186458
20
0.3912196
11
11.3186458
21
-0.0673926
0
LINE
8
DEFAULT_255_1_234
10
11.3186458
20
-0.0673926
11
11.5957407
21
-0.0673926
0
LINE
8
DEFAULT_255_1_234
10
11.6045756
20
0.3912196
11
11.3186458
21
0.3912196
0
ARC
8
DEFAULT_255_1_234
10
11.5999534
20
-0.0877805
40
0.6059162
50
78.8378113
51
90.3983573
0
ARC
8
DEFAULT_255_1_234
10
11.6415548
20
0.1142879
40
0.3996205
50
58.9632738
51
79.0810598
0
ARC
8
DEFAULT_255_1_234
10
11.671709
20
0.1702721
40
0.3361177
50
48.0197965
51
58.447194
0
ARC
8
DEFAULT_255_1_234
10
11.6805951
20
0.1788225
40
0.3238191
50
3.3375044
51
48.1766626
0
ARC
8
DEFAULT_255_1_234
10
11.557579
20
0.1611171
40
0.4477806
50
359.9477528
51
4.6829065
0
ARC
8
DEFAULT_255_1_234
10
11.5699107
20
0.1568628
40
0.4354656
50
346.1877825
51
0.5060252
0
ARC
8
DEFAULT_255_1_234
10
11.7057975
20
0.1215731
40
0.295089
50
310.8831995
51
346.5426355
0
ARC
8
DEFAULT_255_1_234
10
11.6749395
20
0.1632695
40
0.3468331
50
286.6925341
51
310.2288297
0
ARC
8
DEFAULT_255_1_234
10
11.6180226
20
0.3422882
40
0.5346654
50
274.6850312
51
287.0245141
0
ARC
8
DEFAULT_255_1_234
10
11.5954949
20
0.5631932
40
0.7566852
50
269.8969846
51
275.018904
0
ARC
8
DEFAULT_255_1_234
10
11.598254
20
0.3552707
40
0.4226708
50
269.6593078
51
279.4153575
0
ARC
8
DEFAULT_255_1_234
10
11.6239815
20
0.2062133
40
0.2714146
50
279.2049762
51
294.9900808
0
ARC
8
DEFAULT_255_1_234
10
11.6530141
20
0.1414508
40
0.2004525
50
295.2888114
51
311.2911209
0
ARC
8
DEFAULT_255_1_234
10
11.6601035
20
0.130922
40
0.1878703
50
311.7854996
51
347.2861051
0
ARC
8
DEFAULT_255_1_234
10
11.5617194
20
0.1562092
40
0.2894234
50
346.6893224
51
0.1059443
0
ARC
8
DEFAULT_255_1_234
10
11.4862089
20
0.1590685
40
0.3649409
50
359.6350983
51
0.0053152
0
ARC
8
DEFAULT_255_1_234
10
11.5832417
20
0.1615937
40
0.2679199
50
359.4672059
51
15.5933957
0
ARC
8
DEFAULT_255_1_234
10
11.6457306
20
0.1784779
40
0.2031932
50
15.7442113
51
46.6203375
0
ARC
8
DEFAULT_255_1_234
10
11.6309527
20
0.1614484
40
0.2257226
50
46.8628658
51
75.6676503
0
ARC
8
DEFAULT_255_1_234
10
11.6015347
20
0.0555718
40
0.3355939
50
75.276167
51
88.2915297
0
ARC
8
DEFAULT_255_1_234
10
11.5957054
20
-0.0322476
40
0.4235602
50
87.8575022
51
88.8000139
0
LINE
8
DEFAULT_255_1_234
10
12.6519143
20
0.5237433
11
12.6519143
21
-0.6513
0
LINE
8
DEFAULT_255_1_234
10
12.6519143
20
-0.6513
11
12.502524
21
-0.6513
0
LINE
8
DEFAULT_255_1_234
10
12.502524
20
-0.6513
11
12.502524
21
0.3390133
0
LINE
8
DEFAULT_255_1_234
10
12.502524
20
0.3390133
11
12.2029401
21
0.2289785
0
LINE
8
DEFAULT_255_1_234
10
12.2029401
20
0.2289785
11
12.2029401
21
0.3639117
0
LINE
8
DEFAULT_255_1_234
10
12.2029401
20
0.3639117
11
12.6286223
21
0.5237433
0
LINE
8
DEFAULT_255_1_234
10
12.6286223
20
0.5237433
11
12.6519143
21
0.5237433
0
LINE
8
DEFAULT_255_1_234
10
13.4117167
20
-0.0938974
11
13.4117167
21
-0.2151766
0
LINE
8
DEFAULT_255_1_234
10
13.4117167
20
-0.2151766
11
13.0197679
21
-0.2151766
0
LINE
8
DEFAULT_255_1_234
10
13.0197679
20
-0.2151766
11
13.0197679
21
-0.0938974
0
LINE
8
DEFAULT_255_1_234
10
13.0197679
20
-0.0938974
11
13.4117167
21
-0.0938974
0
LINE
8
DEFAULT_255_1_234
10
14.2743254
20
0.0402327
11
14.2743254
21
-0.1525291
0
LINE
8
DEFAULT_255_1_234
10
13.5362087
20
-0.1726084
11
13.5362087
21
0.0257755
0
LINE
8
DEFAULT_255_1_234
10
14.1257383
20
-0.1926877
11
14.1257383
21
0.0506739
0
LINE
8
DEFAULT_255_1_234
10
13.6847958
20
0.0619184
11
13.6847958
21
-0.1758211
0
ARC
8
DEFAULT_255_1_234
10
13.0496144
20
-0.1574195
40
1.2247208
50
353.8441951
51
0.2287902
0
ARC
8
DEFAULT_255_1_234
10
13.5135648
20
-0.2092194
40
0.7578929
50
344.4934747
51
353.9765454
0
ARC
8
DEFAULT_255_1_234
10
13.8128238
20
-0.2943019
40
0.4467846
50
329.2803592
51
344.7472793
0
ARC
8
DEFAULT_255_1_234
10
13.9121063
20
-0.3487982
40
0.3336173
50
324.9352394
51
328.6160465
0
ARC
8
DEFAULT_255_1_234
10
13.9498171
20
-0.3751573
40
0.2876076
50
280.580143
51
324.9173126
0
ARC
8
DEFAULT_255_1_234
10
13.9096964
20
-0.2080901
40
0.4592847
50
269.5977311
51
281.6734359
0
ARC
8
DEFAULT_255_1_234
10
13.902487
20
-0.2200827
40
0.4472986
50
256.6228859
51
270.51044
0
ARC
8
DEFAULT_255_1_234
10
13.8622847
20
-0.3749123
40
0.2873874
50
215.8618325
51
257.2788573
0
ARC
8
DEFAULT_255_1_234
10
13.9643879
20
-0.3064023
40
0.4102928
50
197.9693508
51
215.2623606
0
ARC
8
DEFAULT_255_1_234
10
14.2128995
20
-0.2225291
40
0.6725652
50
187.8816417
51
198.2346507
0
ARC
8
DEFAULT_255_1_234
10
14.6087203
20
-0.1653921
40
1.0724845
50
180.8976217
51
188.0055519
0
ARC
8
DEFAULT_255_1_234
10
14.8887391
20
-0.1550223
40
1.3526448
50
180.7449369
51
181.1510016
0
ARC
8
DEFAULT_255_1_234
10
14.731012
20
0.0306042
40
1.1948131
50
173.7675579
51
180.231553
0
ARC
8
DEFAULT_255_1_234
10
14.2792267
20
0.0816666
40
0.7401564
50
164.3058563
51
173.9002247
0
ARC
8
DEFAULT_255_1_234
10
13.9880336
20
0.1655656
40
0.4371288
50
148.7922025
51
164.568378
0
ARC
8
DEFAULT_255_1_234
10
13.8928788
20
0.2186929
40
0.3282386
50
144.5883898
51
148.1176286
0
ARC
8
DEFAULT_255_1_234
10
13.8585686
20
0.2426315
40
0.2864044
50
101.6440918
51
144.514236
0
ARC
8
DEFAULT_255_1_234
10
13.9010752
20
0.0737069
40
0.4604934
50
89.5284041
51
102.5819763
0
ARC
8
DEFAULT_255_1_234
10
13.908984
20
0.0698018
40
0.464401
50
77.0437873
51
90.5081339
0
ARC
8
DEFAULT_255_1_234
10
13.9491842
20
0.2340615
40
0.2953195
50
48.2778575
51
77.4994676
0
ARC
8
DEFAULT_255_1_234
10
13.9564473
20
0.2469746
40
0.2808655
50
36.3142134
51
47.6305865
0
ARC
8
DEFAULT_255_1_234
10
13.869578
20
0.1884515
40
0.3855453
50
18.2931786
51
35.6769206
0
ARC
8
DEFAULT_255_1_234
10
13.6152539
20
0.1011593
40
0.654423
50
8.024666
51
18.5605216
0
ARC
8
DEFAULT_255_1_234
10
13.1989459
20
0.0396792
40
1.0752407
50
1.1274072
51
8.1718305
0
ARC
8
DEFAULT_255_1_234
10
12.875365
20
0.0269885
40
1.3990231
50
0.5424119
51
1.3863029
0
ARC
8
DEFAULT_255_1_234
10
13.0575027
20
0.0542342
40
1.0682415
50
359.8090433
51
4.9407866
0
ARC
8
DEFAULT_255_1_234
10
13.4785041
20
0.0918113
40
0.6455691
50
4.8362157
51
12.2904523
0
ARC
8
DEFAULT_255_1_234
10
13.7540156
20
0.1531965
40
0.3633074
50
12.0805627
51
23.8173984
0
ARC
8
DEFAULT_255_1_234
10
13.8713862
20
0.2028919
40
0.2358723
50
24.2871213
51
31.3935614
0
ARC
8
DEFAULT_255_1_234
10
13.9238559
20
0.2372233
40
0.1732111
50
30.7407893
51
82.4657128
0
ARC
8
DEFAULT_255_1_234
10
13.9058693
20
0.1488691
40
0.263235
50
81.1060089
51
90.2184952
0
ARC
8
DEFAULT_255_1_234
10
13.9022992
20
0.1746924
40
0.2374236
50
89.3806855
51
105.6762551
0
ARC
8
DEFAULT_255_1_234
10
13.8839623
20
0.2413567
40
0.1682847
50
105.7981136
51
149.7388061
0
ARC
8
DEFAULT_255_1_234
10
13.9903701
20
0.177395
40
0.2924306
50
149.4208916
51
163.6286378
0
ARC
8
DEFAULT_255_1_234
10
14.1994589
20
0.113625
40
0.5110213
50
163.3763315
51
172.1410975
0
ARC
8
DEFAULT_255_1_234
10
14.5295308
20
0.0663518
40
0.8444586
50
172.0259487
51
178.0703232
0
ARC
8
DEFAULT_255_1_234
10
14.8325397
20
0.0519906
40
1.1477868
50
177.8631668
51
179.5044149
0
ARC
8
DEFAULT_255_1_234
10
14.7252802
20
-0.1794611
40
1.0404907
50
179.7995573
51
185.2460446
0
ARC
8
DEFAULT_255_1_234
10
14.3209841
20
-0.2177487
40
0.6343885
50
185.1411642
51
193.0079639
0
ARC
8
DEFAULT_255_1_234
10
14.0566314
20
-0.2802359
40
0.3627568
50
192.7897626
51
205.2507664
0
ARC
8
DEFAULT_255_1_234
10
13.9519861
20
-0.3269585
40
0.2481908
50
205.8005384
51
211.2537509
0
ARC
8
DEFAULT_255_1_234
10
13.8996301
20
-0.362042
40
0.1852521
50
210.3789793
51
238.4008143
0
ARC
8
DEFAULT_255_1_234
10
13.8976823
20
-0.3573624
40
0.1882621
50
239.6520629
51
265.9793761
0
ARC
8
DEFAULT_255_1_234
10
13.9062023
20
-0.2901573
40
0.2559272
50
265.1315437
51
270.060332
0
ARC
8
DEFAULT_255_1_234
10
13.9090802
20
-0.3225466
40
0.2235528
50
269.3314664
51
287.2178029
0
ARC
8
DEFAULT_255_1_234
10
13.9228654
20
-0.3728721
40
0.1714108
50
287.7958004
51
329.080874
0
ARC
8
DEFAULT_255_1_234
10
13.8271111
20
-0.313107
40
0.2842745
50
328.6634704
51
343.3325132
0
ARC
8
DEFAULT_255_1_234
10
13.6098131
20
-0.2454137
40
0.5118644
50
343.0499468
51
351.9393422
0
ARC
8
DEFAULT_255_1_234
10
13.2631431
20
-0.1943051
40
0.8622784
50
351.8069023
51
357.7959224
0
ARC
8
DEFAULT_255_1_234
10
12.9395987
20
-0.1775279
40
1.1862365
50
357.5871873
51
359.2677531
0
ARC
8
DEFAULT_255_1_234
10
14.891656
20
0.2103703
40
0.2822356
50
338.8763615
51
0.5166041
0
ARC
8
DEFAULT_255_1_234
10
14.9085214
20
0.2058208
40
0.2648703
50
325.8412414
51
338.4795939
0
ARC
8
DEFAULT_255_1_234
10
14.8694582
20
0.2329042
40
0.3124019
50
296.7586019
51
325.753654
0
ARC
8
DEFAULT_255_1_234
10
14.840669
20
0.2813789
40
0.368668
50
296.0902311
51
297.3618122
0
ARC
8
DEFAULT_255_1_234
10
14.8664148
20
-0.3740959
40
0.3518806
50
47.9009248
51
67.1946869
0
ARC
8
DEFAULT_255_1_234
10
14.886039
20
-0.3494605
40
0.320451
50
35.236241
51
47.551371
0
ARC
8
DEFAULT_255_1_234
10
14.9122008
20
-0.3320007
40
0.2890103
50
359.2759738
51
35.4014081
0
ARC
8
DEFAULT_255_1_234
10
14.8377039
20
-0.3393174
40
0.3635026
50
343.1294516
51
0.5776525
0
ARC
8
DEFAULT_255_1_234
10
14.9101584
20
-0.359267
40
0.2883832
50
310.8497458
51
342.744803
0
ARC
8
DEFAULT_255_1_234
10
14.8683697
20
-0.3115706
40
0.3517954
50
281.5473923
51
310.9169905
0
ARC
8
DEFAULT_255_1_234
10
14.8327147
20
-0.1562916
40
0.5110832
50
269.6192722
51
281.9789957
0
ARC
8
DEFAULT_255_1_234
10
14.8254936
20
-0.1562172
40
0.5111606
50
257.4584469
51
270.4287458
0
ARC
8
DEFAULT_255_1_234
10
14.7874079
20
-0.3165656
40
0.3463762
50
228.7553743
51
257.8484423
0
ARC
8
DEFAULT_255_1_234
10
14.7564277
20
-0.3538558
40
0.297916
50
184.0104442
51
228.5071787
0
ARC
8
DEFAULT_255_1_234
10
14.8727221
20
-0.3361488
40
0.4152734
50
179.9315461
51
185.3254504
0
ARC
8
DEFAULT_255_1_234
10
14.7550867
20
-0.3324008
40
0.2976554
50
145.6795913
51
180.6259649
0
ARC
8
DEFAULT_255_1_234
10
14.7714216
20
-0.3438071
40
0.3175776
50
115.5537925
51
145.6416199
0
ARC
8
DEFAULT_255_1_234
10
14.8055146
20
-0.4048972
40
0.3874232
50
113.2437915
51
116.2054627
0
ARC
8
DEFAULT_255_1_234
10
14.7902359
20
0.234958
40
0.3154751
50
222.9548379
51
244.1372485
0
ARC
8
DEFAULT_255_1_234
10
14.7780434
20
0.2212834
40
0.2972382
50
213.3439227
51
222.6271327
0
ARC
8
DEFAULT_255_1_234
10
14.7588369
20
0.2082308
40
0.274019
50
180.4316517
51
213.2713999
0
ARC
8
DEFAULT_255_1_234
10
14.816337
20
0.212911
40
0.33158
50
179.9992944
51
181.1655061
0
ARC
8
DEFAULT_255_1_234
10
14.8572787
20
0.2163561
40
0.3725376
50
164.6186108
51
180.5292368
0
ARC
8
DEFAULT_255_1_234
10
14.767465
20
0.2405101
40
0.2795349
50
132.2454369
51
164.5092287
0
ARC
8
DEFAULT_255_1_234
10
14.7961754
20
0.2080028
40
0.3229019
50
100.7052766
51
132.1387266
0
ARC
8
DEFAULT_255_1_234
10
14.8266726
20
0.0702086
40
0.4639835
50
89.6732617
51
101.2449487
0
ARC
8
DEFAULT_255_1_234
10
14.8328924
20
0.087699
40
0.4464999
50
76.2876631
51
90.4586123
0
ARC
8
DEFAULT_255_1_234
10
14.8635156
20
0.209922
40
0.3205023
50
47.8240157
51
76.4266918
0
ARC
8
DEFAULT_255_1_234
10
14.8857706
20
0.235959
40
0.2862661
50
6.9168658
51
47.6261438
0
ARC
8
DEFAULT_255_1_234
10
14.7671109
20
0.214037
40
0.4067708
50
359.8419705
51
7.9694496
0
ARC
8
DEFAULT_255_1_234
10
14.8013006
20
-0.3300075
40
0.2513121
50
359.4454068
51
16.9256425
0
ARC
8
DEFAULT_255_1_234
10
14.8481817
20
-0.3170967
40
0.2027071
50
17.292259
51
45.462717
0
ARC
8
DEFAULT_255_1_234
10
14.8427753
20
-0.3217566
40
0.2098212
50
45.3028762
51
83.1921472
0
ARC
8
DEFAULT_255_1_234
10
14.8284437
20
-0.4019105
40
0.2911472
50
82.2614531
51
90.143954
0
ARC
8
DEFAULT_255_1_234
10
14.8253557
20
-0.378605
40
0.2678513
50
89.4959189
51
104.8579811
0
ARC
8
DEFAULT_255_1_234
10
14.8076816
20
-0.311611
40
0.1985654
50
104.8855873
51
135.2448349
0
ARC
8
DEFAULT_255_1_234
10
14.8126589
20
-0.3160664
40
0.2052373
50
135.3398955
51
172.104394
0
ARC
8
DEFAULT_255_1_234
10
14.8933647
20
-0.3315075
40
0.2873299
50
171.2651929
51
180.1859362
0
ARC
8
DEFAULT_255_1_234
10
14.8764348
20
-0.3347267
40
0.2704083
50
179.515471
51
193.6466734
0
ARC
8
DEFAULT_255_1_234
10
14.7948117
20
-0.3555223
40
0.1861855
50
193.3540587
51
225.8256931
0
ARC
8
DEFAULT_255_1_234
10
14.7988874
20
-0.3484476
40
0.1941102
50
226.418029
51
255.8553723
0
ARC
8
DEFAULT_255_1_234
10
14.8245307
20
-0.2548002
40
0.2911917
50
255.4655572
51
268.7985967
0
ARC
8
DEFAULT_255_1_234
10
14.8292499
20
-0.1709509
40
0.3751331
50
268.3464808
51
270.0104874
0
ARC
8
DEFAULT_255_1_234
10
14.8315887
20
-0.2393862
40
0.3067064
50
269.575914
51
282.0823146
0
ARC
8
DEFAULT_255_1_234
10
14.8540796
20
-0.3388197
40
0.2047712
50
281.7522535
51
306.6056425
0
ARC
8
DEFAULT_255_1_234
10
14.8639222
20
-0.3549513
40
0.1859604
50
307.1350025
51
314.0277951
0
ARC
8
DEFAULT_255_1_234
10
14.8603306
20
-0.3523234
40
0.1903475
50
314.2553419
51
350.169324
0
ARC
8
DEFAULT_255_1_234
10
14.7751775
20
-0.3338591
40
0.2774269
50
349.4145679
51
0.2930737
0
ARC
8
DEFAULT_255_1_234
10
14.8272208
20
0.1820353
40
0.2300764
50
89.477591
51
105.729794
0
ARC
8
DEFAULT_255_1_234
10
14.8136122
20
0.2325637
40
0.1777519
50
105.922966
51
135.1662921
0
ARC
8
DEFAULT_255_1_234
10
14.8156624
20
0.2311419
40
0.1802087
50
135.3053131
51
168.9882338
0
ARC
8
DEFAULT_255_1_234
10
14.8984196
20
0.2121721
40
0.2650806
50
168.3802067
51
180.3602358
0
ARC
8
DEFAULT_255_1_234
10
14.8755776
20
0.2084041
40
0.2422425
50
179.5029707
51
194.9126783
0
ARC
8
DEFAULT_255_1_234
10
14.8170437
20
0.193011
40
0.1817188
50
194.9722181
51
224.1943972
0
ARC
8
DEFAULT_255_1_234
10
14.8142304
20
0.1907169
40
0.1781027
50
224.2961434
51
262.0157375
0
ARC
8
DEFAULT_255_1_234
10
14.8284547
20
0.2638661
40
0.2525492
50
261.1250369
51
270.1959853
0
ARC
8
DEFAULT_255_1_234
10
14.8314302
20
0.2451339
40
0.233825
50
269.4825617
51
285.0988277
0
ARC
8
DEFAULT_255_1_234
10
14.8468461
20
0.187299
40
0.1739712
50
285.1585659
51
315.9484648
0
ARC
8
DEFAULT_255_1_234
10
14.8379473
20
0.1954886
40
0.1860616
50
316.0412958
51
351.9162715
0
ARC
8
DEFAULT_255_1_234
10
14.7646428
20
0.2096245
40
0.2606517
50
351.1056823
51
0.1936567
0
ARC
8
DEFAULT_255_1_234
10
14.7909257
20
0.2126369
40
0.234377
50
359.4789506
51
16.0679113
0
ARC
8
DEFAULT_255_1_234
10
14.8385216
20
0.225481
40
0.1850875
50
16.3251951
51
44.791304
0
ARC
8
DEFAULT_255_1_234
10
14.8367497
20
0.2255339
40
0.186312
50
44.3958661
51
88.2498933
0
ARC
8
DEFAULT_255_1_234
10
14.8294051
20
0.1644154
40
0.2476868
50
86.9833827
51
90.0200148
0
LINE
8
DEFAULT_255_1_234
10
16.2348728
20
0.5181211
11
16.2348728
21
0.3912196
0
LINE
8
DEFAULT_255_1_234
10
16.2348728
20
0.3912196
11
15.8589874
21
0.3912196
0
LINE
8
DEFAULT_255_1_234
10
15.8589874
20
0.3912196
11
15.8589874
21
-0.6513
0
LINE
8
DEFAULT_255_1_234
10
15.8589874
20
-0.6513
11
15.7055812
21
-0.6513
0
LINE
8
DEFAULT_255_1_234
10
15.7055812
20
-0.6513
11
15.7055812
21
0.3912196
0
LINE
8
DEFAULT_255_1_234
10
15.7055812
20
0.3912196
11
15.330499
21
0.3912196
0
LINE
8
DEFAULT_255_1_234
10
15.330499
20
0.3912196
11
15.330499
21
0.5181211
0
LINE
8
DEFAULT_255_1_234
10
15.330499
20
0.5181211
11
16.2348728
21
0.5181211
0
LINE
8
DEFAULT_255_1_234
10
17.1023005
20
-0.6513
11
16.9906593
21
-0.3460939
0
LINE
8
DEFAULT_255_1_234
10
16.9906593
20
-0.3460939
11
16.5007233
21
-0.3460939
0
LINE
8
DEFAULT_255_1_234
10
16.5007233
20
-0.3460939
11
16.3906885
21
-0.6513
0
LINE
8
DEFAULT_255_1_234
10
16.3906885
20
-0.6513
11
16.2316601
21
-0.6513
0
LINE
8
DEFAULT_255_1_234
10
16.2316601
20
-0.6513
11
16.6782247
21
0.5181211
0
LINE
8
DEFAULT_255_1_234
10
16.6782247
20
0.5181211
11
16.8131579
21
0.5181211
0
LINE
8
DEFAULT_255_1_234
10
16.8131579
20
0.5181211
11
17.2605257
21
-0.6513
0
LINE
8
DEFAULT_255_1_234
10
17.2605257
20
-0.6513
11
17.1023005
21
-0.6513
0
LINE
8
DEFAULT_255_1_234
10
16.7456913
20
0.3277689
11
16.5473074
21
-0.2191925
0
LINE
8
DEFAULT_255_1_234
10
16.5473074
20
-0.2191925
11
16.9448784
21
-0.2191925
0
LINE
8
DEFAULT_255_1_234
10
16.9448784
20
-0.2191925
11
16.7456913
21
0.3277689
0
ARC
8
DEFAULT_255_2_778
10
8.509117
20
90.0058756
40
0.4373747
50
56.3665942
51
72.7074496
0
ARC
8
DEFAULT_255_2_778
10
8.5463845
20
90.1194358
40
0.3178747
50
73.036784
51
89.7973226
0
ARC
8
DEFAULT_255_2_778
10
8.5537306
20
90.097049
40
0.3403165
50
91.0475309
51
125.5485458
0
ARC
8
DEFAULT_255_2_778
10
8.7194697
20
89.8481905
40
0.6392287
50
124.6669492
51
139.114563
0
ARC
8
DEFAULT_255_2_778
10
8.9609112
20
89.6247799
40
0.9680575
50
138.4713305
51
142.1157612
0
ARC
8
DEFAULT_255_2_778
10
8.583458
20
89.6555121
40
0.5212765
50
117.7453356
51
135.8758074
0
ARC
8
DEFAULT_255_2_778
10
8.486317
20
89.8378596
40
0.3146729
50
90.4656379
51
117.5483702
0
ARC
8
DEFAULT_255_2_778
10
8.4802065
20
89.8225957
40
0.3299454
50
64.3679478
51
89.3829577
0
ARC
8
DEFAULT_255_2_778
10
8.4478855
20
89.7410224
40
0.4175182
50
64.8738747
51
65.2115951
0
LINE
8
DEFAULT_255_2_778
10
8.1968689
20
90.2192331
11
8.1968689
21
90.3952331
0
LINE
8
DEFAULT_255_2_778
10
8.1968689
20
90.3952331
11
7.8565689
21
90.3952331
0
LINE
8
DEFAULT_255_2_778
10
7.8565689
20
90.3952331
11
7.8565689
21
89.1765331
0
LINE
8
DEFAULT_255_2_778
10
7.8565689
20
89.1765331
11
8.2219689
21
89.1765331
0
LINE
8
DEFAULT_255_2_778
10
8.2219689
20
89.1765331
11
8.2092689
21
90.0184331
0
LINE
8
DEFAULT_255_2_778
10
8.6251689
20
90.1190331
11
8.7513689
21
90.3700331
0
LINE
8
DEFAULT_255_2_778
10
15.2045689
20
89.1762331
11
15.2045689
21
90.4076331
0
LINE
8
DEFAULT_255_2_778
10
15.2045689
20
90.4076331
11
15.5702689
21
90.4076331
0
LINE
8
DEFAULT_255_2_778
10
15.5702689
20
90.4076331
11
15.5702689
21
89.1762331
0
LINE
8
DEFAULT_255_2_778
10
15.5702689
20
89.1762331
11
15.2045689
21
89.1762331
0
ARC
8
DEFAULT_255_2_778
10
15.3896435
20
90.800366
40
0.1978332
50
90.7257917
51
180.9507563
0
ARC
8
DEFAULT_255_2_778
10
15.3846161
20
90.8004493
40
0.1977501
50
359.0247012
51
89.2694187
0
ARC
8
DEFAULT_255_2_778
10
15.3846161
20
90.7937174
40
0.1977501
50
270.7305813
51
0.9752988
0
ARC
8
DEFAULT_255_2_778
10
15.3896435
20
90.7938007
40
0.1978332
50
179.0492437
51
269.2742083
0
LINE
8
DEFAULT_255_2_778
10
15.1918375
20
90.7970833
11
15.1918375
21
90.7970833
0
LINE
8
DEFAULT_255_2_778
10
16.8978729
20
89.1729854
11
16.8978729
21
90.4043854
0
LINE
8
DEFAULT_255_2_778
10
16.8978729
20
90.4043854
11
17.2635729
21
90.4043854
0
LINE
8
DEFAULT_255_2_778
10
17.2635729
20
90.4043854
11
17.2635729
21
89.1729854
0
LINE
8
DEFAULT_255_2_778
10
17.2635729
20
89.1729854
11
16.8978729
21
89.1729854
0
ARC
8
DEFAULT_255_2_778
10
17.0829435
20
90.797166
40
0.1978332
50
90.7257917
51
180.9507563
0
ARC
8
DEFAULT_255_2_778
10
17.0779161
20
90.7972493
40
0.1977501
50
359.0247012
51
89.2694187
0
ARC
8
DEFAULT_255_2_778
10
17.0779161
20
90.7905174
40
0.1977501
50
270.7305813
51
0.9752988
0
ARC
8
DEFAULT_255_2_778
10
17.0829435
20
90.7906007
40
0.1978332
50
179.0492437
51
269.2742083
0
LINE
8
DEFAULT_255_2_778
10
16.8851375
20
90.7938833
11
16.8851375
21
90.7938833
0
ARC
8
DEFAULT_255_2_778
10
22.0788624
20
89.0554788
40
0.399929
50
186.2090497
51
214.6438559
0
ARC
8
DEFAULT_255_2_778
10
21.9921847
20
89.015624
40
0.3064065
50
217.727985
51
266.8306819
0
ARC
8
DEFAULT_255_2_778
10
22.0316252
20
89.2259571
40
0.5193404
50
263.7675625
51
266.8049274
0
ARC
8
DEFAULT_255_2_778
10
22.0082454
20
89.0321919
40
0.2399325
50
195.4006145
51
268.6707088
0
ARC
8
DEFAULT_255_2_778
10
22.2805996
20
89.158176
40
0.5382116
50
193.3258898
51
200.6383232
0
ARC
8
DEFAULT_255_2_778
10
22.0638429
20
89.00519
40
0.3083241
50
141.9083968
51
174.6152863
0
ARC
8
DEFAULT_255_2_778
10
22.0026746
20
89.0311305
40
0.2447935
50
89.9988769
51
137.8510912
0
ARC
8
DEFAULT_255_2_778
10
21.9982309
20
89.0488687
40
0.3117869
50
89.1824841
51
162.3459304
0
ARC
8
DEFAULT_255_2_778
10
22.258036
20
88.9169629
40
0.6011919
50
157.8713755
51
162.5920001
0
ARC
8
DEFAULT_255_2_778
10
13.7766756
20
89.5859305
40
0.434232
50
284.0737984
51
307.1283935
0
ARC
8
DEFAULT_255_2_778
10
13.6851625
20
89.922507
40
0.7829896
50
272.5675489
51
284.5802087
0
ARC
8
DEFAULT_255_2_778
10
13.6592437
20
90.2814017
40
1.1427274
50
269.9523961
51
273.0596894
0
ARC
8
DEFAULT_255_2_778
10
13.6631315
20
90.6630793
40
1.5244123
50
264.3721605
51
269.8181894
0
ARC
8
DEFAULT_255_2_778
10
13.7276162
20
91.3348534
40
2.1992727
50
260.3040359
51
264.4165702
0
ARC
8
DEFAULT_255_2_778
10
13.8169183
20
91.8872771
40
2.75885
50
259.2299789
51
260.4081406
0
ARC
8
DEFAULT_255_2_778
10
13.5378686
20
89.7368398
40
0.6077178
50
188.8927198
51
247.0988028
0
ARC
8
DEFAULT_255_2_778
10
13.8804177
20
89.8279831
40
0.9609548
50
185.1081288
51
191.1050073
0
ARC
8
DEFAULT_255_2_778
10
13.7482073
20
89.7554785
40
0.8250312
50
161.5072483
51
180.9066349
0
ARC
8
DEFAULT_255_2_778
10
13.4992734
20
89.8342242
40
0.5639907
50
120.4701872
51
161.0725957
0
ARC
8
DEFAULT_255_2_778
10
13.5849214
20
89.7674885
40
0.6661417
50
90.0499347
51
123.9108507
0
ARC
8
DEFAULT_255_2_778
10
13.5978311
20
89.6109595
40
0.8227812
50
89.9974966
51
90.9394619
0
ARC
8
DEFAULT_255_2_778
10
13.5918811
20
89.4499209
40
0.9838382
50
77.8335832
51
89.6513936
0
ARC
8
DEFAULT_255_2_778
10
13.5043967
20
89.0320168
40
1.4107957
50
69.8093959
51
77.9373312
0
ARC
8
DEFAULT_255_2_778
10
13.4008346
20
88.7302522
40
1.7297745
50
69.0266426
51
70.0397415
0
ARC
8
DEFAULT_255_2_778
10
13.559202
20
88.7521779
40
1.4359408
50
73.9178594
51
79.2452957
0
ARC
8
DEFAULT_255_2_778
10
13.6567017
20
89.2724721
40
0.9065925
50
79.1629935
51
86.6049203
0
ARC
8
DEFAULT_255_2_778
10
13.6747301
20
89.5237944
40
0.654651
50
86.8774046
51
89.9568351
0
ARC
8
DEFAULT_255_2_778
10
13.6672581
20
89.761064
40
0.4174572
50
88.9067133
51
108.0688095
0
ARC
8
DEFAULT_255_2_778
10
13.6100304
20
89.9348074
40
0.2345328
50
107.942404
51
152.2459688
0
ARC
8
DEFAULT_255_2_778
10
14.3241597
20
89.6045486
40
1.0210941
50
154.5072776
51
162.5682748
0
ARC
8
DEFAULT_255_2_778
10
13.952215
20
89.7192929
40
0.6318603
50
162.3915767
51
174.8213024
0
ARC
8
DEFAULT_255_2_778
10
13.787072
20
89.7381035
40
0.4657093
50
175.2922289
51
179.9490984
0
ARC
8
DEFAULT_255_2_778
10
13.6599161
20
89.7307143
40
0.338643
50
178.6796766
51
234.9381893
0
ARC
8
DEFAULT_255_2_778
10
13.6575594
20
89.7423791
40
0.3469445
50
236.3635337
51
264.9414885
0
ARC
8
DEFAULT_255_2_778
10
13.6836236
20
89.9178656
40
0.5241505
50
263.7947872
51
270.1188666
0
ARC
8
DEFAULT_255_2_778
10
13.6783507
20
90.1552527
40
0.7615633
50
270.4785196
51
281.0719661
0
ARC
8
DEFAULT_255_2_778
10
13.5940398
20
90.6091133
40
1.2231753
50
280.8649891
51
287.2606546
0
ARC
8
DEFAULT_255_2_778
10
14.6487772
20
91.4420389
40
2.2970478
50
276.5245429
51
279.5045514
0
ARC
8
DEFAULT_255_2_778
10
14.7141671
20
90.8644037
40
1.7157236
50
272.7759418
51
276.5469051
0
ARC
8
DEFAULT_255_2_778
10
14.7339562
20
90.4841464
40
1.3349546
50
270.0439674
51
272.7180028
0
ARC
8
DEFAULT_255_2_778
10
14.7253399
20
90.0159869
40
0.8668484
50
258.6359382
51
270.6372354
0
ARC
8
DEFAULT_255_2_778
10
14.6326818
20
89.5800616
40
0.4212409
50
235.5405817
51
259.3086539
0
ARC
8
DEFAULT_255_2_778
10
14.5715943
20
89.4727304
40
0.2983588
50
181.5929591
51
233.550276
0
ARC
8
DEFAULT_255_2_778
10
14.7698134
20
89.5026912
40
0.4979343
50
179.9387066
51
184.4062155
0
ARC
8
DEFAULT_255_2_778
10
14.863071
20
89.5986312
40
0.2330741
50
194.3604277
51
259.8152315
0
ARC
8
DEFAULT_255_2_778
10
14.9677954
20
89.964228
40
0.6126343
50
256.2189254
51
270.9017933
0
ARC
8
DEFAULT_255_2_778
10
14.9769331
20
90.3315407
40
0.9798713
50
270.0294871
51
272.2486365
0
LINE
8
DEFAULT_255_2_778
10
15.6204794
20
90.4012239
11
15.9670794
21
90.4012239
0
LINE
8
DEFAULT_255_2_778
10
15.9670794
20
90.4012239
11
16.2379794
21
89.6599239
0
LINE
8
DEFAULT_255_2_778
10
16.2379794
20
89.6599239
11
16.5088794
21
90.4073239
0
LINE
8
DEFAULT_255_2_778
10
16.5088794
20
90.4073239
11
16.8176794
21
90.4073239
0
LINE
8
DEFAULT_255_2_778
10
16.8176794
20
90.4073239
11
16.3133794
21
89.1571239
0
LINE
8
DEFAULT_255_2_778
10
16.3133794
20
89.1571239
11
16.0926794
21
89.1571239
0
LINE
8
DEFAULT_255_2_778
10
16.0926794
20
89.1571239
11
15.6204794
21
90.4012239
0
LINE
8
DEFAULT_255_2_778
10
19.3386794
20
89.7604239
11
19.3605794
21
89.6786239
0
LINE
8
DEFAULT_255_2_778
10
19.3605794
20
89.6786239
11
19.4960794
21
89.7509239
0
LINE
8
DEFAULT_255_2_778
10
19.4960794
20
89.7509239
11
19.4960794
21
89.0944239
0
LINE
8
DEFAULT_255_2_778
10
19.4960794
20
89.0944239
11
19.5968794
21
89.0944239
0
LINE
8
DEFAULT_255_2_778
10
19.5968794
20
89.0944239
11
19.5904794
21
89.8419239
0
LINE
8
DEFAULT_255_2_778
10
19.5904794
20
89.8419239
11
19.5023794
21
89.8419239
0
LINE
8
DEFAULT_255_2_778
10
19.5023794
20
89.8419239
11
19.3386794
21
89.7604239
0
LINE
8
DEFAULT_255_2_778
10
6.2430794
20
91.0296239
11
6.3250794
21
91.0296239
0
LINE
8
DEFAULT_255_2_778
10
6.3250794
20
91.0296239
11
6.3250794
21
89.0727239
0
LINE
8
DEFAULT_255_2_778
10
6.3250794
20
89.0727239
11
18.5318794
21
89.0696239
0
LINE
8
DEFAULT_255_2_778
10
18.5318794
20
89.0696239
11
18.5350794
21
88.9878239
0
LINE
8
DEFAULT_255_2_778
10
18.5350794
20
88.9878239
11
6.2430794
21
88.9878239
0
LINE
8
DEFAULT_255_2_778
10
6.2430794
20
88.9878239
11
6.2430794
21
91.0233239
0
LINE
8
DEFAULT_255_2_778
10
19.0753794
20
89.1000239
11
19.0753794
21
89.0122239
0
LINE
8
DEFAULT_255_2_778
10
19.0753794
20
89.0122239
11
21.6812794
21
89.0122239
0
LINE
8
DEFAULT_255_2_778
10
22.0026794
20
88.7074239
11
22.0026794
21
88.7923239
0
LINE
8
DEFAULT_255_2_778
10
22.0026794
20
89.2759239
11
22.0026794
21
89.3606239
0
LINE
8
DEFAULT_255_2_778
10
21.6843794
20
89.0968239
11
19.0816794
21
89.0968239
0
LINE
8
DEFAULT_255_2_778
10
13.9630794
20
89.4408239
11
14.0387794
21
89.2397239
0
LINE
8
DEFAULT_255_2_778
10
14.0199794
20
90.3454239
11
13.9569794
21
90.1319239
0
LINE
8
DEFAULT_255_2_778
10
14.2718794
20
89.5032239
11
14.2718794
21
90.1940239
0
LINE
8
DEFAULT_255_2_778
10
14.2718794
20
90.1940239
11
14.0826794
21
90.1940239
0
LINE
8
DEFAULT_255_2_778
10
14.0826794
20
90.1940239
11
14.0826794
21
90.4076239
0
LINE
8
DEFAULT_255_2_778
10
14.0826794
20
90.4076239
11
14.2718794
21
90.4076239
0
LINE
8
DEFAULT_255_2_778
10
14.2718794
20
90.4076239
11
14.4104794
21
90.9100239
0
LINE
8
DEFAULT_255_2_778
10
14.4104794
20
90.9100239
11
14.6247794
21
90.9100239
0
LINE
8
DEFAULT_255_2_778
10
14.6247794
20
90.9100239
11
14.6374794
21
90.4076239
0
LINE
8
DEFAULT_255_2_778
10
14.6374794
20
90.4076239
11
14.9777794
21
90.4076239
0
LINE
8
DEFAULT_255_2_778
10
14.9777794
20
90.4076239
11
14.9777794
21
90.1940239
0
LINE
8
DEFAULT_255_2_778
10
14.9777794
20
90.1940239
11
14.6372794
21
90.1940239
0
LINE
8
DEFAULT_255_2_778
10
14.6372794
20
90.1940239
11
14.6372794
21
89.5408239
0
LINE
8
DEFAULT_255_2_778
10
15.0153794
20
89.3524239
11
15.0280794
21
89.1765239
0
ARC
8
DEFAULT_255_2_778
10
18.3024027
20
89.0357006
40
0.5885618
50
314.1425413
51
331.9270918
0
ARC
8
DEFAULT_255_2_778
10
18.4398834
20
88.8955729
40
0.3922584
50
269.0322425
51
313.9868193
0
ARC
8
DEFAULT_255_2_778
10
18.4381885
20
89.0878771
40
0.5845273
50
255.6360648
51
269.5167247
0
ARC
8
DEFAULT_255_2_778
10
18.5134055
20
89.3913721
40
0.8971981
50
246.6811795
51
255.790956
0
ARC
8
DEFAULT_255_2_778
10
18.6382092
20
89.6944441
40
1.224929
50
243.4462224
51
246.9319367
0
ARC
8
DEFAULT_255_2_778
10
18.3621687
20
89.1239307
40
0.3648127
50
238.6960142
51
269.7522384
0
ARC
8
DEFAULT_255_2_778
10
18.3585706
20
89.1579979
40
0.3988816
50
270.2902271
51
286.0302682
0
ARC
8
DEFAULT_255_2_778
10
18.3439528
20
88.9796393
40
0.2399938
50
301.3239159
51
328.5484084
0
ARC
8
DEFAULT_255_2_778
10
17.8593662
20
89.3058932
40
0.8240117
50
326.7768178
51
337.3925755
0
ARC
8
DEFAULT_255_2_778
10
16.8007869
20
89.7645542
40
1.9776351
50
336.9149998
51
342.1307954
0
ARC
8
DEFAULT_255_2_778
10
18.1252835
20
89.5691636
40
0.1954042
50
190.120766
51
263.958695
0
ARC
8
DEFAULT_255_2_778
10
18.2014334
20
89.8717827
40
0.5062622
50
258.9866291
51
270.5697296
0
ARC
8
DEFAULT_255_2_778
10
18.204321
20
90.1892145
40
0.8236717
50
270.1493118
51
275.0745303
0
ARC
8
DEFAULT_255_2_778
10
18.1872931
20
90.4063127
40
1.0414275
50
274.9512067
51
276.4741818
0
ARC
8
DEFAULT_255_2_778
10
17.9114118
20
91.6625729
40
2.5197089
50
276.512457
51
279.4178429
0
ARC
8
DEFAULT_255_2_778
10
17.9872799
20
90.9922245
40
1.8450814
50
272.9002784
51
276.532699
0
ARC
8
DEFAULT_255_2_778
10
18.0109581
20
90.5499216
40
1.4021477
50
270.0528156
51
272.8484525
0
ARC
8
DEFAULT_255_2_778
10
18.0029255
20
90.0411315
40
0.8934054
50
259.5071449
51
270.5980454
0
ARC
8
DEFAULT_255_2_778
10
17.912813
20
89.5801743
40
0.4237716
50
238.7101736
51
260.1371304
0
ARC
8
DEFAULT_255_2_778
10
17.8289731
20
89.4337213
40
0.2551147
50
181.256628
51
237.7180126
0
LINE
8
DEFAULT_255_2_778
10
18.0906198
20
88.5987265
11
18.1726198
21
88.8122265
0
LINE
8
DEFAULT_255_2_778
10
18.6830198
20
89.1577265
11
18.2544198
21
90.1880265
0
LINE
8
DEFAULT_255_2_778
10
18.2544198
20
90.1880265
11
17.9329198
21
90.1880265
0
LINE
8
DEFAULT_255_2_778
10
17.9329198
20
90.1880265
11
17.9329198
21
89.5348265
0
LINE
8
DEFAULT_255_2_778
10
18.3047198
20
89.3715265
11
18.3237198
21
89.1768265
0
LINE
8
DEFAULT_255_2_778
10
17.5739198
20
89.4281265
11
17.5612198
21
90.1946265
0
LINE
8
DEFAULT_255_2_778
10
17.5612198
20
90.1946265
11
17.3720198
21
90.1946265
0
LINE
8
DEFAULT_255_2_778
10
17.3720198
20
90.1946265
11
17.3720198
21
90.4082265
0
LINE
8
DEFAULT_255_2_778
10
17.3720198
20
90.4082265
11
17.5736198
21
90.4082265
0
LINE
8
DEFAULT_255_2_778
10
17.5736198
20
90.4082265
11
17.6996198
21
90.9106265
0
LINE
8
DEFAULT_255_2_778
10
17.6996198
20
90.9106265
11
17.9139198
21
90.9106265
0
LINE
8
DEFAULT_255_2_778
10
17.9139198
20
90.9106265
11
17.9266198
21
90.4082265
0
LINE
8
DEFAULT_255_2_778
10
17.9266198
20
90.4082265
11
18.5568198
21
90.4082265
0
LINE
8
DEFAULT_255_2_778
10
18.5568198
20
90.4082265
11
18.8592198
21
89.5790265
0
LINE
8
DEFAULT_255_2_778
10
18.8592198
20
89.5790265
11
19.1616198
21
90.4082265
0
LINE
8
DEFAULT_255_2_778
10
19.1616198
20
90.4082265
11
19.4768198
21
90.4082265
0
LINE
8
DEFAULT_255_2_778
10
19.4768198
20
90.4082265
11
18.8214198
21
88.7622265
0
ARC
8
DEFAULT_255_2_778
10
20.4886862
20
89.4729313
40
0.5325132
50
158.8117849
51
180.8166314
0
ARC
8
DEFAULT_255_2_778
10
20.1842351
20
89.5990458
40
0.2032019
50
123.934274
51
160.9412119
0
ARC
8
DEFAULT_255_2_778
10
20.1146708
20
89.6920343
40
0.0874105
50
90.4874929
51
120.1257683
0
ARC
8
DEFAULT_255_2_778
10
20.1002562
20
89.6536743
40
0.1265082
50
24.4554496
51
83.7963195
0
ARC
8
DEFAULT_255_2_778
10
19.838393
20
89.4974289
40
0.4308905
50
5.6598625
51
28.957143
0
ARC
8
DEFAULT_255_2_778
10
19.6526819
20
89.4658841
40
0.6189454
50
359.9497817
51
6.8703696
0
ARC
8
DEFAULT_255_2_778
10
19.739561
20
89.4578406
40
0.532119
50
338.804197
51
0.8077062
0
ARC
8
DEFAULT_255_2_778
10
20.0434041
20
89.3318836
40
0.2034314
50
303.9637337
51
340.9394474
0
ARC
8
DEFAULT_255_2_778
10
20.1131773
20
89.2386817
40
0.0873432
50
270.4918639
51
300.1560267
0
ARC
8
DEFAULT_255_2_778
10
20.1275984
20
89.2771157
40
0.1265149
50
204.4617097
51
263.7964427
0
ARC
8
DEFAULT_255_2_778
10
20.3893028
20
89.4333099
40
0.4307345
50
185.6642403
51
208.9631817
0
ARC
8
DEFAULT_255_2_778
10
20.5745796
20
89.4648017
40
0.6183526
50
179.9499665
51
186.873664
0
ARC
8
DEFAULT_255_2_778
10
20.3794104
20
89.4694257
40
0.5240325
50
152.511927
51
180.7855003
0
ARC
8
DEFAULT_255_2_778
10
20.153316
20
89.5973056
40
0.264594
50
107.9689651
51
154.4798484
0
ARC
8
DEFAULT_255_2_778
10
20.1171586
20
89.6751433
40
0.1796984
50
90.01006
51
104.6572928
0
ARC
8
DEFAULT_255_2_778
10
20.1028885
20
89.624023
40
0.2312574
50
28.2083535
51
86.4700607
0
ARC
8
DEFAULT_255_2_778
10
19.8816202
20
89.4768591
40
0.4964429
50
2.8146136
51
31.1060953
0
ARC
8
DEFAULT_255_2_778
10
19.7786343
20
89.4623264
40
0.6000928
50
359.9919055
51
3.7176902
0
ARC
8
DEFAULT_255_2_778
10
19.8537274
20
89.4550993
40
0.5250483
50
332.6664514
51
0.7794307
0
ARC
8
DEFAULT_255_2_778
10
20.0799829
20
89.3279762
40
0.2658372
50
288.4439106
51
334.6152105
0
ARC
8
DEFAULT_255_2_778
10
20.1170892
20
89.2493069
40
0.1797652
50
270.012078
51
285.1556488
0
ARC
8
DEFAULT_255_2_778
10
20.1313807
20
89.3004594
40
0.2313572
50
208.2191033
51
266.4678588
0
ARC
8
DEFAULT_255_2_778
10
20.3525546
20
89.4476219
40
0.4964632
50
182.8162116
51
211.116011
0
ARC
8
DEFAULT_255_2_778
10
20.4554662
20
89.4621534
40
0.6000391
50
179.9915681
51
183.7193211
0
LINE
8
DEFAULT_255_2_778
10
19.9562271
20
89.4653417
11
19.9562271
21
89.4653417
0
LINE
8
DEFAULT_255_2_778
10
19.8554271
20
89.4622417
11
19.8554271
21
89.4622417
0
ARC
8
DEFAULT_255_2_778
10
21.0810862
20
89.4729313
40
0.5325132
50
158.8117849
51
180.8166314
0
ARC
8
DEFAULT_255_2_778
10
20.7766351
20
89.5990458
40
0.2032019
50
123.934274
51
160.9412119
0
ARC
8
DEFAULT_255_2_778
10
20.7070708
20
89.6920343
40
0.0874105
50
90.4874929
51
120.1257683
0
ARC
8
DEFAULT_255_2_778
10
20.6926562
20
89.6536743
40
0.1265082
50
24.4554496
51
83.7963195
0
ARC
8
DEFAULT_255_2_778
10
20.430793
20
89.4974289
40
0.4308905
50
5.6598625
51
28.957143
0
ARC
8
DEFAULT_255_2_778
10
20.2450819
20
89.4658841
40
0.6189454
50
359.9497817
51
6.8703696
0
ARC
8
DEFAULT_255_2_778
10
20.331961
20
89.4578406
40
0.532119
50
338.804197
51
0.8077062
0
ARC
8
DEFAULT_255_2_778
10
20.6358041
20
89.3318836
40
0.2034314
50
303.9637337
51
340.9394474
0
ARC
8
DEFAULT_255_2_778
10
20.7055773
20
89.2386817
40
0.0873432
50
270.4918639
51
300.1560267
0
ARC
8
DEFAULT_255_2_778
10
20.7199984
20
89.2771157
40
0.1265149
50
204.4617097
51
263.7964427
0
ARC
8
DEFAULT_255_2_778
10
20.9817028
20
89.4333099
40
0.4307345
50
185.6642403
51
208.9631817
0
ARC
8
DEFAULT_255_2_778
10
21.1669796
20
89.4648017
40
0.6183526
50
179.9499665
51
186.873664
0
ARC
8
DEFAULT_255_2_778
10
20.9718104
20
89.4694257
40
0.5240325
50
152.511927
51
180.7855003
0
ARC
8
DEFAULT_255_2_778
10
20.745716
20
89.5973056
40
0.264594
50
107.9689651
51
154.4798484
0
ARC
8
DEFAULT_255_2_778
10
20.7095586
20
89.6751433
40
0.1796984
50
90.01006
51
104.6572928
0
ARC
8
DEFAULT_255_2_778
10
20.6952885
20
89.624023
40
0.2312574
50
28.2083535
51
86.4700607
0
ARC
8
DEFAULT_255_2_778
10
20.4740202
20
89.4768591
40
0.4964429
50
2.8146136
51
31.1060953
0
ARC
8
DEFAULT_255_2_778
10
20.3710343
20
89.4623264
40
0.6000928
50
359.9919055
51
3.7176902
0
ARC
8
DEFAULT_255_2_778
10
20.4461274
20
89.4550993
40
0.5250483
50
332.6664514
51
0.7794307
0
ARC
8
DEFAULT_255_2_778
10
20.6723829
20
89.3279762
40
0.2658372
50
288.4439106
51
334.6152105
0
ARC
8
DEFAULT_255_2_778
10
20.7094892
20
89.2493069
40
0.1797652
50
270.012078
51
285.1556488
0
ARC
8
DEFAULT_255_2_778
10
20.7237807
20
89.3004594
40
0.2313572
50
208.2191033
51
266.4678588
0
ARC
8
DEFAULT_255_2_778
10
20.9449546
20
89.4476219
40
0.4964632
50
182.8162116
51
211.116011
0
ARC
8
DEFAULT_255_2_778
10
21.0478662
20
89.4621534
40
0.6000391
50
179.9915681
51
183.7193211
0
LINE
8
DEFAULT_255_2_778
10
20.5486271
20
89.4653417
11
20.5486271
21
89.4653417
0
LINE
8
DEFAULT_255_2_778
10
20.4478271
20
89.4622417
11
20.4478271
21
89.4622417
0
ARC
8
DEFAULT_255_2_778
10
21.6734862
20
89.4729313
40
0.5325132
50
158.8117849
51
180.8166314
0
ARC
8
DEFAULT_255_2_778
10
21.3690351
20
89.5990458
40
0.2032019
50
123.934274
51
160.9412119
0
ARC
8
DEFAULT_255_2_778
10
21.2994708
20
89.6920343
40
0.0874105
50
90.4874929
51
120.1257683
0
ARC
8
DEFAULT_255_2_778
10
21.2850562
20
89.6536743
40
0.1265082
50
24.4554496
51
83.7963195
0
ARC
8
DEFAULT_255_2_778
10
21.023193
20
89.4974289
40
0.4308905
50
5.6598625
51
28.957143
0
ARC
8
DEFAULT_255_2_778
10
20.8374819
20
89.4658841
40
0.6189454
50
359.9497817
51
6.8703696
0
ARC
8
DEFAULT_255_2_778
10
20.924361
20
89.4578406
40
0.532119
50
338.804197
51
0.8077062
0
ARC
8
DEFAULT_255_2_778
10
21.2282041
20
89.3318836
40
0.2034314
50
303.9637337
51
340.9394474
0
ARC
8
DEFAULT_255_2_778
10
21.2979773
20
89.2386817
40
0.0873432
50
270.4918639
51
300.1560267
0
ARC
8
DEFAULT_255_2_778
10
21.3123984
20
89.2771157
40
0.1265149
50
204.4617097
51
263.7964427
0
ARC
8
DEFAULT_255_2_778
10
21.5741028
20
89.4333099
40
0.4307345
50
185.6642403
51
208.9631817
0
ARC
8
DEFAULT_255_2_778
10
21.7593796
20
89.4648017
40
0.6183526
50
179.9499665
51
186.873664
0
ARC
8
DEFAULT_255_2_778
10
21.5642104
20
89.4694257
40
0.5240325
50
152.511927
51
180.7855003
0
ARC
8
DEFAULT_255_2_778
10
21.338116
20
89.5973056
40
0.264594
50
107.9689651
51
154.4798484
0
ARC
8
DEFAULT_255_2_778
10
21.3019586
20
89.6751433
40
0.1796984
50
90.01006
51
104.6572928
0
ARC
8
DEFAULT_255_2_778
10
21.2876885
20
89.624023
40
0.2312574
50
28.2083535
51
86.4700607
0
ARC
8
DEFAULT_255_2_778
10
21.0664202
20
89.4768591
40
0.4964429
50
2.8146136
51
31.1060953
0
ARC
8
DEFAULT_255_2_778
10
20.9634343
20
89.4623264
40
0.6000928
50
359.9919055
51
3.7176902
0
ARC
8
DEFAULT_255_2_778
10
21.0385274
20
89.4550993
40
0.5250483
50
332.6664514
51
0.7794307
0
ARC
8
DEFAULT_255_2_778
10
21.2647829
20
89.3279762
40
0.2658372
50
288.4439106
51
334.6152105
0
ARC
8
DEFAULT_255_2_778
10
21.3018892
20
89.2493069
40
0.1797652
50
270.012078
51
285.1556488
0
ARC
8
DEFAULT_255_2_778
10
21.3161807
20
89.3004594
40
0.2313572
50
208.2191033
51
266.4678588
0
ARC
8
DEFAULT_255_2_778
10
21.5373546
20
89.4476219
40
0.4964632
50
182.8162116
51
211.116011
0
ARC
8
DEFAULT_255_2_778
10
21.6402662
20
89.4621534
40
0.6000391
50
179.9915681
51
183.7193211
0
LINE
8
DEFAULT_255_2_778
10
21.1410271
20
89.4653417
11
21.1410271
21
89.4653417
0
LINE
8
DEFAULT_255_2_778
10
21.0402271
20
89.4622417
11
21.0402271
21
89.4622417
0
ARC
8
DEFAULT_255_2_778
10
9.3873819
20
89.7983426
40
0.1950108
50
91.6788031
51
181.813939
0
ARC
8
DEFAULT_255_2_778
10
9.375889
20
89.7982798
40
0.1950756
50
358.2051219
51
88.3021655
0
ARC
8
DEFAULT_255_2_778
10
9.3758891
20
89.7860596
40
0.1950754
50
271.6978133
51
1.7949071
0
ARC
8
DEFAULT_255_2_778
10
9.3873819
20
89.7859969
40
0.1950108
50
178.186061
51
268.3211969
0
ARC
8
DEFAULT_255_2_778
10
9.5333727
20
89.7989309
40
0.4668529
50
145.043768
51
180.8298084
0
ARC
8
DEFAULT_255_2_778
10
9.3902029
20
89.9066132
40
0.287883
50
91.6987406
51
146.2830079
0
ARC
8
DEFAULT_255_2_778
10
9.3664457
20
89.8896621
40
0.3050877
50
23.4934874
51
87.1398977
0
ARC
8
DEFAULT_255_2_778
10
9.2119732
20
89.7957629
40
0.484809
50
359.5753549
51
26.3944218
0
ARC
8
DEFAULT_255_2_778
10
9.2302375
20
89.78542
40
0.4665802
50
325.0256173
51
0.8288991
0
ARC
8
DEFAULT_255_2_778
10
9.3731106
20
89.6778699
40
0.2879274
50
271.7032906
51
326.2656695
0
ARC
8
DEFAULT_255_2_778
10
9.3969078
20
89.6949987
40
0.3053095
50
203.3271307
51
267.1389871
0
ARC
8
DEFAULT_255_2_778
10
9.5516258
20
89.788593
40
0.4850703
50
179.5775117
51
206.2433806
0
ARC
8
DEFAULT_255_2_778
10
9.3711242
20
89.7732025
40
0.6700752
50
95.9615992
51
178.9168048
0
ARC
8
DEFAULT_255_2_778
10
9.3941457
20
89.7051302
40
0.7403396
50
89.982733
51
97.186551
0
ARC
8
DEFAULT_255_2_778
10
9.3986015
20
89.7353279
40
0.7101545
50
48.1622127
51
90.3414937
0
ARC
8
DEFAULT_255_2_778
10
9.4447028
20
89.7843697
40
0.6428678
50
0.1336951
51
48.3079447
0
ARC
8
DEFAULT_255_2_778
10
9.4177539
20
89.7984035
40
0.6699322
50
275.9543621
51
358.9279918
0
ARC
8
DEFAULT_255_2_778
10
9.3945956
20
89.8672114
40
0.7409416
50
269.9824665
51
277.1836307
0
ARC
8
DEFAULT_255_2_778
10
9.3901051
20
89.8367743
40
0.7105173
50
228.7495498
51
270.3438303
0
ARC
8
DEFAULT_255_2_778
10
9.3444767
20
89.7873952
40
0.6433097
50
180.1358579
51
228.9051204
0
LINE
8
DEFAULT_255_2_778
10
11.1149688
20
90.1318698
11
11.1149688
21
89.5035698
0
ARC
8
DEFAULT_255_2_778
10
10.4507178
20
90.6967512
40
1.3656176
50
292.8223416
51
299.1049387
0
ARC
8
DEFAULT_255_2_778
10
10.7172229
20
90.0550623
40
0.6708024
50
282.4794629
51
293.1002978
0
ARC
8
DEFAULT_255_2_778
10
10.7905801
20
89.7295416
40
0.3371233
50
270.5838487
51
282.2615078
0
ARC
8
DEFAULT_255_2_778
10
10.7886817
20
89.562928
40
0.1705756
50
241.3798642
51
271.7918735
0
ARC
8
DEFAULT_255_2_778
10
10.7725697
20
89.526112
40
0.1305871
50
222.8095502
51
239.8477433
0
ARC
8
DEFAULT_255_2_778
10
10.8632448
20
89.6506648
40
0.2833162
50
195.5923976
51
228.8379937
0
ARC
8
DEFAULT_255_2_778
10
11.2482514
20
89.7744125
40
0.6875956
50
182.8988217
51
196.901328
0
ARC
8
DEFAULT_255_2_778
10
11.7546763
20
89.8165595
40
1.1956176
50
179.9089191
51
183.6886871
0
ARC
8
DEFAULT_255_2_778
10
12.1230229
20
89.8169544
40
1.5639636
50
177.2544012
51
179.9448392
0
LINE
8
DEFAULT_255_2_778
10
10.5608547
20
89.8918705
11
10.5608688
21
89.8921698
0
ARC
8
DEFAULT_255_2_778
10
11.0254754
20
89.8272208
40
0.4691244
50
149.0121274
51
172.0420019
0
ARC
8
DEFAULT_255_2_778
10
10.8596413
20
89.9176494
40
0.280511
50
88.5440138
51
147.4067729
0
ARC
8
DEFAULT_255_2_778
10
10.7906193
20
89.3674864
40
0.8340669
50
72.0203436
51
84.7616527
0
ARC
8
DEFAULT_255_2_778
10
10.9080282
20
89.7455191
40
0.4382821
50
61.8252032
51
71.3646611
0
ARC
8
DEFAULT_255_2_778
10
10.4986962
20
90.4159032
40
1.2918982
50
287.0682731
51
298.4915226
0
ARC
8
DEFAULT_255_2_778
10
10.6577818
20
89.8929772
40
0.7453122
50
270.6811176
51
287.1763457
0
ARC
8
DEFAULT_255_2_778
10
10.6665525
20
89.7269494
40
0.5792318
50
267.7358327
51
270.0088232
0
ARC
8
DEFAULT_255_2_778
10
10.6470952
20
89.5673768
40
0.4192211
50
203.9093897
51
269.5317059
0
ARC
8
DEFAULT_255_2_778
10
11.1145726
20
89.8267122
40
0.9528801
50
192.6009015
51
206.7737237
0
ARC
8
DEFAULT_255_2_778
10
11.5163822
20
89.9350427
40
1.3687639
50
192.6165694
51
193.3570279
0
ARC
8
DEFAULT_255_2_778
10
11.2164444
20
89.8292151
40
1.05363
50
182.6356817
51
190.5628607
0
ARC
8
DEFAULT_255_2_778
10
11.0629576
20
89.8196692
40
0.89987
50
180.0135228
51
182.4779265
0
ARC
8
DEFAULT_255_2_778
10
10.8371185
20
89.8355664
40
0.6742234
50
136.7456723
51
181.3691273
0
ARC
8
DEFAULT_255_2_778
10
10.687757
20
89.9243873
40
0.5059802
50
89.2314975
51
132.4774114
0
ARC
8
DEFAULT_255_2_778
10
10.6944571
20
89.8136601
40
0.6166618
50
87.8056342
51
89.9919799
0
ARC
8
DEFAULT_255_2_778
10
10.7056164
20
89.2719717
40
1.157965
50
70.3175508
51
89.3838437
0
ARC
8
DEFAULT_255_2_778
10
10.6142508
20
88.9644874
40
1.4783609
50
70.2024224
51
70.9971735
0
ARC
8
DEFAULT_255_2_778
10
6.8356463
20
90.4828908
40
0.4410946
50
358.399361
51
20.0218069
0
ARC
8
DEFAULT_255_2_778
10
7.0501301
20
90.5589859
40
0.2135292
50
20.5419455
51
86.7410997
0
ARC
8
DEFAULT_255_2_778
10
6.965547
20
90.5189555
40
0.314717
50
287.8983612
51
351.2113386
0
ARC
8
DEFAULT_255_2_778
10
7.0636919
20
90.4677198
40
0.618465
50
4.9299985
51
29.9140029
0
ARC
8
DEFAULT_255_2_778
10
7.1679648
20
90.5085178
40
0.5080106
50
31.7908677
51
73.6304902
0
ARC
8
DEFAULT_255_2_778
10
7.032524
20
90.1264821
40
0.9130031
50
72.2320975
51
84.9703096
0
ARC
8
DEFAULT_255_2_778
10
6.9980565
20
90.8912673
40
0.9427779
50
276.9765222
51
292.3131775
0
ARC
8
DEFAULT_255_2_778
10
7.177357
20
90.4837302
40
0.4978062
50
291.0302401
51
353.4987619
0
ARC
8
DEFAULT_255_2_778
10
6.907836
20
90.5390679
40
0.7722473
50
351.6832812
51
358.6496898
0
LINE
8
DEFAULT_255_2_778
10
9.1924688
20
89.7921698
11
9.1924688
21
89.7921698
0
LINE
8
DEFAULT_255_2_778
10
9.0665688
20
89.7921698
11
9.0665688
21
89.7921698
0
LINE
8
DEFAULT_255_2_778
10
8.7011688
20
89.7858698
11
8.7011688
21
89.7858698
0
LINE
8
DEFAULT_255_2_778
10
11.1149688
20
90.1318698
11
11.1149688
21
90.1318698
0
LINE
8
DEFAULT_255_2_778
10
11.1149688
20
90.3552698
11
11.1149688
21
91.1076698
0
LINE
8
DEFAULT_255_2_778
10
11.1149688
20
91.1076698
11
11.4787688
21
91.1489698
0
LINE
8
DEFAULT_255_2_778
10
11.4787688
20
91.1489698
11
11.4787688
21
89.1812698
0
LINE
8
DEFAULT_255_2_778
10
11.4787688
20
89.1812698
11
11.1231688
21
89.1812698
0
LINE
8
DEFAULT_255_2_778
10
11.1231688
20
89.1812698
11
11.1149688
21
89.2804698
0
LINE
8
DEFAULT_255_2_778
10
11.1149688
20
90.3554698
11
11.1149688
21
90.3552698
0
LINE
8
DEFAULT_255_2_778
10
7.0622688
20
90.7721698
11
6.7977688
21
90.7721698
0
LINE
8
DEFAULT_255_2_778
10
6.7977688
20
90.7721698
11
6.7977688
21
90.2194698
0
LINE
8
DEFAULT_255_2_778
10
6.7977688
20
90.2194698
11
7.0622688
21
90.2194698
0
LINE
8
DEFAULT_255_2_778
10
7.2765688
20
90.4708698
11
7.2765688
21
90.4705698
0
LINE
8
DEFAULT_255_2_778
10
7.1125688
20
91.0359698
11
6.4066688
21
91.0359698
0
LINE
8
DEFAULT_255_2_778
10
6.4066688
20
91.0359698
11
6.4066688
21
89.1764698
0
LINE
8
DEFAULT_255_2_778
10
6.4066688
20
89.1764698
11
6.7974688
21
89.1764698
0
LINE
8
DEFAULT_255_2_778
10
6.7974688
20
89.1764698
11
6.7974688
21
89.9554698
0
LINE
8
DEFAULT_255_2_778
10
6.7974688
20
89.9554698
11
7.1125688
21
89.9554698
0
LINE
8
DEFAULT_255_2_778
10
7.6798688
20
90.5208698
11
7.6798688
21
90.5208698
0
ARC
8
DEFAULT_255_2_778
10
19.7177964
20
90.4059316
40
0.1241506
50
90.5265294
51
180.7174335
0
ARC
8
DEFAULT_255_2_778
10
19.7155946
20
90.4059112
40
0.1241704
50
359.2920777
51
89.5104656
0
ARC
8
DEFAULT_255_2_778
10
19.7155946
20
90.4028429
40
0.1241704
50
270.4895344
51
0.7079223
0
ARC
8
DEFAULT_255_2_778
10
19.7177964
20
90.4028225
40
0.1241507
50
179.2825375
51
269.4734631
0
LINE
8
DEFAULT_255_2_778
10
19.5936555
20
90.4043771
11
19.5936555
21
90.4043771
0
ARC
8
DEFAULT_255_2_778
10
19.7159834
20
90.4046527
40
0.1600856
50
89.815832
51
180.0770398
0
ARC
8
DEFAULT_255_2_778
10
19.7170125
20
90.4046527
40
0.1600856
50
359.9229602
51
90.184168
0
ARC
8
DEFAULT_255_2_778
10
19.7169913
20
90.4041436
40
0.1601069
50
269.8234249
51
0.1051606
0
ARC
8
DEFAULT_255_2_778
10
19.7160045
20
90.4041437
40
0.160107
50
179.8948697
51
270.1765625
0
LINE
8
DEFAULT_255_2_778
10
19.5558979
20
90.4044375
11
19.5558979
21
90.4044375
0
ARC
8
DEFAULT_255_2_778
10
19.7173671
20
90.361743
40
0.0239886
50
28.4465281
51
103.4267637
0
ARC
8
DEFAULT_255_2_778
10
19.6923938
20
90.1494542
40
0.2364193
50
85.2923939
51
90.3233848
0
ARC
8
DEFAULT_255_2_778
10
19.7079096
20
89.7497581
40
0.7359887
50
91.4445043
51
94.5082143
0
ARC
8
DEFAULT_255_2_778
10
19.7011498
20
89.9751121
40
0.510537
50
90.0204411
51
91.3236595
0
ARC
8
DEFAULT_255_2_778
10
19.7067649
20
90.2507216
40
0.234999
50
77.9191012
51
91.4136047
0
ARC
8
DEFAULT_255_2_778
10
19.7539008
20
90.4469791
40
0.0335995
50
19.4828986
51
86.5059996
0
ARC
8
DEFAULT_255_2_778
10
19.7648421
20
90.4545932
40
0.0210433
50
359.8753665
51
9.8287108
0
ARC
8
DEFAULT_255_2_778
10
19.7362646
20
90.4594597
40
0.0498633
50
318.6549341
51
354.3463421
0
ARC
8
DEFAULT_255_2_778
10
19.6181615
20
90.5471366
40
0.1968255
50
312.3913188
51
322.2071703
0
ARC
8
DEFAULT_255_2_778
10
19.7323609
20
90.3589106
40
0.0466808
50
7.8211356
51
66.6544263
0
ARC
8
DEFAULT_255_2_778
10
19.5988118
20
90.3310628
40
0.1830194
50
4.3516874
51
10.7699648
0
ARC
8
DEFAULT_255_2_778
10
19.8039496
20
90.3412234
40
0.0229506
50
170.6553415
51
230.4661874
0
ARC
8
DEFAULT_255_2_778
10
19.7917715
20
90.3316989
40
0.0085297
50
253.4430888
51
270.5900942
0
ARC
8
DEFAULT_255_2_778
10
19.7115119
20
90.4281272
40
0.0341371
50
13.1090465
51
106.1583193
0
ARC
8
DEFAULT_255_2_778
10
19.6946118
20
90.2830504
40
0.1780193
50
87.6176468
51
90.0490737
0
ARC
8
DEFAULT_255_2_778
10
19.704515
20
90.4789726
40
0.0658749
50
261.2196532
51
305.0769943
0
ARC
8
DEFAULT_255_2_778
10
19.7330859
20
90.4326224
40
0.0119745
50
320.847334
51
0.7046022
0
LINE
8
DEFAULT_255_2_778
10
19.7921594
20
90.3229697
11
19.7511594
21
90.3229697
0
LINE
8
DEFAULT_255_2_778
10
19.7511594
20
90.3229697
11
19.7384594
21
90.3731697
0
LINE
8
DEFAULT_255_2_778
10
19.6910594
20
90.3858697
11
19.6910594
21
90.3231697
0
LINE
8
DEFAULT_255_2_778
10
19.6910594
20
90.3231697
11
19.6532594
21
90.3231697
0
LINE
8
DEFAULT_255_2_778
10
19.6532594
20
90.3231697
11
19.6500594
21
90.4834697
0
LINE
8
DEFAULT_255_2_778
10
19.7918594
20
90.3231697
11
19.7921594
21
90.3229697
0
LINE
8
DEFAULT_255_2_778
10
19.6944594
20
90.4610697
11
19.6944594
21
90.4138697
0
ARC
8
DEFAULT_255_2_778
10
22.0516426
20
89.0389609
40
0.1859656
50
91.2045372
51
181.4098501
0
ARC
8
DEFAULT_255_2_778
10
22.04384
20
89.0388785
40
0.1860476
50
358.6161552
51
88.8008978
0
ARC
8
DEFAULT_255_2_778
10
22.0437755
20
89.0299541
40
0.1861106
50
271.2185606
51
1.3643499
0
ARC
8
DEFAULT_255_2_778
10
22.0517085
20
89.0295751
40
0.1857322
50
178.57764
51
268.7736356
0
ARC
8
DEFAULT_255_2_778
10
22.9491426
20
89.0511609
40
0.1859656
50
91.2045372
51
181.4098501
0
ARC
8
DEFAULT_255_2_778
10
22.9413241
20
89.0511609
40
0.1859656
50
358.5901499
51
88.7954628
0
ARC
8
DEFAULT_255_2_778
10
22.9413241
20
89.0420099
40
0.1859656
50
271.2045372
51
1.4098501
0
ARC
8
DEFAULT_255_2_778
10
22.9491047
20
89.0417712
40
0.1857262
50
178.6072549
51
268.8056271
0
ARC
8
DEFAULT_255_2_778
10
22.5004267
20
89.0388785
40
0.1860476
50
91.1991022
51
181.3838448
0
ARC
8
DEFAULT_255_2_778
10
22.4926241
20
89.0389609
40
0.1859656
50
358.5901499
51
88.7954628
0
ARC
8
DEFAULT_255_2_778
10
22.4925595
20
89.0298716
40
0.1860286
50
271.2240081
51
1.3903789
0
ARC
8
DEFAULT_255_2_778
10
22.5004923
20
89.0296574
40
0.1858142
50
178.6036506
51
268.7791685
0
LINE
8
DEFAULT_255_2_778
10
21.8660334
20
89.0341854
11
21.8657334
21
89.0343854
0
LINE
8
DEFAULT_255_2_778
10
22.7634334
20
89.0462854
11
22.7632334
21
89.0465854
0
LINE
8
DEFAULT_255_2_778
10
22.3147334
20
89.0341854
11
22.3144334
21
89.0343854
0
ARC
8
DEFAULT_255_2_778
10
12.2412908
20
89.7996179
40
0.3756367
50
270.2518229
51
277.9224239
0
ARC
8
DEFAULT_255_2_778
10
12.2267567
20
89.5871058
40
0.163922
50
191.9135594
51
275.6664103
0
ARC
8
DEFAULT_255_2_778
10
12.2912552
20
89.7146972
40
0.6680449
50
207.8643513
51
221.7718618
0
ARC
8
DEFAULT_255_2_778
10
12.0737789
20
89.5082613
40
0.3684417
50
220.3588923
51
270.0277924
0
ARC
8
DEFAULT_255_2_778
10
12.0683238
20
89.6403085
40
0.5005206
50
270.6449322
51
287.6494066
0
ARC
8
DEFAULT_255_2_778
10
11.977822
20
89.9362608
40
0.8099892
50
287.4026496
51
297.6988649
0
ARC
8
DEFAULT_255_2_778
10
11.7698217
20
90.3394576
40
1.2636684
50
297.5514274
51
304.3018591
0
ARC
8
DEFAULT_255_2_778
10
12.3708589
20
89.5638997
40
0.1058286
50
290.4109967
51
338.4144294
0
ARC
8
DEFAULT_255_2_778
10
12.1869241
20
89.9330041
40
0.5177505
50
282.5203845
51
295.2483499
0
LINE
8
DEFAULT_255_2_778
10
12.0663656
20
89.5532664
11
12.0599656
21
90.4012664
0
LINE
8
DEFAULT_255_2_778
10
12.0599656
20
90.4012664
11
11.7006656
21
90.4012664
0
LINE
8
DEFAULT_255_2_778
10
11.7006656
20
90.4012664
11
11.7006656
21
89.4024664
0
LINE
8
DEFAULT_255_2_778
10
12.4819656
20
89.2955664
11
12.4946656
21
89.1825664
0
LINE
8
DEFAULT_255_2_778
10
12.4946656
20
89.1825664
11
12.8349656
21
89.1825664
0
LINE
8
DEFAULT_255_2_778
10
12.8349656
20
89.1825664
11
12.8349656
21
90.4139664
0
LINE
8
DEFAULT_255_2_778
10
12.8349656
20
90.4139664
11
12.4692656
21
90.4139664
0
LINE
8
DEFAULT_255_2_778
10
12.4692656
20
90.4139664
11
12.4692656
21
89.5217664
0
LINE
8
DEFAULT_255_1_234
10
8.5448344
20
86.4575091
11
8.2693458
21
86.4575091
0
LINE
8
DEFAULT_255_1_234
10
8.2693458
20
86.4575091
11
8.2693458
21
85.9997
0
LINE
8
DEFAULT_255_1_234
10
8.2693458
20
85.9997
11
8.1151364
21
85.9997
0
LINE
8
DEFAULT_255_1_234
10
8.1151364
20
85.9997
11
8.1151364
21
87.1691211
0
LINE
8
DEFAULT_255_1_234
10
8.1151364
20
87.1691211
11
8.5464407
21
87.1691211
0
LINE
8
DEFAULT_255_1_234
10
8.2693458
20
87.0422196
11
8.2693458
21
86.5836074
0
LINE
8
DEFAULT_255_1_234
10
8.2693458
20
86.5836074
11
8.5464407
21
86.5836074
0
LINE
8
DEFAULT_255_1_234
10
8.5552756
20
87.0422196
11
8.2693458
21
87.0422196
0
ARC
8
DEFAULT_255_1_234
10
8.5506534
20
86.5632195
40
0.6059162
50
78.8378113
51
90.3983573
0
ARC
8
DEFAULT_255_1_234
10
8.5922548
20
86.7652879
40
0.3996205
50
58.9632738
51
79.0810598
0
ARC
8
DEFAULT_255_1_234
10
8.622409
20
86.8212721
40
0.3361177
50
48.0197965
51
58.447194
0
ARC
8
DEFAULT_255_1_234
10
8.6312951
20
86.8298225
40
0.3238191
50
3.3375044
51
48.1766626
0
ARC
8
DEFAULT_255_1_234
10
8.508279
20
86.8121171
40
0.4477806
50
359.9477528
51
4.6829065
0
ARC
8
DEFAULT_255_1_234
10
8.5206107
20
86.8078628
40
0.4354656
50
346.1877825
51
0.5060252
0
ARC
8
DEFAULT_255_1_234
10
8.6564975
20
86.7725731
40
0.295089
50
310.8831995
51
346.5426355
0
ARC
8
DEFAULT_255_1_234
10
8.6256395
20
86.8142695
40
0.3468331
50
286.6925341
51
310.2288297
0
ARC
8
DEFAULT_255_1_234
10
8.5687226
20
86.9932882
40
0.5346654
50
274.6850312
51
287.0245141
0
ARC
8
DEFAULT_255_1_234
10
8.5461949
20
87.2141932
40
0.7566852
50
269.8969846
51
275.018904
0
ARC
8
DEFAULT_255_1_234
10
8.548954
20
87.0062707
40
0.4226708
50
269.6593078
51
279.4153575
0
ARC
8
DEFAULT_255_1_234
10
8.5746815
20
86.8572133
40
0.2714146
50
279.2049762
51
294.9900808
0
ARC
8
DEFAULT_255_1_234
10
8.6037141
20
86.7924508
40
0.2004525
50
295.2888114
51
311.2911209
0
ARC
8
DEFAULT_255_1_234
10
8.6108035
20
86.781922
40
0.1878703
50
311.7854996
51
347.2861051
0
ARC
8
DEFAULT_255_1_234
10
8.5124194
20
86.8072092
40
0.2894234
50
346.6893224
51
0.1059443
0
ARC
8
DEFAULT_255_1_234
10
8.4369089
20
86.8100685
40
0.3649409
50
359.6350983
51
0.0053152
0
ARC
8
DEFAULT_255_1_234
10
8.5339417
20
86.8125937
40
0.2679199
50
359.4672059
51
15.5933957
0
ARC
8
DEFAULT_255_1_234
10
8.5964306
20
86.8294779
40
0.2031932
50
15.7442113
51
46.6203375
0
ARC
8
DEFAULT_255_1_234
10
8.5816527
20
86.8124484
40
0.2257226
50
46.8628658
51
75.6676503
0
ARC
8
DEFAULT_255_1_234
10
8.5522347
20
86.7065718
40
0.3355939
50
75.276167
51
88.2915297
0
ARC
8
DEFAULT_255_1_234
10
8.5464054
20
86.6187524
40
0.4235602
50
87.8575022
51
88.8000139
0
LINE
8
DEFAULT_255_1_234
10
9.5496048
20
86.8735531
11
9.5496048
21
86.7354072
0
LINE
8
DEFAULT_255_1_234
10
9.2781321
20
86.6165375
11
9.2781321
21
85.9997
0
LINE
8
DEFAULT_255_1_234
10
9.2781321
20
85.9997
11
9.1295449
21
85.9997
0
LINE
8
DEFAULT_255_1_234
10
9.1295449
20
85.9997
11
9.1295449
21
86.8687341
0
LINE
8
DEFAULT_255_1_234
10
9.1295449
20
86.8687341
11
9.2741162
21
86.8687341
0
LINE
8
DEFAULT_255_1_234
10
9.2741162
20
86.8687341
11
9.2765257
21
86.7683374
0
ARC
8
DEFAULT_255_1_234
10
9.4829454
20
86.3294342
40
0.4114092
50
80.6754243
51
86.8932892
0
ARC
8
DEFAULT_255_1_234
10
9.4768988
20
86.23267
40
0.5083596
50
86.8038578
51
90.0431435
0
ARC
8
DEFAULT_255_1_234
10
9.4731969
20
86.4783866
40
0.2626638
50
89.2759698
51
106.6213787
0
ARC
8
DEFAULT_255_1_234
10
9.4527533
20
86.552683
40
0.1856317
50
107.1346045
51
157.6458115
0
ARC
8
DEFAULT_255_1_234
10
9.5219134
20
86.5143311
40
0.2643398
50
155.6586782
51
157.2539184
0
ARC
8
DEFAULT_255_1_234
10
9.5014337
20
86.6312157
40
0.2634121
50
127.8165941
51
148.6302098
0
ARC
8
DEFAULT_255_1_234
10
9.4760806
20
86.6572218
40
0.2273596
50
91.3329982
51
126.7875809
0
ARC
8
DEFAULT_255_1_234
10
9.4836746
20
86.5857195
40
0.299078
50
89.986594
51
92.4688449
0
ARC
8
DEFAULT_255_1_234
10
9.4845141
20
86.6132078
40
0.2715908
50
85.3589899
51
90.1623399
0
ARC
8
DEFAULT_255_1_234
10
9.4929657
20
86.7136164
40
0.1708278
50
78.401942
51
85.4594656
0
ARC
8
DEFAULT_255_1_234
10
9.5074541
20
86.7827236
40
0.1002194
50
67.7858312
51
78.5728455
0
ARC
8
DEFAULT_255_1_234
10
9.5182393
20
86.8106887
40
0.0702548
50
63.4835954
51
67.3062642
0
LINE
8
DEFAULT_255_1_234
10
9.6307254
20
86.4318075
11
9.6307254
21
86.4422488
0
LINE
8
DEFAULT_255_1_234
10
10.4218516
20
86.4350202
11
10.4218516
21
86.424579
0
ARC
8
DEFAULT_255_1_234
10
10.1893433
20
86.4454837
40
0.5586273
50
166.3003825
51
180.3317926
0
ARC
8
DEFAULT_255_1_234
10
10.1030593
20
86.4647964
40
0.4702272
50
153.8608245
51
166.0967125
0
ARC
8
DEFAULT_255_1_234
10
10.0364995
20
86.500475
40
0.3947658
50
135.1316692
51
154.253643
0
ARC
8
DEFAULT_255_1_234
10
10.0086555
20
86.5250666
40
0.3576898
50
121.7044358
51
134.776924
0
ARC
8
DEFAULT_255_1_234
10
10.0153548
20
86.5121867
40
0.3721701
50
93.4002104
51
121.5398234
0
ARC
8
DEFAULT_255_1_234
10
10.0248504
20
86.4296228
40
0.4551749
50
89.9706281
51
93.9769836
0
ARC
8
DEFAULT_255_1_234
10
10.0295596
20
86.4686362
40
0.4161854
50
71.3323442
51
90.6161982
0
ARC
8
DEFAULT_255_1_234
10
10.0458293
20
86.5288578
40
0.3539455
50
41.1815071
51
70.707185
0
ARC
8
DEFAULT_255_1_234
10
9.9980693
20
86.4854919
40
0.4184468
50
12.1971897
51
41.3445735
0
ARC
8
DEFAULT_255_1_234
10
9.80547
20
86.4396425
40
0.616399
50
359.5703439
51
12.5804035
0
ARC
8
DEFAULT_255_1_234
10
9.8527775
20
86.4214116
40
0.5690829
50
347.0197749
51
0.3188898
0
ARC
8
DEFAULT_255_1_234
10
9.9486277
20
86.4007808
40
0.4710501
50
334.3504053
51
346.846361
0
ARC
8
DEFAULT_255_1_234
10
10.0331701
20
86.3568805
40
0.3758475
50
310.422922
51
334.8045033
0
ARC
8
DEFAULT_255_1_234
10
10.0413526
20
86.3504782
40
0.3656736
50
301.8486886
51
310.097356
0
ARC
8
DEFAULT_255_1_234
10
10.0381252
20
86.3580638
40
0.3738224
50
274.307774
51
301.655379
0
ARC
8
DEFAULT_255_1_234
10
10.027056
20
86.4458361
40
0.4621997
50
269.9546461
51
274.8588071
0
ARC
8
DEFAULT_255_1_234
10
10.0221493
20
86.3957249
40
0.4121134
50
250.888809
51
270.631312
0
ARC
8
DEFAULT_255_1_234
10
10.0071413
20
86.3398277
40
0.3544073
50
221.1701932
51
250.2227191
0
ARC
8
DEFAULT_255_1_234
10
10.0555568
20
86.3839439
40
0.4198961
50
191.6263638
51
221.3526367
0
ARC
8
DEFAULT_255_1_234
10
10.2443563
20
86.4276329
40
0.6136451
50
179.610213
51
192.0693181
0
ARC
8
DEFAULT_255_1_234
10
10.2866791
20
86.4213633
40
0.5065736
50
179.636298
51
190.6162791
0
ARC
8
DEFAULT_255_1_234
10
10.1224459
20
86.389359
40
0.3392576
50
190.4136628
51
208.7170242
0
ARC
8
DEFAULT_255_1_234
10
10.0714084
20
86.3640366
40
0.2823401
50
209.1867941
51
217.4225593
0
ARC
8
DEFAULT_255_1_234
10
10.0184918
20
86.3174558
40
0.2120636
50
216.1156896
51
265.2575835
0
ARC
8
DEFAULT_255_1_234
10
10.0264066
20
86.3748109
40
0.2698952
50
264.5897417
51
270.0601757
0
ARC
8
DEFAULT_255_1_234
10
10.0297127
20
86.3368185
40
0.2319225
50
269.2532621
51
291.8792492
0
ARC
8
DEFAULT_255_1_234
10
10.0326348
20
86.3190238
40
0.2143562
50
292.9269754
51
323.1776747
0
ARC
8
DEFAULT_255_1_234
10
9.993317
20
86.3538452
40
0.2667346
50
322.2518483
51
323.0930371
0
ARC
8
DEFAULT_255_1_234
10
9.9638829
20
86.371999
40
0.3011886
50
323.6941278
51
343.8493282
0
ARC
8
DEFAULT_255_1_234
10
9.8060372
20
86.420035
40
0.4661719
50
343.5748474
51
355.0079071
0
ARC
8
DEFAULT_255_1_234
10
9.6052618
20
86.4408424
40
0.6680042
50
354.7285225
51
0.1206288
0
ARC
8
DEFAULT_255_1_234
10
9.7821084
20
86.4454751
40
0.4911667
50
359.623636
51
11.2015604
0
ARC
8
DEFAULT_255_1_234
10
9.9355311
20
86.477064
40
0.3345323
50
10.9989411
51
30.8319188
0
ARC
8
DEFAULT_255_1_234
10
9.9751184
20
86.4979297
40
0.2898553
50
31.3008956
51
37.3959224
0
ARC
8
DEFAULT_255_1_234
10
10.0247762
20
86.5398653
40
0.2249582
50
36.5915954
51
62.2442953
0
ARC
8
DEFAULT_255_1_234
10
10.0294216
20
86.5395602
40
0.2231053
50
63.3365542
51
89.7195421
0
ARC
8
DEFAULT_255_1_234
10
10.0251069
20
86.4826884
40
0.2800267
50
88.8936788
51
90.0047485
0
ARC
8
DEFAULT_255_1_234
10
10.0219429
20
86.5399787
40
0.2227586
50
89.1921125
51
114.7099455
0
ARC
8
DEFAULT_255_1_234
10
10.0248193
20
86.5437628
40
0.2205633
50
115.7997161
51
142.2900762
0
ARC
8
DEFAULT_255_1_234
10
10.0686925
20
86.5047658
40
0.2791541
50
141.4658779
51
142.3795754
0
ARC
8
DEFAULT_255_1_234
10
10.079583
20
86.5004557
40
0.2904292
50
143.0175714
51
163.234115
0
ARC
8
DEFAULT_255_1_234
10
10.2374002
20
86.4505054
40
0.4559523
50
162.9447461
51
174.3732162
0
ARC
8
DEFAULT_255_1_234
10
10.4519816
20
86.4264143
40
0.6718682
50
174.1228657
51
180.1565175
0
LINE
8
DEFAULT_255_1_234
10
10.5720451
20
86.4302012
11
10.5720451
21
86.4414456
0
LINE
8
DEFAULT_255_1_234
10
11.1567557
20
86.780385
11
11.1567557
21
87.233375
0
LINE
8
DEFAULT_255_1_234
10
11.1567557
20
87.233375
11
11.3053428
21
87.233375
0
LINE
8
DEFAULT_255_1_234
10
11.3053428
20
87.233375
11
11.3053428
21
85.9997
0
LINE
8
DEFAULT_255_1_234
10
11.3053428
20
85.9997
11
11.1688033
21
85.9997
0
LINE
8
DEFAULT_255_1_234
10
11.1688033
20
85.9997
11
11.1615747
21
86.0928682
0
LINE
8
DEFAULT_255_1_234
10
11.1567557
20
86.2366363
11
11.1567557
21
86.6358137
0
ARC
8
DEFAULT_255_1_234
10
11.2595605
20
86.4458457
40
0.6875294
50
169.1661407
51
180.3666851
0
ARC
8
DEFAULT_255_1_234
10
11.039925
20
86.4896387
40
0.4635805
50
150.2838427
51
169.3798909
0
ARC
8
DEFAULT_255_1_234
10
10.9765867
20
86.5220238
40
0.392532
50
142.1062393
51
149.806405
0
ARC
8
DEFAULT_255_1_234
10
10.9193599
20
86.5718749
40
0.3167807
50
118.4283255
51
142.8643566
0
ARC
8
DEFAULT_255_1_234
10
10.9094944
20
86.5781137
40
0.3066506
50
89.9199246
51
117.3621547
0
ARC
8
DEFAULT_255_1_234
10
10.9149923
20
86.5023731
40
0.3824245
50
89.9987914
51
90.7595231
0
ARC
8
DEFAULT_255_1_234
10
10.9187314
20
86.5258667
40
0.3589502
50
72.8978905
51
90.5955712
0
ARC
8
DEFAULT_255_1_234
10
10.9385262
20
86.5973123
40
0.2848505
50
39.9932841
51
72.477307
0
ARC
8
DEFAULT_255_1_234
10
10.935601
20
86.2760579
40
0.2908996
50
275.084999
51
320.969419
0
ARC
8
DEFAULT_255_1_234
10
10.914173
20
86.4027893
40
0.4191533
50
269.8935077
51
276.4672393
0
ARC
8
DEFAULT_255_1_234
10
10.9073745
20
86.2760703
40
0.2924958
50
222.0839186
51
271.1792213
0
ARC
8
DEFAULT_255_1_234
10
10.9684255
20
86.3385816
40
0.3797413
50
217.5160585
51
222.9101888
0
ARC
8
DEFAULT_255_1_234
10
11.0178094
20
86.3725781
40
0.4396261
50
193.0962774
51
217.1109254
0
ARC
8
DEFAULT_255_1_234
10
11.2135193
20
86.4214128
40
0.6413192
50
181.1070734
51
193.3838631
0
ARC
8
DEFAULT_255_1_234
10
11.3801252
20
86.4300869
40
0.8080801
50
179.9919009
51
181.4937549
0
ARC
8
DEFAULT_255_1_234
10
11.2984854
20
86.421472
40
0.5778615
50
179.6919417
51
188.6549204
0
ARC
8
DEFAULT_255_1_234
10
11.096527
20
86.3896672
40
0.3734182
50
188.4936033
51
202.2187731
0
ARC
8
DEFAULT_255_1_234
10
10.9997978
20
86.3513391
40
0.2693801
50
202.4517848
51
215.9307642
0
ARC
8
DEFAULT_255_1_234
10
10.9405424
20
86.3041191
40
0.1937215
50
214.9062306
51
264.2077075
0
ARC
8
DEFAULT_255_1_234
10
10.9499252
20
86.363915
40
0.2541804
50
263.4637896
51
270.0934907
0
ARC
8
DEFAULT_255_1_234
10
10.9539169
20
86.3547045
40
0.2449958
50
269.1634649
51
291.0931088
0
ARC
8
DEFAULT_255_1_234
10
10.9620874
20
86.3214994
40
0.2111194
50
292.2674853
51
328.1937478
0
ARC
8
DEFAULT_255_1_234
10
10.8929292
20
86.3714026
40
0.2962539
50
327.0410354
51
332.9414029
0
ARC
8
DEFAULT_255_1_234
10
10.934249
20
86.5190886
40
0.2512647
50
27.6811062
51
48.7893196
0
ARC
8
DEFAULT_255_1_234
10
10.9625771
20
86.5451916
40
0.2130039
50
49.8959006
51
87.010286
0
ARC
8
DEFAULT_255_1_234
10
10.9521629
20
86.4664504
40
0.292249
50
85.7764096
51
90.0424572
0
ARC
8
DEFAULT_255_1_234
10
10.9492345
20
86.5324006
40
0.2263149
50
89.313423
51
109.4265906
0
ARC
8
DEFAULT_255_1_234
10
10.9418056
20
86.5628962
40
0.1951098
50
110.3478057
51
145.1577858
0
ARC
8
DEFAULT_255_1_234
10
11.0071849
20
86.515275
40
0.2759807
50
144.7982748
51
162.8715388
0
ARC
8
DEFAULT_255_1_234
10
11.1766499
20
86.4607842
40
0.453983
50
162.5984223
51
173.3418672
0
ARC
8
DEFAULT_255_1_234
10
11.4434277
20
86.4276851
40
0.7228019
50
173.1877442
51
180.2462216
0
LINE
8
DEFAULT_255_1_234
10
12.0755865
20
85.9997
11
12.0723738
21
86.0856396
0
LINE
8
DEFAULT_255_1_234
10
11.532641
20
86.3032997
11
11.532641
21
86.8687341
0
LINE
8
DEFAULT_255_1_234
10
11.532641
20
86.8687341
11
11.6812282
21
86.8687341
0
LINE
8
DEFAULT_255_1_234
10
11.6812282
20
86.8687341
11
11.6812282
21
86.3073156
0
LINE
8
DEFAULT_255_1_234
10
12.068358
20
86.2366363
11
12.068358
21
86.8687341
0
LINE
8
DEFAULT_255_1_234
10
12.068358
20
86.8687341
11
12.2169451
21
86.8687341
0
LINE
8
DEFAULT_255_1_234
10
12.2169451
20
86.8687341
11
12.2169451
21
85.9997
0
LINE
8
DEFAULT_255_1_234
10
12.2169451
20
85.9997
11
12.0755865
21
85.9997
0
ARC
8
DEFAULT_255_1_234
10
11.8608203
20
86.267406
40
0.2789157
50
282.5436552
51
319.3308843
0
ARC
8
DEFAULT_255_1_234
10
11.8221036
20
86.4180137
40
0.4343667
50
269.8917857
51
283.214153
0
ARC
8
DEFAULT_255_1_234
10
11.8177721
20
86.5340183
40
0.5503818
50
269.9995424
51
270.3655186
0
ARC
8
DEFAULT_255_1_234
10
11.8147197
20
86.364953
40
0.3813286
50
257.7355913
51
270.4579866
0
ARC
8
DEFAULT_255_1_234
10
11.7849896
20
86.2350503
40
0.2480795
50
233.3384413
51
258.0721298
0
ARC
8
DEFAULT_255_1_234
10
11.7715503
20
86.2131041
40
0.2224626
50
221.9626381
51
232.7401232
0
ARC
8
DEFAULT_255_1_234
10
11.7995552
20
86.234633
40
0.2576959
50
197.9450831
51
221.3585622
0
ARC
8
DEFAULT_255_1_234
10
11.9390747
20
86.2822997
40
0.4051213
50
185.8088195
51
198.2790125
0
ARC
8
DEFAULT_255_1_234
10
12.128255
20
86.3047963
40
0.5956158
50
180.1439627
51
186.1199408
0
ARC
8
DEFAULT_255_1_234
10
12.0381418
20
86.303756
40
0.3569313
50
179.4285986
51
191.0735588
0
ARC
8
DEFAULT_255_1_234
10
11.8697846
20
86.2690017
40
0.1850421
50
190.5251661
51
212.6990766
0
ARC
8
DEFAULT_255_1_234
10
11.8233639
20
86.243383
40
0.1321852
50
214.2246197
51
264.4398755
0
ARC
8
DEFAULT_255_1_234
10
11.8410975
20
86.3343426
40
0.224609
50
262.1850223
51
270.1952455
0
ARC
8
DEFAULT_255_1_234
10
11.8452865
20
86.4619524
40
0.3522342
50
269.4431043
51
282.9585023
0
ARC
8
DEFAULT_255_1_234
10
11.8789555
20
86.3249561
40
0.2111871
50
282.391263
51
311.9722193
0
ARC
8
DEFAULT_255_1_234
10
11.8797152
20
86.3176809
40
0.2053153
50
313.1724425
51
336.7506893
0
LINE
8
DEFAULT_255_1_234
10
12.9960237
20
86.2735823
11
13.1365792
21
86.2735823
0
LINE
8
DEFAULT_255_1_234
10
12.4040846
20
86.4261853
11
12.4040846
21
86.4510837
0
LINE
8
DEFAULT_255_1_234
10
13.1365792
20
86.5699534
11
12.9960237
21
86.5699534
0
LINE
8
DEFAULT_255_1_234
10
12.5526718
20
86.4454615
11
12.5526718
21
86.4173504
0
ARC
8
DEFAULT_255_1_234
10
12.7948273
20
86.3189121
40
0.2140268
50
269.0327816
51
309.2224514
0
ARC
8
DEFAULT_255_1_234
10
12.8158027
20
86.2974108
40
0.1841255
50
308.396669
51
329.6984113
0
ARC
8
DEFAULT_255_1_234
10
12.8295882
20
86.286982
40
0.166974
50
330.401383
51
355.3970571
0
ARC
8
DEFAULT_255_1_234
10
12.8752748
20
86.2887082
40
0.2617417
50
329.2357853
51
356.6870514
0
ARC
8
DEFAULT_255_1_234
10
12.820277
20
86.3177971
40
0.3238945
50
324.8706984
51
329.7905871
0
ARC
8
DEFAULT_255_1_234
10
12.8124489
20
86.3245106
40
0.3341614
50
298.8769168
51
324.7016144
0
ARC
8
DEFAULT_255_1_234
10
12.779268
20
86.3773917
40
0.3965068
50
296.9023738
51
299.385174
0
ARC
8
DEFAULT_255_1_234
10
12.7922294
20
86.3486422
40
0.365007
50
269.8406811
51
297.1299281
0
ARC
8
DEFAULT_255_1_234
10
12.786895
20
86.4124407
40
0.4288259
50
253.315473
51
270.5771285
0
ARC
8
DEFAULT_255_1_234
10
12.7621985
20
86.3230739
40
0.3361372
50
221.1002312
51
252.9744583
0
ARC
8
DEFAULT_255_1_234
10
12.8081983
20
86.362559
40
0.3967576
50
194.5394537
51
221.0302238
0
ARC
8
DEFAULT_255_1_234
10
12.9930804
20
86.4140952
40
0.5886672
50
182.0499201
51
194.8773585
0
ARC
8
DEFAULT_255_1_234
10
13.1701002
20
86.425906
40
0.7660157
50
179.9791086
51
182.4591564
0
ARC
8
DEFAULT_255_1_234
10
12.9963046
20
86.4540498
40
0.5922274
50
168.614861
51
180.2869651
0
ARC
8
DEFAULT_255_1_234
10
12.8761191
20
86.4776269
40
0.4697532
50
154.9162259
51
168.5402336
0
ARC
8
DEFAULT_255_1_234
10
12.7839699
20
86.523163
40
0.3669966
50
133.5746694
51
155.2558665
0
ARC
8
DEFAULT_255_1_234
10
12.7676857
20
86.5370467
40
0.3457206
50
122.0165146
51
133.2055214
0
ARC
8
DEFAULT_255_1_234
10
12.7712696
20
86.5282361
40
0.355095
50
97.8731644
51
121.7531281
0
ARC
8
DEFAULT_255_1_234
10
12.7891779
20
86.4225159
40
0.4622833
50
89.8471353
51
98.2769494
0
ARC
8
DEFAULT_255_1_234
10
12.7940531
20
86.4835091
40
0.401305
50
73.3760412
51
90.5199766
0
ARC
8
DEFAULT_255_1_234
10
12.8136895
20
86.5557516
40
0.3264695
50
47.7085968
51
73.0509704
0
ARC
8
DEFAULT_255_1_234
10
12.8266765
20
86.5670128
40
0.309407
50
3.7443473
51
48.0843753
0
ARC
8
DEFAULT_255_1_234
10
12.7279714
20
86.5512614
40
0.4090351
50
2.6192045
51
5.0432185
0
ARC
8
DEFAULT_255_1_234
10
12.7736568
20
86.5552592
40
0.2228519
50
3.780656
51
23.9356886
0
ARC
8
DEFAULT_255_1_234
10
12.7965184
20
86.5633155
40
0.198697
50
24.4869552
51
46.9440088
0
ARC
8
DEFAULT_255_1_234
10
12.7966034
20
86.5656484
40
0.1969404
50
46.498716
51
89.3298174
0
ARC
8
DEFAULT_255_1_234
10
12.7904388
20
86.5061723
40
0.2565428
50
88.1083975
51
90.0061569
0
ARC
8
DEFAULT_255_1_234
10
12.7876818
20
86.5115759
40
0.251154
50
89.3773333
51
107.2071161
0
ARC
8
DEFAULT_255_1_234
10
12.7733941
20
86.563319
40
0.1975072
50
107.6883219
51
143.3583002
0
ARC
8
DEFAULT_255_1_234
10
12.8301325
20
86.5206873
40
0.2684762
50
143.2846717
51
162.935323
0
ARC
8
DEFAULT_255_1_234
10
12.9806926
20
86.4723652
40
0.4265927
50
162.6650068
51
174.0805419
0
ARC
8
DEFAULT_255_1_234
10
13.1949766
20
86.4474636
40
0.6423078
50
173.8423985
51
180.1785963
0
ARC
8
DEFAULT_255_1_234
10
13.1401866
20
86.4143039
40
0.5875227
50
179.7028978
51
188.2277152
0
ARC
8
DEFAULT_255_1_234
10
12.9300167
20
86.3828247
40
0.3750127
50
188.0629871
51
201.1160002
0
ARC
8
DEFAULT_255_1_234
10
12.8202366
20
86.3409238
40
0.2575093
50
201.2187293
51
216.9761968
0
ARC
8
DEFAULT_255_1_234
10
12.7750929
20
86.3070993
40
0.2010998
50
217.0135981
51
265.2056839
0
ARC
8
DEFAULT_255_1_234
10
12.7906788
20
86.3992695
40
0.2943543
50
263.681807
51
270.104251
0
LINE
8
DEFAULT_255_1_234
10
13.3566488
20
87.0791656
11
13.5052359
21
87.0791656
0
LINE
8
DEFAULT_255_1_234
10
13.5052359
20
87.0791656
11
13.5052359
21
86.8687341
0
LINE
8
DEFAULT_255_1_234
10
13.5052359
20
86.8687341
11
13.6674771
21
86.8687341
0
LINE
8
DEFAULT_255_1_234
10
13.6674771
20
86.8687341
11
13.6674771
21
86.7538802
0
LINE
8
DEFAULT_255_1_234
10
13.6674771
20
86.7538802
11
13.5052359
21
86.7538802
0
LINE
8
DEFAULT_255_1_234
10
13.5052359
20
86.7538802
11
13.5052359
21
86.2149506
0
LINE
8
DEFAULT_255_1_234
10
13.6714929
20
86.1201761
11
13.6714929
21
85.9997
0
LINE
8
DEFAULT_255_1_234
10
13.3566488
20
86.2149506
11
13.3566488
21
86.7538802
0
LINE
8
DEFAULT_255_1_234
10
13.3566488
20
86.7538802
11
13.1984235
21
86.7538802
0
LINE
8
DEFAULT_255_1_234
10
13.1984235
20
86.7538802
11
13.1984235
21
86.8687341
0
LINE
8
DEFAULT_255_1_234
10
13.1984235
20
86.8687341
11
13.3566488
21
86.8687341
0
LINE
8
DEFAULT_255_1_234
10
13.3566488
20
86.8687341
11
13.3566488
21
87.0791656
0
ARC
8
DEFAULT_255_1_234
10
13.7059862
20
86.2139084
40
0.200753
50
179.7025659
51
187.917967
0
ARC
8
DEFAULT_255_1_234
10
13.6313888
20
86.2031724
40
0.1253883
50
187.7545981
51
200.2447476
0
ARC
8
DEFAULT_255_1_234
10
13.5893209
20
86.1874859
40
0.0804913
50
200.130383
51
219.174133
0
ARC
8
DEFAULT_255_1_234
10
13.5757386
20
86.1782515
40
0.0641445
50
220.4434483
51
249.6172
0
ARC
8
DEFAULT_255_1_234
10
13.5912236
20
86.2171968
40
0.1060489
50
249.1032952
51
262.775154
0
ARC
8
DEFAULT_255_1_234
10
13.6000408
20
86.2800715
40
0.1695354
50
262.4913187
51
270.2611758
0
ARC
8
DEFAULT_255_1_234
10
13.5997825
20
86.3016103
40
0.191075
50
270.3091804
51
275.6625139
0
ARC
8
DEFAULT_255_1_234
10
13.585505
20
86.4517435
40
0.3418851
50
275.5610264
51
279.0879356
0
ARC
8
DEFAULT_255_1_234
10
13.5524927
20
86.6612699
40
0.5539959
50
279.0365489
51
281.5011378
0
ARC
8
DEFAULT_255_1_234
10
13.5168004
20
86.8416423
40
0.7378639
50
281.4243939
51
282.1017894
0
ARC
8
DEFAULT_255_1_234
10
13.5511251
20
86.4334858
40
0.4501761
50
275.2597045
51
285.5083879
0
ARC
8
DEFAULT_255_1_234
10
13.5572576
20
86.3778606
40
0.3942242
50
270.0268409
51
275.1132796
0
ARC
8
DEFAULT_255_1_234
10
13.5552541
20
86.2451614
40
0.261534
50
257.3573315
51
270.479383
0
ARC
8
DEFAULT_255_1_234
10
13.5339431
20
86.1553406
40
0.1692304
50
230.8037497
51
257.741658
0
ARC
8
DEFAULT_255_1_234
10
13.5271335
20
86.1443777
40
0.1564393
50
219.974146
51
230.1990686
0
ARC
8
DEFAULT_255_1_234
10
13.5603281
20
86.1697579
40
0.1981916
50
196.5084186
51
219.4318458
0
ARC
8
DEFAULT_255_1_234
10
13.6618727
20
86.2016194
40
0.3046086
50
184.6404872
51
196.8269686
0
ARC
8
DEFAULT_255_1_234
10
13.7863791
20
86.2141908
40
0.4297309
50
179.8986958
51
184.9681077
0
LINE
8
DEFAULT_255_1_234
10
14.0024005
20
86.8687341
11
14.0024005
21
85.9997
0
LINE
8
DEFAULT_255_1_234
10
14.0024005
20
85.9997
11
13.8538134
21
85.9997
0
LINE
8
DEFAULT_255_1_234
10
13.8538134
20
85.9997
11
13.8538134
21
86.8687341
0
LINE
8
DEFAULT_255_1_234
10
13.8538134
20
86.8687341
11
14.0024005
21
86.8687341
0
ARC
8
DEFAULT_255_1_234
10
13.9396282
20
87.1001889
40
0.097867
50
161.415052
51
180.5526306
0
ARC
8
DEFAULT_255_1_234
10
13.9272061
20
87.1036077
40
0.0850062
50
138.1827368
51
160.9307106
0
ARC
8
DEFAULT_255_1_234
10
13.9162006
20
87.1131588
40
0.0704362
50
104.6368899
51
138.0039868
0
ARC
8
DEFAULT_255_1_234
10
13.9269161
20
87.0764963
40
0.1086221
50
92.0600725
51
105.2189128
0
ARC
8
DEFAULT_255_1_234
10
13.9292509
20
87.0422117
40
0.1429728
50
89.9756393
51
92.5012496
0
ARC
8
DEFAULT_255_1_234
10
13.9302529
20
87.0647731
40
0.1204151
50
78.0235316
51
90.4478182
0
ARC
8
DEFAULT_255_1_234
10
13.9394621
20
87.1061295
40
0.0780493
50
55.051506
51
78.3369085
0
ARC
8
DEFAULT_255_1_234
10
13.9444895
20
87.1145711
40
0.0682538
50
42.0501187
51
54.4513741
0
ARC
8
DEFAULT_255_1_234
10
13.9309762
20
87.1021798
40
0.0865878
50
1.7497075
51
42.1496013
0
ARC
8
DEFAULT_255_1_234
10
13.9055095
20
87.0992738
40
0.1121515
50
359.9852656
51
2.8364544
0
ARC
8
DEFAULT_255_1_234
10
13.9221087
20
87.0983229
40
0.0955566
50
342.1070653
51
0.552888
0
ARC
8
DEFAULT_255_1_234
10
13.9363784
20
87.0943904
40
0.0807713
50
316.7107116
51
341.6516965
0
ARC
8
DEFAULT_255_1_234
10
13.9430822
20
87.0883823
40
0.0717724
50
285.4397031
51
316.5324284
0
ARC
8
DEFAULT_255_1_234
10
13.9320739
20
87.1249554
40
0.1099597
50
272.3547054
51
285.8953117
0
ARC
8
DEFAULT_255_1_234
10
13.9293897
20
87.1615048
40
0.1465932
50
269.9695369
51
272.8160237
0
ARC
8
DEFAULT_255_1_234
10
13.9284078
20
87.1395863
40
0.1246779
50
258.8431134
51
270.4153935
0
ARC
8
DEFAULT_255_1_234
10
13.919412
20
87.0960414
40
0.0802162
50
238.5431189
51
259.1288175
0
ARC
8
DEFAULT_255_1_234
10
13.9126005
20
87.0836856
40
0.0661247
50
222.5062634
51
237.9906969
0
ARC
8
DEFAULT_255_1_234
10
13.9253593
20
87.0952889
40
0.0833707
50
184.1069131
51
222.460413
0
ARC
8
DEFAULT_255_1_234
10
13.9522833
20
87.0991349
40
0.1105176
50
179.9429482
51
185.0960898
0
LINE
8
DEFAULT_255_1_234
10
14.3060002
20
86.8687341
11
14.526873
21
86.2012966
0
LINE
8
DEFAULT_255_1_234
10
14.526873
20
86.2012966
11
14.7421236
21
86.8687341
0
LINE
8
DEFAULT_255_1_234
10
14.7421236
20
86.8687341
11
14.8939235
21
86.8687341
0
LINE
8
DEFAULT_255_1_234
10
14.8939235
20
86.8687341
11
14.582292
21
85.9997
0
LINE
8
DEFAULT_255_1_234
10
14.582292
20
85.9997
11
14.4690445
21
85.9997
0
LINE
8
DEFAULT_255_1_234
10
14.4690445
20
85.9997
11
14.1542004
21
86.8687341
0
LINE
8
DEFAULT_255_1_234
10
14.1542004
20
86.8687341
11
14.3060002
21
86.8687341
0
LINE
8
DEFAULT_255_1_234
10
15.1983264
20
86.8687341
11
15.1983264
21
85.9997
0
LINE
8
DEFAULT_255_1_234
10
15.1983264
20
85.9997
11
15.0497392
21
85.9997
0
LINE
8
DEFAULT_255_1_234
10
15.0497392
20
85.9997
11
15.0497392
21
86.8687341
0
LINE
8
DEFAULT_255_1_234
10
15.0497392
20
86.8687341
11
15.1983264
21
86.8687341
0
ARC
8
DEFAULT_255_1_234
10
15.1355541
20
87.1001889
40
0.097867
50
161.415052
51
180.5526306
0
ARC
8
DEFAULT_255_1_234
10
15.1231319
20
87.1036077
40
0.0850062
50
138.1827368
51
160.9307106
0
ARC
8
DEFAULT_255_1_234
10
15.1121265
20
87.1131588
40
0.0704362
50
104.6368899
51
138.0039868
0
ARC
8
DEFAULT_255_1_234
10
15.1228419
20
87.0764963
40
0.1086221
50
92.0600725
51
105.2189128
0
ARC
8
DEFAULT_255_1_234
10
15.1251768
20
87.0422117
40
0.1429728
50
89.9756393
51
92.5012496
0
ARC
8
DEFAULT_255_1_234
10
15.1261787
20
87.0647731
40
0.1204151
50
78.0235316
51
90.4478182
0
ARC
8
DEFAULT_255_1_234
10
15.1353879
20
87.1061295
40
0.0780493
50
55.051506
51
78.3369085
0
ARC
8
DEFAULT_255_1_234
10
15.1404153
20
87.1145711
40
0.0682538
50
42.0501187
51
54.4513741
0
ARC
8
DEFAULT_255_1_234
10
15.126902
20
87.1021798
40
0.0865878
50
1.7497075
51
42.1496013
0
ARC
8
DEFAULT_255_1_234
10
15.1014353
20
87.0992738
40
0.1121515
50
359.9852656
51
2.8364544
0
ARC
8
DEFAULT_255_1_234
10
15.1180345
20
87.0983229
40
0.0955566
50
342.1070653
51
0.552888
0
ARC
8
DEFAULT_255_1_234
10
15.1323043
20
87.0943904
40
0.0807713
50
316.7107116
51
341.6516965
0
ARC
8
DEFAULT_255_1_234
10
15.139008
20
87.0883823
40
0.0717724
50
285.4397031
51
316.5324284
0
ARC
8
DEFAULT_255_1_234
10
15.1279997
20
87.1249554
40
0.1099597
50
272.3547054
51
285.8953117
0
ARC
8
DEFAULT_255_1_234
10
15.1253155
20
87.1615048
40
0.1465932
50
269.9695369
51
272.8160237
0
ARC
8
DEFAULT_255_1_234
10
15.1243336
20
87.1395863
40
0.1246779
50
258.8431134
51
270.4153935
0
ARC
8
DEFAULT_255_1_234
10
15.1153379
20
87.0960414
40
0.0802162
50
238.5431189
51
259.1288175
0
ARC
8
DEFAULT_255_1_234
10
15.1085264
20
87.0836856
40
0.0661247
50
222.5062634
51
237.9906969
0
ARC
8
DEFAULT_255_1_234
10
15.1212851
20
87.0952889
40
0.0833707
50
184.1069131
51
222.460413
0
ARC
8
DEFAULT_255_1_234
10
15.1482092
20
87.0991349
40
0.1105176
50
179.9429482
51
185.0960898
0
LINE
8
DEFAULT_255_1_234
10
15.4890753
20
87.0791656
11
15.6376625
21
87.0791656
0
LINE
8
DEFAULT_255_1_234
10
15.6376625
20
87.0791656
11
15.6376625
21
86.8687341
0
LINE
8
DEFAULT_255_1_234
10
15.6376625
20
86.8687341
11
15.7999036
21
86.8687341
0
LINE
8
DEFAULT_255_1_234
10
15.7999036
20
86.8687341
11
15.7999036
21
86.7538802
0
LINE
8
DEFAULT_255_1_234
10
15.7999036
20
86.7538802
11
15.6376625
21
86.7538802
0
LINE
8
DEFAULT_255_1_234
10
15.6376625
20
86.7538802
11
15.6376625
21
86.2149506
0
LINE
8
DEFAULT_255_1_234
10
15.8039194
20
86.1201761
11
15.8039194
21
85.9997
0
LINE
8
DEFAULT_255_1_234
10
15.4890753
20
86.2149506
11
15.4890753
21
86.7538802
0
LINE
8
DEFAULT_255_1_234
10
15.4890753
20
86.7538802
11
15.33085
21
86.7538802
0
LINE
8
DEFAULT_255_1_234
10
15.33085
20
86.7538802
11
15.33085
21
86.8687341
0
LINE
8
DEFAULT_255_1_234
10
15.33085
20
86.8687341
11
15.4890753
21
86.8687341
0
LINE
8
DEFAULT_255_1_234
10
15.4890753
20
86.8687341
11
15.4890753
21
87.0791656
0
ARC
8
DEFAULT_255_1_234
10
15.8384127
20
86.2139084
40
0.200753
50
179.7025659
51
187.917967
0
ARC
8
DEFAULT_255_1_234
10
15.7638153
20
86.2031724
40
0.1253883
50
187.7545981
51
200.2447476
0
ARC
8
DEFAULT_255_1_234
10
15.7217474
20
86.1874859
40
0.0804913
50
200.130383
51
219.174133
0
ARC
8
DEFAULT_255_1_234
10
15.7081651
20
86.1782515
40
0.0641445
50
220.4434483
51
249.6172
0
ARC
8
DEFAULT_255_1_234
10
15.7236501
20
86.2171968
40
0.1060489
50
249.1032952
51
262.775154
0
ARC
8
DEFAULT_255_1_234
10
15.7324673
20
86.2800715
40
0.1695354
50
262.4913187
51
270.2611758
0
ARC
8
DEFAULT_255_1_234
10
15.7322091
20
86.3016103
40
0.191075
50
270.3091804
51
275.6625139
0
ARC
8
DEFAULT_255_1_234
10
15.7179315
20
86.4517435
40
0.3418851
50
275.5610264
51
279.0879356
0
ARC
8
DEFAULT_255_1_234
10
15.6849192
20
86.6612699
40
0.5539959
50
279.0365489
51
281.5011378
0
ARC
8
DEFAULT_255_1_234
10
15.6492269
20
86.8416423
40
0.7378639
50
281.4243939
51
282.1017894
0
ARC
8
DEFAULT_255_1_234
10
15.6835516
20
86.4334858
40
0.4501761
50
275.2597045
51
285.5083879
0
ARC
8
DEFAULT_255_1_234
10
15.6896841
20
86.3778606
40
0.3942242
50
270.0268409
51
275.1132796
0
ARC
8
DEFAULT_255_1_234
10
15.6876806
20
86.2451614
40
0.261534
50
257.3573315
51
270.479383
0
ARC
8
DEFAULT_255_1_234
10
15.6663697
20
86.1553406
40
0.1692304
50
230.8037497
51
257.741658
0
ARC
8
DEFAULT_255_1_234
10
15.65956
20
86.1443777
40
0.1564393
50
219.974146
51
230.1990686
0
ARC
8
DEFAULT_255_1_234
10
15.6927546
20
86.1697579
40
0.1981916
50
196.5084186
51
219.4318458
0
ARC
8
DEFAULT_255_1_234
10
15.7942992
20
86.2016194
40
0.3046086
50
184.6404872
51
196.8269686
0
ARC
8
DEFAULT_255_1_234
10
15.9188056
20
86.2141908
40
0.4297309
50
179.8986958
51
184.9681077
0
LINE
8
DEFAULT_255_1_234
10
16.0408557
20
86.8687341
11
16.2577126
21
86.2173601
0
LINE
8
DEFAULT_255_1_234
10
16.2577126
20
86.2173601
11
16.4601125
21
86.8687341
0
LINE
8
DEFAULT_255_1_234
10
16.4601125
20
86.8687341
11
16.6191409
21
86.8687341
0
LINE
8
DEFAULT_255_1_234
10
16.6191409
20
86.8687341
11
16.2697603
21
85.86557
0
LINE
8
DEFAULT_255_1_234
10
16.0119415
20
85.648713
11
15.9838304
21
85.6511226
0
LINE
8
DEFAULT_255_1_234
10
15.9838304
20
85.6511226
11
15.9284114
21
85.6615638
0
LINE
8
DEFAULT_255_1_234
10
15.9284114
20
85.6615638
11
15.9284114
21
85.7820399
0
LINE
8
DEFAULT_255_1_234
10
15.9284114
20
85.7820399
11
15.9685701
21
85.7788272
0
LINE
8
DEFAULT_255_1_234
10
16.1557096
20
85.920989
11
16.1886397
21
86.0093381
0
LINE
8
DEFAULT_255_1_234
10
16.1886397
20
86.0093381
11
15.8786146
21
86.8687341
0
LINE
8
DEFAULT_255_1_234
10
15.8786146
20
86.8687341
11
16.0408557
21
86.8687341
0
ARC
8
DEFAULT_255_1_234
10
15.8062945
20
86.0340403
40
0.4931356
50
327.7224013
51
340.0237316
0
ARC
8
DEFAULT_255_1_234
10
15.9815161
20
85.920872
40
0.2845645
50
305.2163759
51
328.1469174
0
ARC
8
DEFAULT_255_1_234
10
16.0160212
20
85.8799893
40
0.2313123
50
268.9893887
51
304.0733175
0
ARC
8
DEFAULT_255_1_234
10
15.9700414
20
86.0823864
40
0.3035628
50
269.7222887
51
278.0404605
0
ARC
8
DEFAULT_255_1_234
10
15.9856237
20
85.9763823
40
0.1964222
50
277.8648378
51
290.8634365
0
ARC
8
DEFAULT_255_1_234
10
16.0064226
20
85.9208422
40
0.1371168
50
291.0076295
51
305.5967213
0
ARC
8
DEFAULT_255_1_234
10
16.0045417
20
85.9192702
40
0.1369553
50
306.6194038
51
324.1023288
0
ARC
8
DEFAULT_255_1_234
10
15.9298231
20
85.97472
40
0.2299972
50
323.8264381
51
334.2987676
0
ARC
8
DEFAULT_255_1_234
10
15.805434
20
86.0358087
40
0.3685747
50
334.1277399
51
340.8153554
0
ARC
8
DEFAULT_255_1_234
10
15.7078275
20
86.0717465
40
0.4725741
50
340.5889714
51
341.3967148
0
LINE
8
DEFAULT_255_1_234
10
17.2247339
20
87.1747433
11
17.2247339
21
85.9997
0
LINE
8
DEFAULT_255_1_234
10
17.2247339
20
85.9997
11
17.0753436
21
85.9997
0
LINE
8
DEFAULT_255_1_234
10
17.0753436
20
85.9997
11
17.0753436
21
86.9900133
0
LINE
8
DEFAULT_255_1_234
10
17.0753436
20
86.9900133
11
16.7757598
21
86.8799785
0
LINE
8
DEFAULT_255_1_234
10
16.7757598
20
86.8799785
11
16.7757598
21
87.0149117
0
LINE
8
DEFAULT_255_1_234
10
16.7757598
20
87.0149117
11
17.2014419
21
87.1747433
0
LINE
8
DEFAULT_255_1_234
10
17.2014419
20
87.1747433
11
17.2247339
21
87.1747433
0
LINE
8
DEFAULT_255_1_234
10
18.3933519
20
86.6912327
11
18.3933519
21
86.4984709
0
LINE
8
DEFAULT_255_1_234
10
17.6552351
20
86.4783916
11
17.6552351
21
86.6767755
0
LINE
8
DEFAULT_255_1_234
10
18.2447647
20
86.4583123
11
18.2447647
21
86.7016739
0
LINE
8
DEFAULT_255_1_234
10
17.8038223
20
86.7129184
11
17.8038223
21
86.4751789
0
ARC
8
DEFAULT_255_1_234
10
17.1686408
20
86.4935805
40
1.2247208
50
353.8441951
51
0.2287902
0
ARC
8
DEFAULT_255_1_234
10
17.6325912
20
86.4417806
40
0.7578929
50
344.4934747
51
353.9765454
0
ARC
8
DEFAULT_255_1_234
10
17.9318502
20
86.3566981
40
0.4467846
50
329.2803592
51
344.7472793
0
ARC
8
DEFAULT_255_1_234
10
18.0311327
20
86.3022018
40
0.3336173
50
324.9352394
51
328.6160465
0
ARC
8
DEFAULT_255_1_234
10
18.0688436
20
86.2758427
40
0.2876076
50
280.580143
51
324.9173126
0
ARC
8
DEFAULT_255_1_234
10
18.0287228
20
86.4429099
40
0.4592847
50
269.5977311
51
281.6734359
0
ARC
8
DEFAULT_255_1_234
10
18.0215134
20
86.4309173
40
0.4472986
50
256.6228859
51
270.51044
0
ARC
8
DEFAULT_255_1_234
10
17.9813112
20
86.2760877
40
0.2873874
50
215.8618325
51
257.2788573
0
ARC
8
DEFAULT_255_1_234
10
18.0834143
20
86.3445977
40
0.4102928
50
197.9693508
51
215.2623606
0
ARC
8
DEFAULT_255_1_234
10
18.3319259
20
86.4284709
40
0.6725652
50
187.8816417
51
198.2346507
0
ARC
8
DEFAULT_255_1_234
10
18.7277467
20
86.4856079
40
1.0724845
50
180.8976217
51
188.0055519
0
ARC
8
DEFAULT_255_1_234
10
19.0077655
20
86.4959777
40
1.3526448
50
180.7449369
51
181.1510016
0
ARC
8
DEFAULT_255_1_234
10
18.8500384
20
86.6816042
40
1.1948131
50
173.7675579
51
180.231553
0
ARC
8
DEFAULT_255_1_234
10
18.3982531
20
86.7326666
40
0.7401564
50
164.3058563
51
173.9002247
0
ARC
8
DEFAULT_255_1_234
10
18.10706
20
86.8165656
40
0.4371288
50
148.7922025
51
164.568378
0
ARC
8
DEFAULT_255_1_234
10
18.0119052
20
86.8696929
40
0.3282386
50
144.5883898
51
148.1176286
0
ARC
8
DEFAULT_255_1_234
10
17.977595
20
86.8936315
40
0.2864044
50
101.6440918
51
144.514236
0
ARC
8
DEFAULT_255_1_234
10
18.0201017
20
86.7247069
40
0.4604934
50
89.5284041
51
102.5819763
0
ARC
8
DEFAULT_255_1_234
10
18.0280104
20
86.7208018
40
0.464401
50
77.0437873
51
90.5081339
0
ARC
8
DEFAULT_255_1_234
10
18.0682106
20
86.8850615
40
0.2953195
50
48.2778575
51
77.4994676
0
ARC
8
DEFAULT_255_1_234
10
18.0754737
20
86.8979746
40
0.2808655
50
36.3142134
51
47.6305865
0
ARC
8
DEFAULT_255_1_234
10
17.9886044
20
86.8394515
40
0.3855453
50
18.2931786
51
35.6769206
0
ARC
8
DEFAULT_255_1_234
10
17.7342803
20
86.7521593
40
0.654423
50
8.024666
51
18.5605216
0
ARC
8
DEFAULT_255_1_234
10
17.3179723
20
86.6906792
40
1.0752407
50
1.1274072
51
8.1718305
0
ARC
8
DEFAULT_255_1_234
10
16.9943914
20
86.6779885
40
1.3990231
50
0.5424119
51
1.3863029
0
ARC
8
DEFAULT_255_1_234
10
17.1765292
20
86.7052342
40
1.0682415
50
359.8090433
51
4.9407866
0
ARC
8
DEFAULT_255_1_234
10
17.5975306
20
86.7428113
40
0.6455691
50
4.8362157
51
12.2904523
0
ARC
8
DEFAULT_255_1_234
10
17.873042
20
86.8041965
40
0.3633074
50
12.0805627
51
23.8173984
0
ARC
8
DEFAULT_255_1_234
10
17.9904126
20
86.8538919
40
0.2358723
50
24.2871213
51
31.3935614
0
ARC
8
DEFAULT_255_1_234
10
18.0428823
20
86.8882233
40
0.1732111
50
30.7407893
51
82.4657128
0
ARC
8
DEFAULT_255_1_234
10
18.0248957
20
86.7998691
40
0.263235
50
81.1060089
51
90.2184952
0
ARC
8
DEFAULT_255_1_234
10
18.0213256
20
86.8256924
40
0.2374236
50
89.3806855
51
105.6762551
0
ARC
8
DEFAULT_255_1_234
10
18.0029887
20
86.8923567
40
0.1682847
50
105.7981136
51
149.7388061
0
ARC
8
DEFAULT_255_1_234
10
18.1093965
20
86.828395
40
0.2924306
50
149.4208916
51
163.6286378
0
ARC
8
DEFAULT_255_1_234
10
18.3184853
20
86.764625
40
0.5110213
50
163.3763315
51
172.1410975
0
ARC
8
DEFAULT_255_1_234
10
18.6485572
20
86.7173518
40
0.8444586
50
172.0259487
51
178.0703232
0
ARC
8
DEFAULT_255_1_234
10
18.9515662
20
86.7029906
40
1.1477868
50
177.8631668
51
179.5044149
0
ARC
8
DEFAULT_255_1_234
10
18.8443066
20
86.4715389
40
1.0404907
50
179.7995573
51
185.2460446
0
ARC
8
DEFAULT_255_1_234
10
18.4400105
20
86.4332513
40
0.6343885
50
185.1411642
51
193.0079639
0
ARC
8
DEFAULT_255_1_234
10
18.1756578
20
86.3707641
40
0.3627568
50
192.7897626
51
205.2507664
0
ARC
8
DEFAULT_255_1_234
10
18.0710125
20
86.3240415
40
0.2481908
50
205.8005384
51
211.2537509
0
ARC
8
DEFAULT_255_1_234
10
18.0186565
20
86.288958
40
0.1852521
50
210.3789793
51
238.4008143
0
ARC
8
DEFAULT_255_1_234
10
18.0167087
20
86.2936376
40
0.1882621
50
239.6520629
51
265.9793761
0
ARC
8
DEFAULT_255_1_234
10
18.0252288
20
86.3608427
40
0.2559272
50
265.1315437
51
270.060332
0
ARC
8
DEFAULT_255_1_234
10
18.0281066
20
86.3284534
40
0.2235528
50
269.3314664
51
287.2178029
0
ARC
8
DEFAULT_255_1_234
10
18.0418918
20
86.2781279
40
0.1714108
50
287.7958004
51
329.080874
0
ARC
8
DEFAULT_255_1_234
10
17.9461375
20
86.337893
40
0.2842745
50
328.6634704
51
343.3325132
0
ARC
8
DEFAULT_255_1_234
10
17.7288395
20
86.4055863
40
0.5118644
50
343.0499468
51
351.9393422
0
ARC
8
DEFAULT_255_1_234
10
17.3821695
20
86.4566949
40
0.8622784
50
351.8069023
51
357.7959224
0
ARC
8
DEFAULT_255_1_234
10
17.0586251
20
86.4734721
40
1.1862365
50
357.5871873
51
359.2677531
0
LINE
8
DEFAULT_255_1_234
10
19.3170018
20
86.6912327
11
19.3170018
21
86.4984709
0
LINE
8
DEFAULT_255_1_234
10
18.578885
20
86.4783916
11
18.578885
21
86.6767755
0
LINE
8
DEFAULT_255_1_234
10
19.1684146
20
86.4583123
11
19.1684146
21
86.7016739
0
LINE
8
DEFAULT_255_1_234
10
18.7274722
20
86.7129184
11
18.7274722
21
86.4751789
0
ARC
8
DEFAULT_255_1_234
10
18.0922907
20
86.4935805
40
1.2247208
50
353.8441951
51
0.2287902
0
ARC
8
DEFAULT_255_1_234
10
18.5562411
20
86.4417806
40
0.7578929
50
344.4934747
51
353.9765454
0
ARC
8
DEFAULT_255_1_234
10
18.8555001
20
86.3566981
40
0.4467846
50
329.2803592
51
344.7472793
0
ARC
8
DEFAULT_255_1_234
10
18.9547826
20
86.3022018
40
0.3336173
50
324.9352394
51
328.6160465
0
ARC
8
DEFAULT_255_1_234
10
18.9924935
20
86.2758427
40
0.2876076
50
280.580143
51
324.9173126
0
ARC
8
DEFAULT_255_1_234
10
18.9523727
20
86.4429099
40
0.4592847
50
269.5977311
51
281.6734359
0
ARC
8
DEFAULT_255_1_234
10
18.9451633
20
86.4309173
40
0.4472986
50
256.6228859
51
270.51044
0
ARC
8
DEFAULT_255_1_234
10
18.9049611
20
86.2760877
40
0.2873874
50
215.8618325
51
257.2788573
0
ARC
8
DEFAULT_255_1_234
10
19.0070642
20
86.3445977
40
0.4102928
50
197.9693508
51
215.2623606
0
ARC
8
DEFAULT_255_1_234
10
19.2555758
20
86.4284709
40
0.6725652
50
187.8816417
51
198.2346507
0
ARC
8
DEFAULT_255_1_234
10
19.6513966
20
86.4856079
40
1.0724845
50
180.8976217
51
188.0055519
0
ARC
8
DEFAULT_255_1_234
10
19.9314154
20
86.4959777
40
1.3526448
50
180.7449369
51
181.1510016
0
ARC
8
DEFAULT_255_1_234
10
19.7736883
20
86.6816042
40
1.1948131
50
173.7675579
51
180.231553
0
ARC
8
DEFAULT_255_1_234
10
19.321903
20
86.7326666
40
0.7401564
50
164.3058563
51
173.9002247
0
ARC
8
DEFAULT_255_1_234
10
19.0307099
20
86.8165656
40
0.4371288
50
148.7922025
51
164.568378
0
ARC
8
DEFAULT_255_1_234
10
18.9355551
20
86.8696929
40
0.3282386
50
144.5883898
51
148.1176286
0
ARC
8
DEFAULT_255_1_234
10
18.9012449
20
86.8936315
40
0.2864044
50
101.6440918
51
144.514236
0
ARC
8
DEFAULT_255_1_234
10
18.9437516
20
86.7247069
40
0.4604934
50
89.5284041
51
102.5819763
0
ARC
8
DEFAULT_255_1_234
10
18.9516603
20
86.7208018
40
0.464401
50
77.0437873
51
90.5081339
0
ARC
8
DEFAULT_255_1_234
10
18.9918605
20
86.8850615
40
0.2953195
50
48.2778575
51
77.4994676
0
ARC
8
DEFAULT_255_1_234
10
18.9991236
20
86.8979746
40
0.2808655
50
36.3142134
51
47.6305865
0
ARC
8
DEFAULT_255_1_234
10
18.9122543
20
86.8394515
40
0.3855453
50
18.2931786
51
35.6769206
0
ARC
8
DEFAULT_255_1_234
10
18.6579302
20
86.7521593
40
0.654423
50
8.024666
51
18.5605216
0
ARC
8
DEFAULT_255_1_234
10
18.2416222
20
86.6906792
40
1.0752407
50
1.1274072
51
8.1718305
0
ARC
8
DEFAULT_255_1_234
10
17.9180413
20
86.6779885
40
1.3990231
50
0.5424119
51
1.3863029
0
ARC
8
DEFAULT_255_1_234
10
18.1001791
20
86.7052342
40
1.0682415
50
359.8090433
51
4.9407866
0
ARC
8
DEFAULT_255_1_234
10
18.5211805
20
86.7428113
40
0.6455691
50
4.8362157
51
12.2904523
0
ARC
8
DEFAULT_255_1_234
10
18.796692
20
86.8041965
40
0.3633074
50
12.0805627
51
23.8173984
0
ARC
8
DEFAULT_255_1_234
10
18.9140625
20
86.8538919
40
0.2358723
50
24.2871213
51
31.3935614
0
ARC
8
DEFAULT_255_1_234
10
18.9665322
20
86.8882233
40
0.1732111
50
30.7407893
51
82.4657128
0
ARC
8
DEFAULT_255_1_234
10
18.9485456
20
86.7998691
40
0.263235
50
81.1060089
51
90.2184952
0
ARC
8
DEFAULT_255_1_234
10
18.9449755
20
86.8256924
40
0.2374236
50
89.3806855
51
105.6762551
0
ARC
8
DEFAULT_255_1_234
10
18.9266386
20
86.8923567
40
0.1682847
50
105.7981136
51
149.7388061
0
ARC
8
DEFAULT_255_1_234
10
19.0330464
20
86.828395
40
0.2924306
50
149.4208916
51
163.6286378
0
ARC
8
DEFAULT_255_1_234
10
19.2421352
20
86.764625
40
0.5110213
50
163.3763315
51
172.1410975
0
ARC
8
DEFAULT_255_1_234
10
19.5722071
20
86.7173518
40
0.8444586
50
172.0259487
51
178.0703232
0
ARC
8
DEFAULT_255_1_234
10
19.8752161
20
86.7029906
40
1.1477868
50
177.8631668
51
179.5044149
0
ARC
8
DEFAULT_255_1_234
10
19.7679565
20
86.4715389
40
1.0404907
50
179.7995573
51
185.2460446
0
ARC
8
DEFAULT_255_1_234
10
19.3636604
20
86.4332513
40
0.6343885
50
185.1411642
51
193.0079639
0
ARC
8
DEFAULT_255_1_234
10
19.0993077
20
86.3707641
40
0.3627568
50
192.7897626
51
205.2507664
0
ARC
8
DEFAULT_255_1_234
10
18.9946624
20
86.3240415
40
0.2481908
50
205.8005384
51
211.2537509
0
ARC
8
DEFAULT_255_1_234
10
18.9423064
20
86.288958
40
0.1852521
50
210.3789793
51
238.4008143
0
ARC
8
DEFAULT_255_1_234
10
18.9403586
20
86.2936376
40
0.1882621
50
239.6520629
51
265.9793761
0
ARC
8
DEFAULT_255_1_234
10
18.9488787
20
86.3608427
40
0.2559272
50
265.1315437
51
270.060332
0
ARC
8
DEFAULT_255_1_234
10
18.9517565
20
86.3284534
40
0.2235528
50
269.3314664
51
287.2178029
0
ARC
8
DEFAULT_255_1_234
10
18.9655417
20
86.2781279
40
0.1714108
50
287.7958004
51
329.080874
0
ARC
8
DEFAULT_255_1_234
10
18.8697874
20
86.337893
40
0.2842745
50
328.6634704
51
343.3325132
0
ARC
8
DEFAULT_255_1_234
10
18.6524894
20
86.4055863
40
0.5118644
50
343.0499468
51
351.9393422
0
ARC
8
DEFAULT_255_1_234
10
18.3058194
20
86.4566949
40
0.8622784
50
351.8069023
51
357.7959224
0
ARC
8
DEFAULT_255_1_234
10
17.982275
20
86.4734721
40
1.1862365
50
357.5871873
51
359.2677531
0
LINE
8
DEFAULT_255_1_234
10
20.2406517
20
86.6912327
11
20.2406517
21
86.4984709
0
LINE
8
DEFAULT_255_1_234
10
19.5025349
20
86.4783916
11
19.5025349
21
86.6767755
0
LINE
8
DEFAULT_255_1_234
10
20.0920645
20
86.4583123
11
20.0920645
21
86.7016739
0
LINE
8
DEFAULT_255_1_234
10
19.6511221
20
86.7129184
11
19.6511221
21
86.4751789
0
ARC
8
DEFAULT_255_1_234
10
19.0159406
20
86.4935805
40
1.2247208
50
353.8441951
51
0.2287902
0
ARC
8
DEFAULT_255_1_234
10
19.479891
20
86.4417806
40
0.7578929
50
344.4934747
51
353.9765454
0
ARC
8
DEFAULT_255_1_234
10
19.77915
20
86.3566981
40
0.4467846
50
329.2803592
51
344.7472793
0
ARC
8
DEFAULT_255_1_234
10
19.8784325
20
86.3022018
40
0.3336173
50
324.9352394
51
328.6160465
0
ARC
8
DEFAULT_255_1_234
10
19.9161434
20
86.2758427
40
0.2876076
50
280.580143
51
324.9173126
0
ARC
8
DEFAULT_255_1_234
10
19.8760226
20
86.4429099
40
0.4592847
50
269.5977311
51
281.6734359
0
ARC
8
DEFAULT_255_1_234
10
19.8688132
20
86.4309173
40
0.4472986
50
256.6228859
51
270.51044
0
ARC
8
DEFAULT_255_1_234
10
19.828611
20
86.2760877
40
0.2873874
50
215.8618325
51
257.2788573
0
ARC
8
DEFAULT_255_1_234
10
19.9307141
20
86.3445977
40
0.4102928
50
197.9693508
51
215.2623606
0
ARC
8
DEFAULT_255_1_234
10
20.1792257
20
86.4284709
40
0.6725652
50
187.8816417
51
198.2346507
0
ARC
8
DEFAULT_255_1_234
10
20.5750465
20
86.4856079
40
1.0724845
50
180.8976217
51
188.0055519
0
ARC
8
DEFAULT_255_1_234
10
20.8550653
20
86.4959777
40
1.3526448
50
180.7449369
51
181.1510016
0
ARC
8
DEFAULT_255_1_234
10
20.6973382
20
86.6816042
40
1.1948131
50
173.7675579
51
180.231553
0
ARC
8
DEFAULT_255_1_234
10
20.2455529
20
86.7326666
40
0.7401564
50
164.3058563
51
173.9002247
0
ARC
8
DEFAULT_255_1_234
10
19.9543598
20
86.8165656
40
0.4371288
50
148.7922025
51
164.568378
0
ARC
8
DEFAULT_255_1_234
10
19.859205
20
86.8696929
40
0.3282386
50
144.5883898
51
148.1176286
0
ARC
8
DEFAULT_255_1_234
10
19.8248948
20
86.8936315
40
0.2864044
50
101.6440918
51
144.514236
0
ARC
8
DEFAULT_255_1_234
10
19.8674015
20
86.7247069
40
0.4604934
50
89.5284041
51
102.5819763
0
ARC
8
DEFAULT_255_1_234
10
19.8753102
20
86.7208018
40
0.464401
50
77.0437873
51
90.5081339
0
ARC
8
DEFAULT_255_1_234
10
19.9155104
20
86.8850615
40
0.2953195
50
48.2778575
51
77.4994676
0
ARC
8
DEFAULT_255_1_234
10
19.9227735
20
86.8979746
40
0.2808655
50
36.3142134
51
47.6305865
0
ARC
8
DEFAULT_255_1_234
10
19.8359042
20
86.8394515
40
0.3855453
50
18.2931786
51
35.6769206
0
ARC
8
DEFAULT_255_1_234
10
19.5815801
20
86.7521593
40
0.654423
50
8.024666
51
18.5605216
0
ARC
8
DEFAULT_255_1_234
10
19.1652721
20
86.6906792
40
1.0752407
50
1.1274072
51
8.1718305
0
ARC
8
DEFAULT_255_1_234
10
18.8416912
20
86.6779885
40
1.3990231
50
0.5424119
51
1.3863029
0
ARC
8
DEFAULT_255_1_234
10
19.023829
20
86.7052342
40
1.0682415
50
359.8090433
51
4.9407866
0
ARC
8
DEFAULT_255_1_234
10
19.4448304
20
86.7428113
40
0.6455691
50
4.8362157
51
12.2904523
0
ARC
8
DEFAULT_255_1_234
10
19.7203419
20
86.8041965
40
0.3633074
50
12.0805627
51
23.8173984
0
ARC
8
DEFAULT_255_1_234
10
19.8377124
20
86.8538919
40
0.2358723
50
24.2871213
51
31.3935614
0
ARC
8
DEFAULT_255_1_234
10
19.8901821
20
86.8882233
40
0.1732111
50
30.7407893
51
82.4657128
0
ARC
8
DEFAULT_255_1_234
10
19.8721955
20
86.7998691
40
0.263235
50
81.1060089
51
90.2184952
0
ARC
8
DEFAULT_255_1_234
10
19.8686254
20
86.8256924
40
0.2374236
50
89.3806855
51
105.6762551
0
ARC
8
DEFAULT_255_1_234
10
19.8502885
20
86.8923567
40
0.1682847
50
105.7981136
51
149.7388061
0
ARC
8
DEFAULT_255_1_234
10
19.9566963
20
86.828395
40
0.2924306
50
149.4208916
51
163.6286378
0
ARC
8
DEFAULT_255_1_234
10
20.1657851
20
86.764625
40
0.5110213
50
163.3763315
51
172.1410975
0
ARC
8
DEFAULT_255_1_234
10
20.495857
20
86.7173518
40
0.8444586
50
172.0259487
51
178.0703232
0
ARC
8
DEFAULT_255_1_234
10
20.798866
20
86.7029906
40
1.1477868
50
177.8631668
51
179.5044149
0
ARC
8
DEFAULT_255_1_234
10
20.6916064
20
86.4715389
40
1.0404907
50
179.7995573
51
185.2460446
0
ARC
8
DEFAULT_255_1_234
10
20.2873104
20
86.4332513
40
0.6343885
50
185.1411642
51
193.0079639
0
ARC
8
DEFAULT_255_1_234
10
20.0229576
20
86.3707641
40
0.3627568
50
192.7897626
51
205.2507664
0
ARC
8
DEFAULT_255_1_234
10
19.9183123
20
86.3240415
40
0.2481908
50
205.8005384
51
211.2537509
0
ARC
8
DEFAULT_255_1_234
10
19.8659564
20
86.288958
40
0.1852521
50
210.3789793
51
238.4008143
0
ARC
8
DEFAULT_255_1_234
10
19.8640085
20
86.2936376
40
0.1882621
50
239.6520629
51
265.9793761
0
ARC
8
DEFAULT_255_1_234
10
19.8725286
20
86.3608427
40
0.2559272
50
265.1315437
51
270.060332
0
ARC
8
DEFAULT_255_1_234
10
19.8754064
20
86.3284534
40
0.2235528
50
269.3314664
51
287.2178029
0
ARC
8
DEFAULT_255_1_234
10
19.8891916
20
86.2781279
40
0.1714108
50
287.7958004
51
329.080874
0
ARC
8
DEFAULT_255_1_234
10
19.7934373
20
86.337893
40
0.2842745
50
328.6634704
51
343.3325132
0
ARC
8
DEFAULT_255_1_234
10
19.5761393
20
86.4055863
40
0.5118644
50
343.0499468
51
351.9393422
0
ARC
8
DEFAULT_255_1_234
10
19.2294693
20
86.4566949
40
0.8622784
50
351.8069023
51
357.7959224
0
ARC
8
DEFAULT_255_1_234
10
18.9059249
20
86.4734721
40
1.1862365
50
357.5871873
51
359.2677531
0
LINE
8
DEFAULT_255_2_778
10
19.9765417
20
76.5968579
11
18.6536417
21
76.5968579
0
LINE
8
DEFAULT_255_2_778
10
18.6536417
20
76.5968579
11
18.6536417
21
43.5239579
0
LINE
8
DEFAULT_255_2_778
10
17.3307834
20
43.5239333
11
19.9765834
21
43.5239333
0
LINE
8
DEFAULT_255_2_778
10
19.9765834
20
43.5239333
11
19.9765834
21
38.2322333
0
LINE
8
DEFAULT_255_2_778
10
19.9765834
20
38.2322333
11
17.3307834
21
38.2322333
0
LINE
8
DEFAULT_255_2_778
10
17.3307834
20
38.2322333
11
17.3307834
21
43.5239333
0
ARC
8
DEFAULT_255_2_778_1
10
21.1303591
20
38.334677
40
4.816461
50
120.9442904
51
122.351755
0
ARC
8
DEFAULT_255_2_778_1
10
20.6837523
20
39.0383039
40
3.9830657
50
122.3407904
51
124.1946752
0
ARC
8
DEFAULT_255_2_778_1
10
20.2438464
20
39.6848306
40
3.2010724
50
124.1855758
51
126.4338849
0
ARC
8
DEFAULT_255_2_778_1
10
19.8579129
20
40.2075611
40
2.5513094
50
126.4326926
51
128.8877368
0
ARC
8
DEFAULT_255_2_778_1
10
19.5230968
20
40.6219658
40
2.0185498
50
128.8749205
51
131.8726567
0
ARC
8
DEFAULT_255_2_778_1
10
19.2259677
20
40.9529854
40
1.5737356
50
131.8616166
51
135.4168838
0
ARC
8
DEFAULT_255_2_778_1
10
18.963168
20
41.2111765
40
1.2053256
50
135.3893975
51
139.9687014
0
ARC
8
DEFAULT_255_2_778_1
10
18.7302889
20
41.4060102
40
0.9016937
50
139.9301659
51
145.9260426
0
ARC
8
DEFAULT_255_2_778_1
10
18.534154
20
41.5380104
40
0.6652776
50
145.8787362
51
153.8146208
0
ARC
8
DEFAULT_255_2_778_1
10
18.3820553
20
41.6123797
40
0.4959714
50
153.770634
51
164.3484794
0
ARC
8
DEFAULT_255_2_778_1
10
18.2807387
20
41.6405786
40
0.3908039
50
164.3220276
51
179.8083066
0
ARC
8
DEFAULT_255_2_778_1
10
18.3017789
20
41.648715
40
0.4118985
50
180.9499449
51
213.8111542
0
ARC
8
DEFAULT_255_2_778_1
10
18.5776828
20
41.8182896
40
0.73561
50
212.8271214
51
224.258472
0
ARC
8
DEFAULT_255_2_778_1
10
18.9605335
20
42.1876236
40
1.267567
50
224.1376218
51
231.4508261
0
ARC
8
DEFAULT_255_2_778_1
10
19.6032195
20
42.9906168
40
2.2960809
50
231.3955893
51
236.1256478
0
ARC
8
DEFAULT_255_2_778_1
10
21.4355223
20
45.7371293
40
5.5976905
50
236.2233172
51
239.1314682
0
ARC
8
DEFAULT_255_2_778_1
10
33.385427
20
65.4648568
40
28.6623793
50
238.8606853
51
239.0711101
0
ARC
8
DEFAULT_255_2_778_1
10
14.2132281
20
33.3677653
40
8.7248518
50
57.2420924
51
59.4062964
0
ARC
8
DEFAULT_255_2_778_1
10
17.4409241
20
38.3987102
40
2.747542
50
52.8289294
51
57.079028
0
ARC
8
DEFAULT_255_2_778_1
10
18.2155783
20
39.4190488
40
1.466457
50
46.3041868
51
52.8596521
0
ARC
8
DEFAULT_255_2_778_1
10
18.6478073
20
39.8691842
40
0.8424061
50
36.2174211
51
46.4090895
0
ARC
8
DEFAULT_255_2_778_1
10
18.9323088
20
40.0740128
40
0.4918609
50
17.400375
51
36.5489745
0
ARC
8
DEFAULT_255_2_778_1
10
19.0463994
20
40.1138754
40
0.3710912
50
0.0676858
51
16.7951297
0
ARC
8
DEFAULT_255_2_778_1
10
19.0253613
20
40.1157428
40
0.3921317
50
343.8035191
51
359.7912046
0
ARC
8
DEFAULT_255_2_778_1
10
18.9190912
20
40.1462167
40
0.5026844
50
333.2506233
51
343.8465691
0
ARC
8
DEFAULT_255_2_778_1
10
18.7652757
20
40.2229313
40
0.6745679
50
325.6600948
51
333.3122657
0
ARC
8
DEFAULT_255_2_778_1
10
18.5698344
20
40.3557296
40
0.9108568
50
319.7560915
51
325.6976089
0
ARC
8
DEFAULT_255_2_778_1
10
18.341699
20
40.5475002
40
1.2088854
50
315.4577584
51
319.8037947
0
ARC
8
DEFAULT_255_2_778_1
10
18.0783127
20
40.8063507
40
1.5781764
50
311.7298824
51
315.4670864
0
ARC
8
DEFAULT_255_2_778_1
10
17.7692879
20
41.1519074
40
2.0417554
50
308.723055
51
311.7470879
0
ARC
8
DEFAULT_255_2_778_1
10
17.415089
20
41.5931492
40
2.6075745
50
306.1165163
51
308.7300151
0
ARC
8
DEFAULT_255_2_778_1
10
17.0121091
20
42.1444523
40
3.2904564
50
303.9559446
51
306.1266333
0
ARC
8
DEFAULT_255_2_778_1
10
16.6005432
20
42.753715
40
4.0257023
50
302.3733397
51
303.9712246
0
ARC
8
DEFAULT_255_2_778_1
10
16.1809347
20
43.4152058
40
4.8090549
50
300.9434827
51
302.3758078
0
LINE
8
DEFAULT_255_2_778
10
18.6536417
20
38.2322579
11
18.6536417
21
5.1593579
0
LINE
8
DEFAULT_255_2_778
10
18.6536417
20
5.1593579
11
19.9765417
21
5.1593579
0
LINE
8
DEFAULT_255_1_234
10
4.2446489
20
85.1848211
11
4.2446489
21
84.1414983
0
LINE
8
DEFAULT_255_1_234
10
4.2446489
20
84.1414983
11
4.7988389
21
84.1414983
0
LINE
8
DEFAULT_255_1_234
10
4.7988389
20
84.1414983
11
4.7988389
21
84.0154
0
LINE
8
DEFAULT_255_1_234
10
4.7988389
20
84.0154
11
4.0896364
21
84.0154
0
LINE
8
DEFAULT_255_1_234
10
4.0896364
20
84.0154
11
4.0896364
21
85.1848211
0
LINE
8
DEFAULT_255_1_234
10
4.0896364
20
85.1848211
11
4.2446489
21
85.1848211
0
LINE
8
DEFAULT_255_1_234
10
5.377124
20
84.9840276
11
5.377124
21
84.6426788
0
LINE
8
DEFAULT_255_1_234
10
5.377124
20
84.6426788
11
5.7032126
21
84.6426788
0
LINE
8
DEFAULT_255_1_234
10
5.7032126
20
84.6426788
11
5.7032126
21
84.5021233
0
LINE
8
DEFAULT_255_1_234
10
5.7032126
20
84.5021233
11
5.377124
21
84.5021233
0
LINE
8
DEFAULT_255_1_234
10
5.377124
20
84.5021233
11
5.377124
21
84.1326634
0
LINE
8
DEFAULT_255_1_234
10
5.377124
20
84.1326634
11
5.2277337
21
84.1326634
0
LINE
8
DEFAULT_255_1_234
10
5.2277337
20
84.1326634
11
5.2277337
21
84.5021233
0
LINE
8
DEFAULT_255_1_234
10
5.2277337
20
84.5021233
11
4.9016451
21
84.5021233
0
LINE
8
DEFAULT_255_1_234
10
4.9016451
20
84.5021233
11
4.9016451
21
84.6426788
0
LINE
8
DEFAULT_255_1_234
10
4.9016451
20
84.6426788
11
5.2277337
21
84.6426788
0
LINE
8
DEFAULT_255_1_234
10
5.2277337
20
84.6426788
11
5.2277337
21
84.9840276
0
LINE
8
DEFAULT_255_1_234
10
5.2277337
20
84.9840276
11
5.377124
21
84.9840276
0
LINE
8
DEFAULT_255_1_234
10
24.2614879
20
85.1848211
11
24.2614879
21
84.0154
0
LINE
8
DEFAULT_255_1_234
10
24.2614879
20
84.0154
11
24.1064753
21
84.0154
0
LINE
8
DEFAULT_255_1_234
10
24.1064753
20
84.0154
11
23.5177489
21
84.916561
0
LINE
8
DEFAULT_255_1_234
10
23.5177489
20
84.916561
11
23.5177489
21
84.0154
0
LINE
8
DEFAULT_255_1_234
10
23.5177489
20
84.0154
11
23.3627364
21
84.0154
0
LINE
8
DEFAULT_255_1_234
10
23.3627364
20
84.0154
11
23.3627364
21
85.1848211
0
LINE
8
DEFAULT_255_1_234
10
23.3627364
20
85.1848211
11
23.5177489
21
85.1848211
0
LINE
8
DEFAULT_255_1_234
10
23.5177489
20
85.1848211
11
24.1080817
21
84.2796442
0
LINE
8
DEFAULT_255_1_234
10
24.1080817
20
84.2796442
11
24.1080817
21
85.1848211
0
LINE
8
DEFAULT_255_1_234
10
24.1080817
20
85.1848211
11
24.2614879
21
85.1848211
0
ARC
8
DEFAULT_255_1_234
10
24.0075624
20
5.5020703
40
0.2822356
50
338.8763615
51
0.5166041
0
ARC
8
DEFAULT_255_1_234
10
24.0244278
20
5.4975208
40
0.2648703
50
325.8412414
51
338.4795939
0
ARC
8
DEFAULT_255_1_234
10
23.9853646
20
5.5246042
40
0.3124019
50
296.7586019
51
325.753654
0
ARC
8
DEFAULT_255_1_234
10
23.9565754
20
5.5730789
40
0.368668
50
296.0902311
51
297.3618122
0
ARC
8
DEFAULT_255_1_234
10
23.9823212
20
4.9176041
40
0.3518806
50
47.9009248
51
67.1946869
0
ARC
8
DEFAULT_255_1_234
10
24.0019454
20
4.9422395
40
0.320451
50
35.236241
51
47.551371
0
ARC
8
DEFAULT_255_1_234
10
24.0281072
20
4.9596993
40
0.2890103
50
359.2759738
51
35.4014081
0
ARC
8
DEFAULT_255_1_234
10
23.9536103
20
4.9523826
40
0.3635026
50
343.1294516
51
0.5776525
0
ARC
8
DEFAULT_255_1_234
10
24.0260648
20
4.932433
40
0.2883832
50
310.8497458
51
342.744803
0
ARC
8
DEFAULT_255_1_234
10
23.9842761
20
4.9801294
40
0.3517954
50
281.5473923
51
310.9169905
0
ARC
8
DEFAULT_255_1_234
10
23.948621
20
5.1354084
40
0.5110832
50
269.6192722
51
281.9789957
0
ARC
8
DEFAULT_255_1_234
10
23.9414
20
5.1354828
40
0.5111606
50
257.4584469
51
270.4287458
0
ARC
8
DEFAULT_255_1_234
10
23.9033143
20
4.9751344
40
0.3463762
50
228.7553743
51
257.8484423
0
ARC
8
DEFAULT_255_1_234
10
23.8723341
20
4.9378442
40
0.297916
50
184.0104442
51
228.5071787
0
ARC
8
DEFAULT_255_1_234
10
23.9886285
20
4.9555512
40
0.4152734
50
179.9315461
51
185.3254504
0
ARC
8
DEFAULT_255_1_234
10
23.8709931
20
4.9592992
40
0.2976554
50
145.6795913
51
180.6259649
0
ARC
8
DEFAULT_255_1_234
10
23.887328
20
4.9478929
40
0.3175776
50
115.5537925
51
145.6416199
0
ARC
8
DEFAULT_255_1_234
10
23.921421
20
4.8868028
40
0.3874232
50
113.2437915
51
116.2054627
0
ARC
8
DEFAULT_255_1_234
10
23.9061423
20
5.526658
40
0.3154751
50
222.9548379
51
244.1372485
0
ARC
8
DEFAULT_255_1_234
10
23.8939498
20
5.5129834
40
0.2972382
50
213.3439227
51
222.6271327
0
ARC
8
DEFAULT_255_1_234
10
23.8747433
20
5.4999308
40
0.274019
50
180.4316517
51
213.2713999
0
ARC
8
DEFAULT_255_1_234
10
23.9322434
20
5.504611
40
0.33158
50
179.9992944
51
181.1655061
0
ARC
8
DEFAULT_255_1_234
10
23.9731851
20
5.5080561
40
0.3725376
50
164.6186108
51
180.5292368
0
ARC
8
DEFAULT_255_1_234
10
23.8833714
20
5.5322101
40
0.2795349
50
132.2454369
51
164.5092287
0
ARC
8
DEFAULT_255_1_234
10
23.9120818
20
5.4997028
40
0.3229019
50
100.7052766
51
132.1387266
0
ARC
8
DEFAULT_255_1_234
10
23.942579
20
5.3619086
40
0.4639835
50
89.6732617
51
101.2449487
0
ARC
8
DEFAULT_255_1_234
10
23.9487988
20
5.379399
40
0.4464999
50
76.2876631
51
90.4586123
0
ARC
8
DEFAULT_255_1_234
10
23.979422
20
5.501622
40
0.3205023
50
47.8240157
51
76.4266918
0
ARC
8
DEFAULT_255_1_234
10
24.001677
20
5.527659
40
0.2862661
50
6.9168658
51
47.6261438
0
ARC
8
DEFAULT_255_1_234
10
23.8830173
20
5.505737
40
0.4067708
50
359.8419705
51
7.9694496
0
ARC
8
DEFAULT_255_1_234
10
23.917207
20
4.9616925
40
0.2513121
50
359.4454068
51
16.9256425
0
ARC
8
DEFAULT_255_1_234
10
23.9640881
20
4.9746033
40
0.2027071
50
17.292259
51
45.462717
0
ARC
8
DEFAULT_255_1_234
10
23.9586817
20
4.9699434
40
0.2098212
50
45.3028762
51
83.1921472
0
ARC
8
DEFAULT_255_1_234
10
23.9443501
20
4.8897895
40
0.2911472
50
82.2614531
51
90.143954
0
ARC
8
DEFAULT_255_1_234
10
23.9412621
20
4.913095
40
0.2678513
50
89.4959189
51
104.8579811
0
ARC
8
DEFAULT_255_1_234
10
23.923588
20
4.980089
40
0.1985654
50
104.8855873
51
135.2448349
0
ARC
8
DEFAULT_255_1_234
10
23.9285653
20
4.9756336
40
0.2052373
50
135.3398955
51
172.104394
0
ARC
8
DEFAULT_255_1_234
10
24.0092711
20
4.9601925
40
0.2873299
50
171.2651929
51
180.1859362
0
ARC
8
DEFAULT_255_1_234
10
23.9923412
20
4.9569733
40
0.2704083
50
179.515471
51
193.6466734
0
ARC
8
DEFAULT_255_1_234
10
23.9107181
20
4.9361777
40
0.1861855
50
193.3540587
51
225.8256931
0
ARC
8
DEFAULT_255_1_234
10
23.9147938
20
4.9432524
40
0.1941102
50
226.418029
51
255.8553723
0
ARC
8
DEFAULT_255_1_234
10
23.9404371
20
5.0368998
40
0.2911917
50
255.4655572
51
268.7985967
0
ARC
8
DEFAULT_255_1_234
10
23.9451563
20
5.1207491
40
0.3751331
50
268.3464808
51
270.0104874
0
ARC
8
DEFAULT_255_1_234
10
23.9474951
20
5.0523138
40
0.3067064
50
269.575914
51
282.0823146
0
ARC
8
DEFAULT_255_1_234
10
23.969986
20
4.9528803
40
0.2047712
50
281.7522535
51
306.6056425
0
ARC
8
DEFAULT_255_1_234
10
23.9798286
20
4.9367487
40
0.1859604
50
307.1350025
51
314.0277951
0
ARC
8
DEFAULT_255_1_234
10
23.976237
20
4.9393766
40
0.1903475
50
314.2553419
51
350.169324
0
ARC
8
DEFAULT_255_1_234
10
23.8910839
20
4.9578409
40
0.2774269
50
349.4145679
51
0.2930737
0
ARC
8
DEFAULT_255_1_234
10
23.9431272
20
5.4737353
40
0.2300764
50
89.477591
51
105.729794
0
ARC
8
DEFAULT_255_1_234
10
23.9295185
20
5.5242637
40
0.1777519
50
105.922966
51
135.1662921
0
ARC
8
DEFAULT_255_1_234
10
23.9315688
20
5.5228419
40
0.1802087
50
135.3053131
51
168.9882338
0
ARC
8
DEFAULT_255_1_234
10
24.014326
20
5.5038721
40
0.2650806
50
168.3802067
51
180.3602358
0
ARC
8
DEFAULT_255_1_234
10
23.991484
20
5.5001041
40
0.2422425
50
179.5029707
51
194.9126783
0
ARC
8
DEFAULT_255_1_234
10
23.9329501
20
5.484711
40
0.1817188
50
194.9722181
51
224.1943972
0
ARC
8
DEFAULT_255_1_234
10
23.9301368
20
5.4824169
40
0.1781027
50
224.2961434
51
262.0157375
0
ARC
8
DEFAULT_255_1_234
10
23.9443611
20
5.5555661
40
0.2525492
50
261.1250369
51
270.1959853
0
ARC
8
DEFAULT_255_1_234
10
23.9473366
20
5.5368339
40
0.233825
50
269.4825617
51
285.0988277
0
ARC
8
DEFAULT_255_1_234
10
23.9627525
20
5.478999
40
0.1739712
50
285.1585659
51
315.9484648
0
ARC
8
DEFAULT_255_1_234
10
23.9538537
20
5.4871886
40
0.1860616
50
316.0412958
51
351.9162715
0
ARC
8
DEFAULT_255_1_234
10
23.8805492
20
5.5013245
40
0.2606517
50
351.1056823
51
0.1936567
0
ARC
8
DEFAULT_255_1_234
10
23.9068321
20
5.5043369
40
0.234377
50
359.4789506
51
16.0679113
0
ARC
8
DEFAULT_255_1_234
10
23.954428
20
5.517181
40
0.1850875
50
16.3251951
51
44.791304
0
ARC
8
DEFAULT_255_1_234
10
23.9526561
20
5.5172339
40
0.186312
50
44.3958661
51
88.2498933
0
ARC
8
DEFAULT_255_1_234
10
23.9453115
20
5.4561154
40
0.2476868
50
86.9833827
51
90.0200148
0
LINE
8
DEFAULT_255_1_234
10
24.3355674
20
13.7473211
11
24.3355674
21
13.663791
0
LINE
8
DEFAULT_255_1_234
10
24.3355674
20
13.663791
11
23.8512536
21
12.5779
0
LINE
8
DEFAULT_255_1_234
10
23.8512536
20
12.5779
11
23.6954379
21
12.5779
0
LINE
8
DEFAULT_255_1_234
10
23.6954379
20
12.5779
11
24.1781454
21
13.6252387
0
LINE
8
DEFAULT_255_1_234
10
24.1781454
20
13.6252387
11
23.5452444
21
13.6252387
0
LINE
8
DEFAULT_255_1_234
10
23.5452444
20
13.6252387
11
23.5452444
21
13.7473211
0
LINE
8
DEFAULT_255_1_234
10
23.5452444
20
13.7473211
11
24.3355674
21
13.7473211
0
LINE
8
DEFAULT_255_1_234
10
24.1371835
20
21.6856243
11
24.1636882
21
21.6856243
0
LINE
8
DEFAULT_255_1_234
10
24.1636882
20
21.6856243
11
24.1636882
21
21.559526
0
LINE
8
DEFAULT_255_1_234
10
24.1636882
20
21.559526
11
24.1363803
21
21.559526
0
LINE
8
DEFAULT_255_1_234
10
23.5894189
20
20.9603583
11
23.5894189
21
21.0173836
0
LINE
8
DEFAULT_255_1_234
10
23.7388093
20
20.9981075
11
23.7388093
21
20.9434917
0
ARC
8
DEFAULT_255_1_234
10
24.1416151
20
21.0597455
40
0.4998079
50
90.6001036
51
104.514704
0
ARC
8
DEFAULT_255_1_234
10
24.1027667
20
21.2042131
40
0.3502176
50
104.2855254
51
133.862935
0
ARC
8
DEFAULT_255_1_234
10
24.1191424
20
21.193383
40
0.3693984
50
134.5302688
51
161.6210873
0
ARC
8
DEFAULT_255_1_234
10
24.2844613
20
21.1350895
40
0.5446739
50
161.2849839
51
174.2076652
0
ARC
8
DEFAULT_255_1_234
10
24.425155
20
21.1156787
40
0.6866274
50
173.7810589
51
174.9254635
0
ARC
8
DEFAULT_255_1_234
10
23.9701382
20
20.9773839
40
0.3033419
50
95.8330959
51
138.9954921
0
ARC
8
DEFAULT_255_1_234
10
23.9924738
20
20.8495375
40
0.4328947
50
89.8753725
51
97.0544009
0
ARC
8
DEFAULT_255_1_234
10
23.9972204
20
20.9330748
40
0.3493769
50
71.6407809
51
90.6240094
0
ARC
8
DEFAULT_255_1_234
10
24.0122777
20
20.9885082
40
0.2920396
50
39.6367836
51
71.019018
0
ARC
8
DEFAULT_255_1_234
10
23.948625
20
20.9334998
40
0.3761538
50
10.658731
51
39.9043955
0
ARC
8
DEFAULT_255_1_234
10
23.7938333
20
20.8998686
40
0.5345136
50
359.682601
51
11.132623
0
ARC
8
DEFAULT_255_1_234
10
23.7898464
20
20.892801
40
0.5385081
50
347.2486944
51
0.4369317
0
ARC
8
DEFAULT_255_1_234
10
23.9565941
20
20.8526807
40
0.3670249
50
318.1409698
51
347.6118597
0
ARC
8
DEFAULT_255_1_234
10
23.9890934
20
20.8259702
40
0.3250007
50
275.6342139
51
317.8248465
0
ARC
8
DEFAULT_255_1_234
10
23.9670045
20
20.9559219
40
0.4565864
50
269.8874292
51
276.7917694
0
ARC
8
DEFAULT_255_1_234
10
23.9615116
20
20.8533743
40
0.3540676
50
246.9140195
51
270.7437342
0
ARC
8
DEFAULT_255_1_234
10
23.9621506
20
20.8391384
40
0.3412781
50
218.1665114
51
245.878116
0
ARC
8
DEFAULT_255_1_234
10
24.0500967
20
20.9127279
40
0.455911
50
191.4115814
51
218.6077802
0
ARC
8
DEFAULT_255_1_234
10
24.2439056
20
20.9561833
40
0.6545001
50
179.6345085
51
191.7836486
0
ARC
8
DEFAULT_255_1_234
10
24.8021393
20
21.0240697
40
1.2127388
50
171.4525249
51
180.3158839
0
ARC
8
DEFAULT_255_1_234
10
24.3626269
20
21.0924608
40
0.7679464
50
157.9802646
51
171.6246686
0
ARC
8
DEFAULT_255_1_234
10
24.141229
20
21.1807421
40
0.5296008
50
141.4298019
51
157.854097
0
ARC
8
DEFAULT_255_1_234
10
24.077061
20
21.2261381
40
0.4511509
50
102.8715806
51
140.8564722
0
ARC
8
DEFAULT_255_1_234
10
24.1418226
20
20.9821552
40
0.7034845
50
90.3778349
51
103.5869322
0
ARC
8
DEFAULT_255_1_234
10
23.9680002
20
20.921673
40
0.2370698
50
89.8751008
51
126.2071704
0
ARC
8
DEFAULT_255_1_234
10
23.9725792
20
20.9062303
40
0.2522934
50
124.9745049
51
144.895901
0
ARC
8
DEFAULT_255_1_234
10
23.9549982
20
20.920556
40
0.2296779
50
145.2974905
51
160.2660252
0
ARC
8
DEFAULT_255_1_234
10
24.2622521
20
20.9403071
40
0.5234525
50
179.6514266
51
190.2855912
0
ARC
8
DEFAULT_255_1_234
10
24.0928658
20
20.9083786
40
0.3510893
50
190.0945431
51
207.5098196
0
ARC
8
DEFAULT_255_1_234
10
24.0362928
20
20.8814623
40
0.288489
50
207.9583163
51
216.3251085
0
ARC
8
DEFAULT_255_1_234
10
24.0023036
20
20.8535105
40
0.2445587
50
215.7661442
51
232.5456785
0
ARC
8
DEFAULT_255_1_234
10
23.9640019
20
20.8048482
40
0.1826382
50
232.8005391
51
270.6605633
0
ARC
8
DEFAULT_255_1_234
10
23.968572
20
20.8412612
40
0.2190529
50
269.35537
51
288.4744281
0
ARC
8
DEFAULT_255_1_234
10
23.9778617
20
20.8063118
40
0.1829749
50
289.1833337
51
322.9683818
0
ARC
8
DEFAULT_255_1_234
10
23.9167139
20
20.8545391
40
0.2608399
50
322.6007884
51
346.5182367
0
ARC
8
DEFAULT_255_1_234
10
23.8009735
20
20.8840616
40
0.3802777
50
346.2582162
51
358.7741648
0
ARC
8
DEFAULT_255_1_234
10
23.6991404
20
20.8895965
40
0.4822176
50
358.3755224
51
0.0098023
0
ARC
8
DEFAULT_255_1_234
10
23.7747591
20
20.8923657
40
0.4066078
50
359.6214041
51
11.2839074
0
ARC
8
DEFAULT_255_1_234
10
23.9024738
20
20.9190066
40
0.2761514
50
11.0482309
51
31.8146458
0
ARC
8
DEFAULT_255_1_234
10
23.9333781
20
20.9357584
40
0.2410679
50
32.3035391
51
38.082671
0
ARC
8
DEFAULT_255_1_234
10
23.9754441
20
20.9738662
40
0.1844966
50
36.825067
51
85.7415724
0
ARC
8
DEFAULT_255_1_234
10
23.9687274
20
20.9238301
40
0.2349122
50
85.0140713
51
90.0513278
0
LINE
8
DEFAULT_255_1_234
10
23.7677235
20
29.0086963
11
23.6488538
21
29.0392169
0
LINE
8
DEFAULT_255_1_234
10
23.6488538
20
29.0392169
11
23.7082887
21
29.6223211
0
LINE
8
DEFAULT_255_1_234
10
23.7082887
20
29.6223211
11
24.3074563
21
29.6223211
0
LINE
8
DEFAULT_255_1_234
10
24.3074563
20
29.6223211
11
24.3074563
21
29.4849784
0
LINE
8
DEFAULT_255_1_234
10
24.3074563
20
29.4849784
11
23.834387
21
29.4849784
0
LINE
8
DEFAULT_255_1_234
10
23.834387
20
29.4849784
11
23.7990473
21
29.1661184
0
LINE
8
DEFAULT_255_1_234
10
23.6070888
20
28.7605156
11
23.7476442
21
28.7605156
0
LINE
8
DEFAULT_255_1_234
10
23.8070791
20
29.0408232
11
23.7677235
21
29.0086963
0
ARC
8
DEFAULT_255_1_234
10
23.9845257
20
28.848123
40
0.3681349
50
93.7182161
51
120.2538958
0
ARC
8
DEFAULT_255_1_234
10
23.993952
20
28.7673394
40
0.449379
50
89.9660152
51
94.2496022
0
ARC
8
DEFAULT_255_1_234
10
23.9980254
20
28.8262549
40
0.390482
50
73.8043271
51
90.5585896
0
ARC
8
DEFAULT_255_1_234
10
24.0215151
20
28.9120602
40
0.3015334
50
41.3071453
51
73.5430202
0
ARC
8
DEFAULT_255_1_234
10
23.9798978
20
28.8762324
40
0.3564457
50
13.5075983
51
41.2174222
0
ARC
8
DEFAULT_255_1_234
10
23.8157182
20
28.8332486
40
0.5261351
50
1.1331335
51
13.8829381
0
ARC
8
DEFAULT_255_1_234
10
23.6745551
20
28.8256665
40
0.6674378
50
359.9919444
51
1.544251
0
ARC
8
DEFAULT_255_1_234
10
23.8022377
20
28.821528
40
0.5397702
50
347.8572367
51
0.4293338
0
ARC
8
DEFAULT_255_1_234
10
23.9772695
20
28.7818736
40
0.3603188
50
323.673004
51
348.1672506
0
ARC
8
DEFAULT_255_1_234
10
24.0067203
20
28.7639168
40
0.3259678
50
316.8171152
51
323.1492751
0
ARC
8
DEFAULT_255_1_234
10
24.0128392
20
28.760246
40
0.3189975
50
281.8396411
51
316.5457803
0
ARC
8
DEFAULT_255_1_234
10
23.9752656
20
28.9157762
40
0.4789527
50
269.5770101
51
282.4214771
0
ARC
8
DEFAULT_255_1_234
10
23.9681467
20
28.8944125
40
0.45759
50
256.2427136
51
270.4486331
0
ARC
8
DEFAULT_255_1_234
10
23.938237
20
28.7744229
40
0.3339303
50
228.9023911
51
256.3314342
0
ARC
8
DEFAULT_255_1_234
10
23.9308602
20
28.7627746
40
0.32031
50
193.753695
51
228.5271154
0
ARC
8
DEFAULT_255_1_234
10
24.0546556
20
28.79908
40
0.4492253
50
184.924711
51
194.497588
0
ARC
8
DEFAULT_255_1_234
10
24.0739123
20
28.8026591
40
0.3289787
50
187.3600538
51
198.6732863
0
ARC
8
DEFAULT_255_1_234
10
23.9689417
20
28.7662674
40
0.217884
50
198.4451669
51
217.794479
0
ARC
8
DEFAULT_255_1_234
10
23.9393592
20
28.7453085
40
0.1816698
50
218.2887171
51
228.5612368
0
ARC
8
DEFAULT_255_1_234
10
23.9491379
20
28.7584963
40
0.1980329
50
228.9654866
51
258.1234728
0
ARC
8
DEFAULT_255_1_234
10
23.9697089
20
28.8465833
40
0.2884748
50
257.7258293
51
270.401361
0
ARC
8
DEFAULT_255_1_234
10
23.9741975
20
28.8020821
40
0.2439788
50
269.4204404
51
286.4209037
0
ARC
8
DEFAULT_255_1_234
10
23.9890463
20
28.7481657
40
0.1880666
50
286.7251356
51
320.600362
0
ARC
8
DEFAULT_255_1_234
10
23.9507288
20
28.7792595
40
0.2374121
50
320.6712579
51
344.5441685
0
ARC
8
DEFAULT_255_1_234
10
23.8350614
20
28.8132045
40
0.3579479
50
344.2412205
51
356.7357071
0
ARC
8
DEFAULT_255_1_234
10
23.7101763
20
28.8235444
40
0.4832297
50
356.3548756
51
0.0500261
0
ARC
8
DEFAULT_255_1_234
10
23.8438272
20
28.826665
40
0.3495889
50
359.5576869
51
12.953486
0
ARC
8
DEFAULT_255_1_234
10
23.9493169
20
28.8522434
40
0.2410532
50
12.6490276
51
41.6081334
0
ARC
8
DEFAULT_255_1_234
10
23.972354
20
28.8718321
40
0.2108218
50
41.7850273
51
85.9892764
0
ARC
8
DEFAULT_255_1_234
10
23.9600277
20
28.7905462
40
0.2928454
50
84.6957577
51
90.0676183
0
ARC
8
DEFAULT_255_1_234
10
23.9576761
20
28.7236716
40
0.3597255
50
89.6804936
51
99.1614436
0
ARC
8
DEFAULT_255_1_234
10
23.9371392
20
28.8464131
40
0.235281
50
98.9830931
51
113.8908934
0
ARC
8
DEFAULT_255_1_234
10
23.9141802
20
28.9005587
40
0.176479
50
114.1950727
51
127.3641004
0
LINE
8
DEFAULT_255_1_234
10
23.187423
20
36.7614663
11
23.3424355
21
36.7614663
0
LINE
8
DEFAULT_255_1_234
10
22.4420777
20
36.9204947
11
22.4420777
21
37.0329391
0
LINE
8
DEFAULT_255_1_234
10
23.3424355
20
37.1839357
11
23.187423
21
37.1839357
0
LINE
8
DEFAULT_255_1_234
10
22.5970902
20
37.0289232
11
22.5970902
21
36.9156757
0
ARC
8
DEFAULT_255_1_234
10
22.7943742
20
36.8211846
40
0.5513052
50
340.1774281
51
353.7814284
0
ARC
8
DEFAULT_255_1_234
10
22.9515095
20
36.7626582
40
0.3836379
50
311.4558989
51
340.4421614
0
ARC
8
DEFAULT_255_1_234
10
22.9481763
20
36.7737528
40
0.3941894
50
282.4333181
51
310.7513653
0
ARC
8
DEFAULT_255_1_234
10
22.9042502
20
36.9552679
40
0.5809175
50
269.9358511
51
282.809604
0
ARC
8
DEFAULT_255_1_234
10
22.8990568
20
37.1010212
40
0.7266847
50
270.0021091
51
270.3581957
0
ARC
8
DEFAULT_255_1_234
10
22.8937985
20
36.8409585
40
0.4666519
50
250.7884749
51
270.6489167
0
ARC
8
DEFAULT_255_1_234
10
22.876982
20
36.7772319
40
0.4009729
50
219.3627325
51
250.0611886
0
ARC
8
DEFAULT_255_1_234
10
22.9599031
20
36.8477042
40
0.5097822
50
193.5479632
51
219.5756669
0
ARC
8
DEFAULT_255_1_234
10
23.1970652
20
36.9092919
40
0.7547848
50
181.1218675
51
193.87563
0
ARC
8
DEFAULT_255_1_234
10
23.4040833
20
36.920358
40
0.9620055
50
179.9918545
51
181.5394234
0
ARC
8
DEFAULT_255_1_234
10
23.2189935
20
37.0366788
40
0.7769248
50
169.5837241
51
180.2757934
0
ARC
8
DEFAULT_255_1_234
10
23.0352873
20
37.0706229
40
0.590109
50
155.0365899
51
169.6003176
0
ARC
8
DEFAULT_255_1_234
10
22.9217337
20
37.1253677
40
0.4640625
50
136.783148
51
155.2472683
0
ARC
8
DEFAULT_255_1_234
10
22.8827814
20
37.1584562
40
0.4130255
50
121.7633186
51
136.428115
0
ARC
8
DEFAULT_255_1_234
10
22.8962776
20
37.1335227
40
0.4413323
50
95.6459699
51
121.5490577
0
ARC
8
DEFAULT_255_1_234
10
22.9120058
20
37.0226949
40
0.55319
50
89.924208
51
96.1377933
0
ARC
8
DEFAULT_255_1_234
10
22.9170491
20
37.0345542
40
0.5413475
50
76.6779277
51
90.4563316
0
ARC
8
DEFAULT_255_1_234
10
22.9564114
20
37.1936114
40
0.3775041
50
47.485847
51
76.9287264
0
ARC
8
DEFAULT_255_1_234
10
22.9417087
20
37.1836159
40
0.3948286
50
16.5424086
51
46.8933463
0
ARC
8
DEFAULT_255_1_234
10
22.7809244
20
37.1307861
40
0.564021
50
5.4072051
51
17.0365086
0
ARC
8
DEFAULT_255_1_234
10
22.6370261
20
37.1076679
40
0.5556559
50
7.8891745
51
15.9239216
0
ARC
8
DEFAULT_255_1_234
10
22.8357274
20
37.1653631
40
0.3487515
50
15.7653144
51
27.9410532
0
ARC
8
DEFAULT_255_1_234
10
22.9461492
20
37.224479
40
0.2235026
50
27.8166557
51
46.4008329
0
ARC
8
DEFAULT_255_1_234
10
22.9511135
20
37.2239082
40
0.2205286
50
47.4371857
51
75.0698205
0
ARC
8
DEFAULT_255_1_234
10
22.9202529
20
37.1164765
40
0.3322915
50
74.7008593
51
87.8124495
0
ARC
8
DEFAULT_255_1_234
10
22.9129217
20
37.0108844
40
0.4380987
50
87.3814673
51
90.0240855
0
ARC
8
DEFAULT_255_1_234
10
22.909076
20
37.1286291
40
0.3203749
50
89.3451631
51
108.5745436
0
ARC
8
DEFAULT_255_1_234
10
22.8953865
20
37.1799908
40
0.2673494
50
109.2998449
51
143.3037509
0
ARC
8
DEFAULT_255_1_234
10
22.9715938
20
37.1213881
40
0.3634757
50
143.0753173
51
163.1916937
0
ARC
8
DEFAULT_255_1_234
10
23.1667666
20
37.0597967
40
0.5681262
50
162.9373603
51
174.6208611
0
ARC
8
DEFAULT_255_1_234
10
23.4293708
20
37.031001
40
0.8322832
50
174.3419979
51
180.1430411
0
ARC
8
DEFAULT_255_1_234
10
23.3362864
20
36.9115698
40
0.7392076
50
179.6817502
51
189.150529
0
ARC
8
DEFAULT_255_1_234
10
23.0862112
20
36.869919
40
0.4856932
50
188.9910863
51
203.5773039
0
ARC
8
DEFAULT_255_1_234
10
22.9782445
20
36.8251211
40
0.3688271
50
203.9077269
51
215.1312379
0
ARC
8
DEFAULT_255_1_234
10
22.8859539
20
36.7535941
40
0.2522457
50
213.9071664
51
263.8849284
0
ARC
8
DEFAULT_255_1_234
10
22.8984868
20
36.8320518
40
0.3316174
50
263.1758525
51
270.1031083
0
ARC
8
DEFAULT_255_1_234
10
22.901696
20
36.9567365
40
0.4563091
50
269.6719807
51
279.0609165
0
ARC
8
DEFAULT_255_1_234
10
22.9283728
20
36.7954907
40
0.2928759
50
278.8750225
51
293.6346586
0
ARC
8
DEFAULT_255_1_234
10
22.9603936
20
36.72029
40
0.2111472
50
293.8553404
51
310.0518804
0
ARC
8
DEFAULT_255_1_234
10
22.960879
20
36.7140516
40
0.2060917
50
311.0646779
51
332.0108348
0
ARC
8
DEFAULT_255_1_234
10
22.8416517
20
36.7797978
40
0.3422352
50
331.6588543
51
343.2878891
0
ARC
8
DEFAULT_255_1_234
10
22.6354032
20
36.8431798
40
0.5580003
50
343.1446044
51
351.010618
0
ARC
8
DEFAULT_255_1_234
10
22.4812678
20
36.8712871
40
0.7146438
50
350.7157277
51
351.1602153
0
LINE
8
DEFAULT_255_1_234
10
24.2805426
20
36.5116792
11
24.2805426
21
36.3904
0
LINE
8
DEFAULT_255_1_234
10
24.2805426
20
36.3904
11
23.5143147
21
36.3904
0
LINE
8
DEFAULT_255_1_234
10
23.5143147
20
36.3904
11
23.5143147
21
36.4972221
0
LINE
8
DEFAULT_255_1_234
10
23.5143147
20
36.4972221
11
23.9191144
21
36.9469995
0
LINE
8
DEFAULT_255_1_234
10
23.640413
20
37.2152595
11
23.4918259
21
37.2152595
0
LINE
8
DEFAULT_255_1_234
10
24.0066603
20
36.8514218
11
23.6934225
21
36.5116792
0
LINE
8
DEFAULT_255_1_234
10
23.6934225
20
36.5116792
11
24.2805426
21
36.5116792
0
ARC
8
DEFAULT_255_1_234
10
22.5700977
20
38.1399527
40
1.8008286
50
318.5132453
51
320.7828378
0
ARC
8
DEFAULT_255_1_234
10
23.0987951
20
37.7096426
40
1.1191493
50
320.7372736
51
323.9737074
0
ARC
8
DEFAULT_255_1_234
10
23.4907808
20
37.4256361
40
0.6350923
50
323.8961724
51
328.6421089
0
ARC
8
DEFAULT_255_1_234
10
23.6954403
20
37.2994031
40
0.3946393
50
328.8299013
51
331.789948
0
ARC
8
DEFAULT_255_1_234
10
23.7951582
20
37.2479509
40
0.2824501
50
331.4255242
51
352.9364833
0
ARC
8
DEFAULT_255_1_234
10
23.8088082
20
37.2448976
40
0.2685315
50
353.2248685
51
0.0169286
0
ARC
8
DEFAULT_255_1_234
10
23.8297959
20
37.247195
40
0.2475536
50
359.4866256
51
15.9339782
0
ARC
8
DEFAULT_255_1_234
10
23.8804944
20
37.2608286
40
0.1950618
50
16.1714718
51
43.5284424
0
ARC
8
DEFAULT_255_1_234
10
23.8882253
20
37.2685573
40
0.184134
50
43.4415429
51
83.1661404
0
ARC
8
DEFAULT_255_1_234
10
23.8748171
20
37.1948771
40
0.258926
50
82.160215
51
90.1505798
0
ARC
8
DEFAULT_255_1_234
10
23.8716599
20
37.1411865
40
0.3126255
50
89.5460705
51
102.5418777
0
ARC
8
DEFAULT_255_1_234
10
23.8473685
20
37.2442665
40
0.2067346
50
102.1739365
51
129.2061916
0
ARC
8
DEFAULT_255_1_234
10
23.8394756
20
37.2567094
40
0.1921118
50
129.7279328
51
135.7542026
0
ARC
8
DEFAULT_255_1_234
10
23.8516284
20
37.2470045
40
0.2075944
50
136.175737
51
166.3674722
0
ARC
8
DEFAULT_255_1_234
10
23.9523203
20
37.2200182
40
0.3118201
50
165.9092917
51
178.8683903
0
ARC
8
DEFAULT_255_1_234
10
24.0388065
20
37.2153179
40
0.3983935
50
178.438168
51
180.0083905
0
ARC
8
DEFAULT_255_1_234
10
23.8986667
20
37.2192231
40
0.4068601
50
163.2878735
51
180.5581814
0
ARC
8
DEFAULT_255_1_234
10
23.8184928
20
37.241284
40
0.3237344
50
133.454115
51
162.9470031
0
ARC
8
DEFAULT_255_1_234
10
23.8363469
20
37.2223
40
0.349795
50
100.7869394
51
133.4384016
0
ARC
8
DEFAULT_255_1_234
10
23.8711241
20
37.0674319
40
0.5084616
50
89.6605301
51
101.3704185
0
ARC
8
DEFAULT_255_1_234
10
23.877758
20
37.0735496
40
0.502348
50
78.2171172
51
90.4130393
0
ARC
8
DEFAULT_255_1_234
10
23.9132658
20
37.2359637
40
0.3361092
50
55.9268222
51
78.4888551
0
ARC
8
DEFAULT_255_1_234
10
23.9329098
20
37.2698324
40
0.2970617
50
47.9292255
51
55.4054003
0
ARC
8
DEFAULT_255_1_234
10
23.9430659
20
37.2801502
40
0.2825983
50
4.3347696
51
48.0560701
0
ARC
8
DEFAULT_255_1_234
10
23.8335052
20
37.2631601
40
0.393225
50
359.925209
51
5.5967654
0
ARC
8
DEFAULT_255_1_234
10
23.8763944
20
37.2687816
40
0.3503892
50
337.8914096
51
358.9967724
0
ARC
8
DEFAULT_255_1_234
10
23.6050356
20
37.3734706
40
0.6412172
50
326.9135351
51
338.3505194
0
ARC
8
DEFAULT_255_1_234
10
23.206466
20
37.6289284
40
1.1146189
50
319.6472867
51
327.095818
0
ARC
8
DEFAULT_255_1_234
10
22.8231663
20
37.9451
40
1.6114559
50
317.2586784
51
319.9046139
0
LINE
8
DEFAULT_255_1_234
10
23.9961628
20
45.4973211
11
23.9961628
21
44.720652
0
LINE
8
DEFAULT_255_1_234
10
23.9961628
20
44.720652
11
24.1584039
21
44.720652
0
LINE
8
DEFAULT_255_1_234
10
24.1584039
20
44.720652
11
24.1584039
21
44.5993728
0
LINE
8
DEFAULT_255_1_234
10
24.1584039
20
44.5993728
11
23.9961628
21
44.5993728
0
LINE
8
DEFAULT_255_1_234
10
23.9961628
20
44.5993728
11
23.9961628
21
44.3279
0
LINE
8
DEFAULT_255_1_234
10
23.9961628
20
44.3279
11
23.8467725
21
44.3279
0
LINE
8
DEFAULT_255_1_234
10
23.8467725
20
44.3279
11
23.8467725
21
44.5993728
0
LINE
8
DEFAULT_255_1_234
10
23.8467725
20
44.5993728
11
23.3142682
21
44.5993728
0
LINE
8
DEFAULT_255_1_234
10
23.3142682
20
44.5993728
11
23.3142682
21
44.6869187
0
LINE
8
DEFAULT_255_1_234
10
23.3142682
20
44.6869187
11
23.8379375
21
45.4973211
0
LINE
8
DEFAULT_255_1_234
10
23.8379375
20
45.4973211
11
23.9961628
21
45.4973211
0
LINE
8
DEFAULT_255_1_234
10
23.8291026
20
45.2619912
11
23.4829347
21
44.720652
0
LINE
8
DEFAULT_255_1_234
10
23.4829347
20
44.720652
11
23.8467725
21
44.720652
0
LINE
8
DEFAULT_255_1_234
10
23.8467725
20
44.720652
11
23.8467725
21
45.2941181
0
LINE
8
DEFAULT_255_1_234
10
23.8467725
20
45.2941181
11
23.8291026
21
45.2619912
0
LINE
8
DEFAULT_255_1_234
10
23.7966378
20
52.8011169
11
23.7966378
21
52.9223962
0
LINE
8
DEFAULT_255_1_234
10
23.7966378
20
52.9223962
11
23.908279
21
52.9223962
0
LINE
8
DEFAULT_255_1_234
10
23.7179268
20
53.1280087
11
23.5693396
21
53.1280087
0
LINE
8
DEFAULT_255_1_234
10
23.5588983
20
52.5738188
11
23.7082887
21
52.5738188
0
LINE
8
DEFAULT_255_1_234
10
23.908279
20
52.8011169
11
23.7966378
21
52.8011169
0
ARC
8
DEFAULT_255_1_234
10
23.9053656
20
53.2616713
40
0.3392876
50
270.4919872
51
281.8951556
0
ARC
8
DEFAULT_255_1_234
10
23.9294918
20
53.1514702
40
0.2264817
50
281.6691735
51
301.2943132
0
ARC
8
DEFAULT_255_1_234
10
23.9465128
20
53.1203304
40
0.1910381
50
301.7833094
51
311.7545298
0
ARC
8
DEFAULT_255_1_234
10
23.9556704
20
53.1101748
40
0.1773635
50
311.7323931
51
354.2802411
0
ARC
8
DEFAULT_255_1_234
10
23.8830329
20
53.1226722
40
0.2509385
50
353.0937916
51
0.1181479
0
ARC
8
DEFAULT_255_1_234
10
23.8369114
20
53.1274386
40
0.2970898
50
359.1805295
51
15.0453146
0
ARC
8
DEFAULT_255_1_234
10
23.9714951
20
53.1666992
40
0.1569564
50
13.9577229
51
77.6713066
0
ARC
8
DEFAULT_255_1_234
10
23.932848
20
53.0281949
40
0.3006298
50
76.1116566
51
90.7026153
0
ARC
8
DEFAULT_255_1_234
10
23.9269318
20
53.0555545
40
0.2732568
50
89.5324876
51
103.531937
0
ARC
8
DEFAULT_255_1_234
10
23.9068762
20
53.1354884
40
0.1908508
50
103.2931773
51
133.5619022
0
ARC
8
DEFAULT_255_1_234
10
23.9024251
20
53.1414375
40
0.1834746
50
133.8349307
51
173.5344437
0
ARC
8
DEFAULT_255_1_234
10
23.9747294
20
53.1286213
40
0.2568033
50
172.5096846
51
180.1366907
0
ARC
8
DEFAULT_255_1_234
10
23.8796188
20
53.1320622
40
0.3103056
50
155.3484492
51
180.7484736
0
ARC
8
DEFAULT_255_1_234
10
23.8747277
20
53.1291846
40
0.3070957
50
131.5744599
51
154.4798489
0
ARC
8
DEFAULT_255_1_234
10
23.9060424
20
53.097531
40
0.3515643
50
96.9875458
51
131.9690667
0
ARC
8
DEFAULT_255_1_234
10
23.9279904
20
52.9729636
40
0.4779224
50
89.8596053
51
97.7825159
0
ARC
8
DEFAULT_255_1_234
10
23.9327967
20
52.9467616
40
0.5041361
50
78.3655447
51
90.4131539
0
ARC
8
DEFAULT_255_1_234
10
23.9685885
20
53.1126887
40
0.3344039
50
56.6229102
51
78.638727
0
ARC
8
DEFAULT_255_1_234
10
23.9900829
20
53.1502805
40
0.2912001
50
47.0253525
51
56.0854072
0
ARC
8
DEFAULT_255_1_234
10
23.9920609
20
53.1542223
40
0.2869704
50
10.9208013
51
46.7778124
0
ARC
8
DEFAULT_255_1_234
10
23.8556675
20
53.1226857
40
0.426899
50
359.6364486
51
11.6087304
0
ARC
8
DEFAULT_255_1_234
10
24.0391519
20
53.1211752
40
0.243409
50
332.3549906
51
359.7179418
0
ARC
8
DEFAULT_255_1_234
10
23.9741121
20
53.1520142
40
0.3153459
50
325.2333722
51
332.8745602
0
ARC
8
DEFAULT_255_1_234
10
23.9893744
20
53.1413828
40
0.2967456
50
292.9802137
51
325.2392345
0
ARC
8
DEFAULT_255_1_234
10
23.9619118
20
53.1947863
40
0.3566604
50
292.5402179
51
293.6924929
0
ARC
8
DEFAULT_255_1_234
10
24.0011714
20
52.5493091
40
0.3307468
50
57.6435486
51
72.8625112
0
ARC
8
DEFAULT_255_1_234
10
24.0366214
20
52.6067549
40
0.2632492
50
36.7248896
51
57.4697979
0
ARC
8
DEFAULT_255_1_234
10
24.0354847
20
52.608022
40
0.2634081
50
8.0545065
51
36.356114
0
ARC
8
DEFAULT_255_1_234
10
23.9492032
20
52.5925174
40
0.3510261
50
359.8320645
51
8.5869982
0
ARC
8
DEFAULT_255_1_234
10
23.9116808
20
52.5877101
40
0.3885653
50
343.9829931
51
0.5571613
0
ARC
8
DEFAULT_255_1_234
10
24.0003005
20
52.5634438
40
0.2966924
50
311.6359546
51
343.7651759
0
ARC
8
DEFAULT_255_1_234
10
23.9624574
20
52.6061102
40
0.3537231
50
279.7829875
51
311.6255694
0
ARC
8
DEFAULT_255_1_234
10
23.9323351
20
52.749828
40
0.5004971
50
269.7286406
51
280.3856417
0
ARC
8
DEFAULT_255_1_234
10
23.9261423
20
52.7456996
40
0.4963778
50
256.6828919
51
270.4412052
0
ARC
8
DEFAULT_255_1_234
10
23.8922719
20
52.6072394
40
0.3538406
50
229.4223008
51
256.8556159
0
ARC
8
DEFAULT_255_1_234
10
23.8508112
20
52.5605736
40
0.2914296
50
181.818294
51
229.6455059
0
ARC
8
DEFAULT_255_1_234
10
23.9548068
20
52.5736496
40
0.3959084
50
179.9755256
51
183.2323064
0
ARC
8
DEFAULT_255_1_234
10
23.9375814
20
52.5716037
40
0.2293034
50
179.4465117
51
196.2869258
0
ARC
8
DEFAULT_255_1_234
10
23.8888222
20
52.5582651
40
0.1787621
50
196.5661473
51
227.705904
0
ARC
8
DEFAULT_255_1_234
10
23.9052317
20
52.5766155
40
0.2033784
50
227.7652068
51
257.8762805
0
ARC
8
DEFAULT_255_1_234
10
23.9277287
20
52.6709156
40
0.3003081
50
257.4584385
51
270.426602
0
ARC
8
DEFAULT_255_1_234
10
23.9322853
20
52.6998996
40
0.329292
50
269.5962073
51
280.8789248
0
ARC
8
DEFAULT_255_1_234
10
23.9552382
20
52.5852685
40
0.2123908
50
280.6346389
51
299.8595945
0
ARC
8
DEFAULT_255_1_234
10
23.9743289
20
52.5490212
40
0.171457
50
300.3576302
51
314.5517981
0
ARC
8
DEFAULT_255_1_234
10
23.9660349
20
52.5550919
40
0.1816095
50
315.0728369
51
345.0431014
0
ARC
8
DEFAULT_255_1_234
10
23.8737163
20
52.5819841
40
0.2777492
50
344.5986631
51
357.9269593
0
ARC
8
DEFAULT_255_1_234
10
23.7841489
20
52.5881276
40
0.3674917
50
357.4748886
51
0.0231117
0
ARC
8
DEFAULT_255_1_234
10
23.8864599
20
52.5905679
40
0.2651907
50
359.5047933
51
13.4239635
0
ARC
8
DEFAULT_255_1_234
10
23.9731242
20
52.6127478
40
0.1757509
50
12.9498199
51
48.7551375
0
ARC
8
DEFAULT_255_1_234
10
23.9548976
20
52.58784
40
0.2065134
50
49.5088623
51
72.1836453
0
ARC
8
DEFAULT_255_1_234
10
23.9191129
20
52.4816291
40
0.3185836
50
71.9010081
51
84.3554254
0
ARC
8
DEFAULT_255_1_234
10
23.9029761
20
52.3455326
40
0.4556151
50
84.0193428
51
89.333121
0
LINE
8
DEFAULT_255_1_234
10
24.3468119
20
60.3241792
11
24.3468119
21
60.2029
0
LINE
8
DEFAULT_255_1_234
10
24.3468119
20
60.2029
11
23.580584
21
60.2029
0
LINE
8
DEFAULT_255_1_234
10
23.580584
20
60.2029
11
23.580584
21
60.3097221
0
LINE
8
DEFAULT_255_1_234
10
23.580584
20
60.3097221
11
23.9853836
21
60.7594995
0
LINE
8
DEFAULT_255_1_234
10
23.7066823
20
61.0277595
11
23.5580952
21
61.0277595
0
LINE
8
DEFAULT_255_1_234
10
24.0729296
20
60.6639218
11
23.7596918
21
60.3241792
0
LINE
8
DEFAULT_255_1_234
10
23.7596918
20
60.3241792
11
24.3468119
21
60.3241792
0
ARC
8
DEFAULT_255_1_234
10
22.636367
20
61.9524527
40
1.8008286
50
318.5132453
51
320.7828378
0
ARC
8
DEFAULT_255_1_234
10
23.1650644
20
61.5221426
40
1.1191493
50
320.7372736
51
323.9737074
0
ARC
8
DEFAULT_255_1_234
10
23.5570501
20
61.2381361
40
0.6350923
50
323.8961724
51
328.6421089
0
ARC
8
DEFAULT_255_1_234
10
23.7617096
20
61.1119031
40
0.3946393
50
328.8299013
51
331.789948
0
ARC
8
DEFAULT_255_1_234
10
23.8614274
20
61.0604509
40
0.2824501
50
331.4255242
51
352.9364833
0
ARC
8
DEFAULT_255_1_234
10
23.8750775
20
61.0573976
40
0.2685315
50
353.2248685
51
0.0169286
0
ARC
8
DEFAULT_255_1_234
10
23.8960652
20
61.059695
40
0.2475536
50
359.4866256
51
15.9339782
0
ARC
8
DEFAULT_255_1_234
10
23.9467637
20
61.0733286
40
0.1950618
50
16.1714718
51
43.5284424
0
ARC
8
DEFAULT_255_1_234
10
23.9544946
20
61.0810573
40
0.184134
50
43.4415429
51
83.1661404
0
ARC
8
DEFAULT_255_1_234
10
23.9410864
20
61.0073771
40
0.258926
50
82.160215
51
90.1505798
0
ARC
8
DEFAULT_255_1_234
10
23.9379291
20
60.9536865
40
0.3126255
50
89.5460705
51
102.5418777
0
ARC
8
DEFAULT_255_1_234
10
23.9136377
20
61.0567665
40
0.2067346
50
102.1739365
51
129.2061916
0
ARC
8
DEFAULT_255_1_234
10
23.9057449
20
61.0692094
40
0.1921118
50
129.7279328
51
135.7542026
0
ARC
8
DEFAULT_255_1_234
10
23.9178977
20
61.0595045
40
0.2075944
50
136.175737
51
166.3674722
0
ARC
8
DEFAULT_255_1_234
10
24.0185896
20
61.0325182
40
0.3118201
50
165.9092917
51
178.8683903
0
ARC
8
DEFAULT_255_1_234
10
24.1050757
20
61.0278179
40
0.3983935
50
178.438168
51
180.0083905
0
ARC
8
DEFAULT_255_1_234
10
23.9649359
20
61.0317231
40
0.4068601
50
163.2878735
51
180.5581814
0
ARC
8
DEFAULT_255_1_234
10
23.8847621
20
61.053784
40
0.3237344
50
133.454115
51
162.9470031
0
ARC
8
DEFAULT_255_1_234
10
23.9026162
20
61.0348
40
0.349795
50
100.7869394
51
133.4384016
0
ARC
8
DEFAULT_255_1_234
10
23.9373934
20
60.8799319
40
0.5084616
50
89.6605301
51
101.3704185
0
ARC
8
DEFAULT_255_1_234
10
23.9440273
20
60.8860496
40
0.502348
50
78.2171172
51
90.4130393
0
ARC
8
DEFAULT_255_1_234
10
23.9795351
20
61.0484637
40
0.3361092
50
55.9268222
51
78.4888551
0
ARC
8
DEFAULT_255_1_234
10
23.9991791
20
61.0823324
40
0.2970617
50
47.9292255
51
55.4054003
0
ARC
8
DEFAULT_255_1_234
10
24.0093352
20
61.0926502
40
0.2825983
50
4.3347696
51
48.0560701
0
ARC
8
DEFAULT_255_1_234
10
23.8997745
20
61.0756601
40
0.393225
50
359.925209
51
5.5967654
0
ARC
8
DEFAULT_255_1_234
10
23.9426637
20
61.0812816
40
0.3503892
50
337.8914096
51
358.9967724
0
ARC
8
DEFAULT_255_1_234
10
23.6713049
20
61.1859706
40
0.6412172
50
326.9135351
51
338.3505194
0
ARC
8
DEFAULT_255_1_234
10
23.2727353
20
61.4414284
40
1.1146189
50
319.6472867
51
327.095818
0
ARC
8
DEFAULT_255_1_234
10
22.8894356
20
61.7576
40
1.6114559
50
317.2586784
51
319.9046139
0
LINE
8
DEFAULT_255_1_234
10
24.0771137
20
69.3154433
11
24.0771137
21
68.1404
0
LINE
8
DEFAULT_255_1_234
10
24.0771137
20
68.1404
11
23.9277234
21
68.1404
0
LINE
8
DEFAULT_255_1_234
10
23.9277234
20
68.1404
11
23.9277234
21
69.1307133
0
LINE
8
DEFAULT_255_1_234
10
23.9277234
20
69.1307133
11
23.6281396
21
69.0206785
0
LINE
8
DEFAULT_255_1_234
10
23.6281396
20
69.0206785
11
23.6281396
21
69.1556117
0
LINE
8
DEFAULT_255_1_234
10
23.6281396
20
69.1556117
11
24.0538217
21
69.3154433
0
LINE
8
DEFAULT_255_1_234
10
24.0538217
20
69.3154433
11
24.0771137
21
69.3154433
0
LINE
8
DEFAULT_255_1_234
10
23.196523
20
76.4489663
11
23.3515355
21
76.4489663
0
LINE
8
DEFAULT_255_1_234
10
22.4511777
20
76.6079947
11
22.4511777
21
76.7204391
0
LINE
8
DEFAULT_255_1_234
10
23.3515355
20
76.8714357
11
23.196523
21
76.8714357
0
LINE
8
DEFAULT_255_1_234
10
22.6061902
20
76.7164232
11
22.6061902
21
76.6031757
0
ARC
8
DEFAULT_255_1_234
10
22.8034742
20
76.5086846
40
0.5513052
50
340.1774281
51
353.7814284
0
ARC
8
DEFAULT_255_1_234
10
22.9606095
20
76.4501582
40
0.3836379
50
311.4558989
51
340.4421614
0
ARC
8
DEFAULT_255_1_234
10
22.9572763
20
76.4612528
40
0.3941894
50
282.4333181
51
310.7513653
0
ARC
8
DEFAULT_255_1_234
10
22.9133502
20
76.6427679
40
0.5809175
50
269.9358511
51
282.809604
0
ARC
8
DEFAULT_255_1_234
10
22.9081568
20
76.7885212
40
0.7266847
50
270.0021091
51
270.3581957
0
ARC
8
DEFAULT_255_1_234
10
22.9028985
20
76.5284585
40
0.4666519
50
250.7884749
51
270.6489167
0
ARC
8
DEFAULT_255_1_234
10
22.886082
20
76.4647319
40
0.4009729
50
219.3627325
51
250.0611886
0
ARC
8
DEFAULT_255_1_234
10
22.9690031
20
76.5352042
40
0.5097822
50
193.5479632
51
219.5756669
0
ARC
8
DEFAULT_255_1_234
10
23.2061652
20
76.5967919
40
0.7547848
50
181.1218675
51
193.87563
0
ARC
8
DEFAULT_255_1_234
10
23.4131833
20
76.607858
40
0.9620055
50
179.9918545
51
181.5394234
0
ARC
8
DEFAULT_255_1_234
10
23.2280935
20
76.7241788
40
0.7769248
50
169.5837241
51
180.2757934
0
ARC
8
DEFAULT_255_1_234
10
23.0443873
20
76.7581229
40
0.590109
50
155.0365899
51
169.6003176
0
ARC
8
DEFAULT_255_1_234
10
22.9308337
20
76.8128677
40
0.4640625
50
136.783148
51
155.2472683
0
ARC
8
DEFAULT_255_1_234
10
22.8918814
20
76.8459562
40
0.4130255
50
121.7633186
51
136.428115
0
ARC
8
DEFAULT_255_1_234
10
22.9053776
20
76.8210227
40
0.4413323
50
95.6459699
51
121.5490577
0
ARC
8
DEFAULT_255_1_234
10
22.9211058
20
76.7101949
40
0.55319
50
89.924208
51
96.1377933
0
ARC
8
DEFAULT_255_1_234
10
22.9261491
20
76.7220542
40
0.5413475
50
76.6779277
51
90.4563316
0
ARC
8
DEFAULT_255_1_234
10
22.9655114
20
76.8811114
40
0.3775041
50
47.485847
51
76.9287264
0
ARC
8
DEFAULT_255_1_234
10
22.9508087
20
76.8711159
40
0.3948286
50
16.5424086
51
46.8933463
0
ARC
8
DEFAULT_255_1_234
10
22.7900244
20
76.8182861
40
0.564021
50
5.4072051
51
17.0365086
0
ARC
8
DEFAULT_255_1_234
10
22.6461261
20
76.7951679
40
0.5556559
50
7.8891745
51
15.9239216
0
ARC
8
DEFAULT_255_1_234
10
22.8448274
20
76.8528631
40
0.3487515
50
15.7653144
51
27.9410532
0
ARC
8
DEFAULT_255_1_234
10
22.9552492
20
76.911979
40
0.2235026
50
27.8166557
51
46.4008329
0
ARC
8
DEFAULT_255_1_234
10
22.9602135
20
76.9114082
40
0.2205286
50
47.4371857
51
75.0698205
0
ARC
8
DEFAULT_255_1_234
10
22.9293529
20
76.8039765
40
0.3322915
50
74.7008593
51
87.8124495
0
ARC
8
DEFAULT_255_1_234
10
22.9220217
20
76.6983844
40
0.4380987
50
87.3814673
51
90.0240855
0
ARC
8
DEFAULT_255_1_234
10
22.918176
20
76.8161291
40
0.3203749
50
89.3451631
51
108.5745436
0
ARC
8
DEFAULT_255_1_234
10
22.9044865
20
76.8674908
40
0.2673494
50
109.2998449
51
143.3037509
0
ARC
8
DEFAULT_255_1_234
10
22.9806938
20
76.8088881
40
0.3634757
50
143.0753173
51
163.1916937
0
ARC
8
DEFAULT_255_1_234
10
23.1758666
20
76.7472967
40
0.5681262
50
162.9373603
51
174.6208611
0
ARC
8
DEFAULT_255_1_234
10
23.4384708
20
76.718501
40
0.8322832
50
174.3419979
51
180.1430411
0
ARC
8
DEFAULT_255_1_234
10
23.3453864
20
76.5990698
40
0.7392076
50
179.6817502
51
189.150529
0
ARC
8
DEFAULT_255_1_234
10
23.0953112
20
76.557419
40
0.4856932
50
188.9910863
51
203.5773039
0
ARC
8
DEFAULT_255_1_234
10
22.9873445
20
76.5126211
40
0.3688271
50
203.9077269
51
215.1312379
0
ARC
8
DEFAULT_255_1_234
10
22.8950539
20
76.4410941
40
0.2522457
50
213.9071664
51
263.8849284
0
ARC
8
DEFAULT_255_1_234
10
22.9075868
20
76.5195518
40
0.3316174
50
263.1758525
51
270.1031083
0
ARC
8
DEFAULT_255_1_234
10
22.910796
20
76.6442365
40
0.4563091
50
269.6719807
51
279.0609165
0
ARC
8
DEFAULT_255_1_234
10
22.9374728
20
76.4829907
40
0.2928759
50
278.8750225
51
293.6346586
0
ARC
8
DEFAULT_255_1_234
10
22.9694936
20
76.40779
40
0.2111472
50
293.8553404
51
310.0518804
0
ARC
8
DEFAULT_255_1_234
10
22.969979
20
76.4015516
40
0.2060917
50
311.0646779
51
332.0108348
0
ARC
8
DEFAULT_255_1_234
10
22.8507517
20
76.4672978
40
0.3422352
50
331.6588543
51
343.2878891
0
ARC
8
DEFAULT_255_1_234
10
22.6445032
20
76.5306798
40
0.5580003
50
343.1446044
51
351.010618
0
ARC
8
DEFAULT_255_1_234
10
22.4903678
20
76.5587871
40
0.7146438
50
350.7157277
51
351.1602153
0
LINE
8
DEFAULT_255_1_234
10
24.0117444
20
77.2529433
11
24.0117444
21
76.0779
0
LINE
8
DEFAULT_255_1_234
10
24.0117444
20
76.0779
11
23.8623541
21
76.0779
0
LINE
8
DEFAULT_255_1_234
10
23.8623541
20
76.0779
11
23.8623541
21
77.0682133
0
LINE
8
DEFAULT_255_1_234
10
23.8623541
20
77.0682133
11
23.5627703
21
76.9581785
0
LINE
8
DEFAULT_255_1_234
10
23.5627703
20
76.9581785
11
23.5627703
21
77.0931117
0
LINE
8
DEFAULT_255_1_234
10
23.5627703
20
77.0931117
11
23.9884524
21
77.2529433
0
LINE
8
DEFAULT_255_1_234
10
23.9884524
20
77.2529433
11
24.0117444
21
77.2529433
0
ENDSEC
0
EOF