0
SECTION
2
HEADER
9
$MEASUREMENT
70
1
0
ENDSEC
0
SECTION
2
TABLES
0
TABLE
2
LTYPE
0
LTYPE
72
65
70
64
2
CONTINUOUS
3
______
73
0
40
0
0
ENDTAB
0
TABLE
2
LAYER
0
LAYER
2
DEFAULT_255_2_778
70
0
62
255
6
CONTINUOUS
0
LAYER
2
DEFAULT_255_1_234
70
0
62
255
6
CONTINUOUS
0
ENDTAB
0
ENDSEC
0
SECTION
2
ENTITIES
0
ARC
8
DEFAULT_255_2_778
10
3.5700693
20
28.1802037
40
0.7914215
50
129.1312896
51
180.1450914
0
ARC
8
DEFAULT_255_2_778
10
3.5703345
20
28.1806908
40
0.7912112
50
89.854026
51
129.1684493
0
ARC
8
DEFAULT_255_2_778
10
25.7993937
20
28.1803773
40
0.7915249
50
39.4792447
51
90.147911
0
ARC
8
DEFAULT_255_2_778
10
25.7999935
20
28.180224
40
0.7911595
50
359.8533901
51
39.5154338
0
ARC
8
DEFAULT_255_2_778
10
25.7996693
20
-1.9863486
40
0.7914836
50
309.4761667
51
0.1482649
0
ARC
8
DEFAULT_255_2_778
10
25.799398
20
-1.9867797
40
0.7913235
50
269.8517415
51
309.511178
0
ARC
8
DEFAULT_255_2_778
10
3.570342
20
-1.9867215
40
0.7913815
50
219.1282118
51
270.1454017
0
ARC
8
DEFAULT_255_2_778
10
3.5700247
20
-1.986339
40
0.7913769
50
179.8524075
51
219.1641908
0
LINE
8
DEFAULT_255_2_778
10
3.5723503
20
28.9718996
11
25.7973503
21
28.9718996
0
LINE
8
DEFAULT_255_2_778
10
26.5911503
20
28.1781996
11
26.5911503
21
-1.9843004
0
LINE
8
DEFAULT_255_2_778
10
25.7973503
20
-2.7781004
11
3.5723503
21
-2.7781004
0
LINE
8
DEFAULT_255_2_778
10
2.7786503
20
-1.9843004
11
2.7786503
21
28.1781996
0
LINE
8
DEFAULT_255_1_234
10
10.4481344
20
-0.1934909
11
10.1726458
21
-0.1934909
0
LINE
8
DEFAULT_255_1_234
10
10.1726458
20
-0.1934909
11
10.1726458
21
-0.6513
0
LINE
8
DEFAULT_255_1_234
10
10.1726458
20
-0.6513
11
10.0184364
21
-0.6513
0
LINE
8
DEFAULT_255_1_234
10
10.0184364
20
-0.6513
11
10.0184364
21
0.5181211
0
LINE
8
DEFAULT_255_1_234
10
10.0184364
20
0.5181211
11
10.4497407
21
0.5181211
0
LINE
8
DEFAULT_255_1_234
10
10.1726458
20
0.3912196
11
10.1726458
21
-0.0673926
0
LINE
8
DEFAULT_255_1_234
10
10.1726458
20
-0.0673926
11
10.4497407
21
-0.0673926
0
LINE
8
DEFAULT_255_1_234
10
10.4585756
20
0.3912196
11
10.1726458
21
0.3912196
0
ARC
8
DEFAULT_255_1_234
10
10.4539534
20
-0.0877805
40
0.6059162
50
78.8378113
51
90.3983573
0
ARC
8
DEFAULT_255_1_234
10
10.4955548
20
0.1142879
40
0.3996205
50
58.9632738
51
79.0810598
0
ARC
8
DEFAULT_255_1_234
10
10.525709
20
0.1702721
40
0.3361177
50
48.0197965
51
58.447194
0
ARC
8
DEFAULT_255_1_234
10
10.5345951
20
0.1788225
40
0.3238191
50
3.3375044
51
48.1766626
0
ARC
8
DEFAULT_255_1_234
10
10.411579
20
0.1611171
40
0.4477806
50
359.9477528
51
4.6829065
0
ARC
8
DEFAULT_255_1_234
10
10.4239107
20
0.1568628
40
0.4354656
50
346.1877825
51
0.5060252
0
ARC
8
DEFAULT_255_1_234
10
10.5597975
20
0.1215731
40
0.295089
50
310.8831995
51
346.5426355
0
ARC
8
DEFAULT_255_1_234
10
10.5289395
20
0.1632695
40
0.3468331
50
286.6925341
51
310.2288297
0
ARC
8
DEFAULT_255_1_234
10
10.4720226
20
0.3422882
40
0.5346654
50
274.6850312
51
287.0245141
0
ARC
8
DEFAULT_255_1_234
10
10.4494949
20
0.5631932
40
0.7566852
50
269.8969846
51
275.018904
0
ARC
8
DEFAULT_255_1_234
10
10.452254
20
0.3552707
40
0.4226708
50
269.6593078
51
279.4153575
0
ARC
8
DEFAULT_255_1_234
10
10.4779815
20
0.2062133
40
0.2714146
50
279.2049762
51
294.9900808
0
ARC
8
DEFAULT_255_1_234
10
10.5070141
20
0.1414508
40
0.2004525
50
295.2888114
51
311.2911209
0
ARC
8
DEFAULT_255_1_234
10
10.5141035
20
0.130922
40
0.1878703
50
311.7854996
51
347.2861051
0
ARC
8
DEFAULT_255_1_234
10
10.4157194
20
0.1562092
40
0.2894234
50
346.6893224
51
0.1059443
0
ARC
8
DEFAULT_255_1_234
10
10.3402089
20
0.1590685
40
0.3649409
50
359.6350983
51
0.0053152
0
ARC
8
DEFAULT_255_1_234
10
10.4372417
20
0.1615937
40
0.2679199
50
359.4672059
51
15.5933957
0
ARC
8
DEFAULT_255_1_234
10
10.4997306
20
0.1784779
40
0.2031932
50
15.7442113
51
46.6203375
0
ARC
8
DEFAULT_255_1_234
10
10.4849527
20
0.1614484
40
0.2257226
50
46.8628658
51
75.6676503
0
ARC
8
DEFAULT_255_1_234
10
10.4555347
20
0.0555718
40
0.3355939
50
75.276167
51
88.2915297
0
ARC
8
DEFAULT_255_1_234
10
10.4497054
20
-0.0322476
40
0.4235602
50
87.8575022
51
88.8000139
0
LINE
8
DEFAULT_255_1_234
10
11.7838125
20
-0.5300208
11
11.7838125
21
-0.6513
0
LINE
8
DEFAULT_255_1_234
10
11.7838125
20
-0.6513
11
11.0175846
21
-0.6513
0
LINE
8
DEFAULT_255_1_234
10
11.0175846
20
-0.6513
11
11.0175846
21
-0.5444779
0
LINE
8
DEFAULT_255_1_234
10
11.0175846
20
-0.5444779
11
11.4223842
21
-0.0947005
0
LINE
8
DEFAULT_255_1_234
10
11.1436829
20
0.1735595
11
10.9950958
21
0.1735595
0
LINE
8
DEFAULT_255_1_234
10
11.5099302
20
-0.1902782
11
11.1966924
21
-0.5300208
0
LINE
8
DEFAULT_255_1_234
10
11.1966924
20
-0.5300208
11
11.7838125
21
-0.5300208
0
ARC
8
DEFAULT_255_1_234
10
10.0733676
20
1.0982527
40
1.8008286
50
318.5132453
51
320.7828378
0
ARC
8
DEFAULT_255_1_234
10
10.602065
20
0.6679426
40
1.1191493
50
320.7372736
51
323.9737074
0
ARC
8
DEFAULT_255_1_234
10
10.9940506
20
0.3839361
40
0.6350923
50
323.8961724
51
328.6421089
0
ARC
8
DEFAULT_255_1_234
10
11.1987102
20
0.2577031
40
0.3946393
50
328.8299013
51
331.789948
0
ARC
8
DEFAULT_255_1_234
10
11.298428
20
0.2062509
40
0.2824501
50
331.4255242
51
352.9364833
0
ARC
8
DEFAULT_255_1_234
10
11.3120781
20
0.2031976
40
0.2685315
50
353.2248685
51
0.0169286
0
ARC
8
DEFAULT_255_1_234
10
11.3330658
20
0.205495
40
0.2475536
50
359.4866256
51
15.9339782
0
ARC
8
DEFAULT_255_1_234
10
11.3837643
20
0.2191286
40
0.1950618
50
16.1714718
51
43.5284424
0
ARC
8
DEFAULT_255_1_234
10
11.3914952
20
0.2268573
40
0.184134
50
43.4415429
51
83.1661404
0
ARC
8
DEFAULT_255_1_234
10
11.378087
20
0.1531771
40
0.258926
50
82.160215
51
90.1505798
0
ARC
8
DEFAULT_255_1_234
10
11.3749297
20
0.0994865
40
0.3126255
50
89.5460705
51
102.5418777
0
ARC
8
DEFAULT_255_1_234
10
11.3506383
20
0.2025665
40
0.2067346
50
102.1739365
51
129.2061916
0
ARC
8
DEFAULT_255_1_234
10
11.3427455
20
0.2150094
40
0.1921118
50
129.7279328
51
135.7542026
0
ARC
8
DEFAULT_255_1_234
10
11.3548983
20
0.2053045
40
0.2075944
50
136.175737
51
166.3674722
0
ARC
8
DEFAULT_255_1_234
10
11.4555902
20
0.1783182
40
0.3118201
50
165.9092917
51
178.8683903
0
ARC
8
DEFAULT_255_1_234
10
11.5420763
20
0.1736179
40
0.3983935
50
178.438168
51
180.0083905
0
ARC
8
DEFAULT_255_1_234
10
11.4019365
20
0.1775231
40
0.4068601
50
163.2878735
51
180.5581814
0
ARC
8
DEFAULT_255_1_234
10
11.3217627
20
0.199584
40
0.3237344
50
133.454115
51
162.9470031
0
ARC
8
DEFAULT_255_1_234
10
11.3396168
20
0.1806
40
0.349795
50
100.7869394
51
133.4384016
0
ARC
8
DEFAULT_255_1_234
10
11.3743939
20
0.0257319
40
0.5084616
50
89.6605301
51
101.3704185
0
ARC
8
DEFAULT_255_1_234
10
11.3810278
20
0.0318496
40
0.502348
50
78.2171172
51
90.4130393
0
ARC
8
DEFAULT_255_1_234
10
11.4165357
20
0.1942637
40
0.3361092
50
55.9268222
51
78.4888551
0
ARC
8
DEFAULT_255_1_234
10
11.4361797
20
0.2281324
40
0.2970617
50
47.9292255
51
55.4054003
0
ARC
8
DEFAULT_255_1_234
10
11.4463357
20
0.2384502
40
0.2825983
50
4.3347696
51
48.0560701
0
ARC
8
DEFAULT_255_1_234
10
11.3367751
20
0.2214601
40
0.393225
50
359.925209
51
5.5967654
0
ARC
8
DEFAULT_255_1_234
10
11.3796643
20
0.2270816
40
0.3503892
50
337.8914096
51
358.9967724
0
ARC
8
DEFAULT_255_1_234
10
11.1083055
20
0.3317706
40
0.6412172
50
326.9135351
51
338.3505194
0
ARC
8
DEFAULT_255_1_234
10
10.7097359
20
0.5872284
40
1.1146189
50
319.6472867
51
327.095818
0
ARC
8
DEFAULT_255_1_234
10
10.3264362
20
0.9034
40
1.6114559
50
317.2586784
51
319.9046139
0
LINE
8
DEFAULT_255_1_234
10
12.2657167
20
-0.0938974
11
12.2657167
21
-0.2151766
0
LINE
8
DEFAULT_255_1_234
10
12.2657167
20
-0.2151766
11
11.8737679
21
-0.2151766
0
LINE
8
DEFAULT_255_1_234
10
11.8737679
20
-0.2151766
11
11.8737679
21
-0.0938974
0
LINE
8
DEFAULT_255_1_234
10
11.8737679
20
-0.0938974
11
12.2657167
21
-0.0938974
0
LINE
8
DEFAULT_255_1_234
10
13.1283254
20
0.0402327
11
13.1283254
21
-0.1525291
0
LINE
8
DEFAULT_255_1_234
10
12.3902087
20
-0.1726084
11
12.3902087
21
0.0257755
0
LINE
8
DEFAULT_255_1_234
10
12.9797383
20
-0.1926877
11
12.9797383
21
0.0506739
0
LINE
8
DEFAULT_255_1_234
10
12.5387958
20
0.0619184
11
12.5387958
21
-0.1758211
0
ARC
8
DEFAULT_255_1_234
10
11.9036144
20
-0.1574195
40
1.2247208
50
353.8441951
51
0.2287902
0
ARC
8
DEFAULT_255_1_234
10
12.3675648
20
-0.2092194
40
0.7578929
50
344.4934747
51
353.9765454
0
ARC
8
DEFAULT_255_1_234
10
12.6668238
20
-0.2943019
40
0.4467846
50
329.2803592
51
344.7472793
0
ARC
8
DEFAULT_255_1_234
10
12.7661063
20
-0.3487982
40
0.3336173
50
324.9352394
51
328.6160465
0
ARC
8
DEFAULT_255_1_234
10
12.8038171
20
-0.3751573
40
0.2876076
50
280.580143
51
324.9173126
0
ARC
8
DEFAULT_255_1_234
10
12.7636964
20
-0.2080901
40
0.4592847
50
269.5977311
51
281.6734359
0
ARC
8
DEFAULT_255_1_234
10
12.756487
20
-0.2200827
40
0.4472986
50
256.6228859
51
270.51044
0
ARC
8
DEFAULT_255_1_234
10
12.7162847
20
-0.3749123
40
0.2873874
50
215.8618325
51
257.2788573
0
ARC
8
DEFAULT_255_1_234
10
12.8183879
20
-0.3064023
40
0.4102928
50
197.9693508
51
215.2623606
0
ARC
8
DEFAULT_255_1_234
10
13.0668995
20
-0.2225291
40
0.6725652
50
187.8816417
51
198.2346507
0
ARC
8
DEFAULT_255_1_234
10
13.4627203
20
-0.1653921
40
1.0724845
50
180.8976217
51
188.0055519
0
ARC
8
DEFAULT_255_1_234
10
13.7427391
20
-0.1550223
40
1.3526448
50
180.7449369
51
181.1510016
0
ARC
8
DEFAULT_255_1_234
10
13.585012
20
0.0306042
40
1.1948131
50
173.7675579
51
180.231553
0
ARC
8
DEFAULT_255_1_234
10
13.1332267
20
0.0816666
40
0.7401564
50
164.3058563
51
173.9002247
0
ARC
8
DEFAULT_255_1_234
10
12.8420336
20
0.1655656
40
0.4371288
50
148.7922025
51
164.568378
0
ARC
8
DEFAULT_255_1_234
10
12.7468788
20
0.2186929
40
0.3282386
50
144.5883898
51
148.1176286
0
ARC
8
DEFAULT_255_1_234
10
12.7125686
20
0.2426315
40
0.2864044
50
101.6440918
51
144.514236
0
ARC
8
DEFAULT_255_1_234
10
12.7550752
20
0.0737069
40
0.4604934
50
89.5284041
51
102.5819763
0
ARC
8
DEFAULT_255_1_234
10
12.762984
20
0.0698018
40
0.464401
50
77.0437873
51
90.5081339
0
ARC
8
DEFAULT_255_1_234
10
12.8031842
20
0.2340615
40
0.2953195
50
48.2778575
51
77.4994676
0
ARC
8
DEFAULT_255_1_234
10
12.8104473
20
0.2469746
40
0.2808655
50
36.3142134
51
47.6305865
0
ARC
8
DEFAULT_255_1_234
10
12.723578
20
0.1884515
40
0.3855453
50
18.2931786
51
35.6769206
0
ARC
8
DEFAULT_255_1_234
10
12.4692539
20
0.1011593
40
0.654423
50
8.024666
51
18.5605216
0
ARC
8
DEFAULT_255_1_234
10
12.0529459
20
0.0396792
40
1.0752407
50
1.1274072
51
8.1718305
0
ARC
8
DEFAULT_255_1_234
10
11.729365
20
0.0269885
40
1.3990231
50
0.5424119
51
1.3863029
0
ARC
8
DEFAULT_255_1_234
10
11.9115027
20
0.0542342
40
1.0682415
50
359.8090433
51
4.9407866
0
ARC
8
DEFAULT_255_1_234
10
12.3325041
20
0.0918113
40
0.6455691
50
4.8362157
51
12.2904523
0
ARC
8
DEFAULT_255_1_234
10
12.6080156
20
0.1531965
40
0.3633074
50
12.0805627
51
23.8173984
0
ARC
8
DEFAULT_255_1_234
10
12.7253862
20
0.2028919
40
0.2358723
50
24.2871213
51
31.3935614
0
ARC
8
DEFAULT_255_1_234
10
12.7778559
20
0.2372233
40
0.1732111
50
30.7407893
51
82.4657128
0
ARC
8
DEFAULT_255_1_234
10
12.7598693
20
0.1488691
40
0.263235
50
81.1060089
51
90.2184952
0
ARC
8
DEFAULT_255_1_234
10
12.7562992
20
0.1746924
40
0.2374236
50
89.3806855
51
105.6762551
0
ARC
8
DEFAULT_255_1_234
10
12.7379623
20
0.2413567
40
0.1682847
50
105.7981136
51
149.7388061
0
ARC
8
DEFAULT_255_1_234
10
12.8443701
20
0.177395
40
0.2924306
50
149.4208916
51
163.6286378
0
ARC
8
DEFAULT_255_1_234
10
13.0534589
20
0.113625
40
0.5110213
50
163.3763315
51
172.1410975
0
ARC
8
DEFAULT_255_1_234
10
13.3835308
20
0.0663518
40
0.8444586
50
172.0259487
51
178.0703232
0
ARC
8
DEFAULT_255_1_234
10
13.6865397
20
0.0519906
40
1.1477868
50
177.8631668
51
179.5044149
0
ARC
8
DEFAULT_255_1_234
10
13.5792802
20
-0.1794611
40
1.0404907
50
179.7995573
51
185.2460446
0
ARC
8
DEFAULT_255_1_234
10
13.1749841
20
-0.2177487
40
0.6343885
50
185.1411642
51
193.0079639
0
ARC
8
DEFAULT_255_1_234
10
12.9106314
20
-0.2802359
40
0.3627568
50
192.7897626
51
205.2507664
0
ARC
8
DEFAULT_255_1_234
10
12.8059861
20
-0.3269585
40
0.2481908
50
205.8005384
51
211.2537509
0
ARC
8
DEFAULT_255_1_234
10
12.7536301
20
-0.362042
40
0.1852521
50
210.3789793
51
238.4008143
0
ARC
8
DEFAULT_255_1_234
10
12.7516823
20
-0.3573624
40
0.1882621
50
239.6520629
51
265.9793761
0
ARC
8
DEFAULT_255_1_234
10
12.7602023
20
-0.2901573
40
0.2559272
50
265.1315437
51
270.060332
0
ARC
8
DEFAULT_255_1_234
10
12.7630802
20
-0.3225466
40
0.2235528
50
269.3314664
51
287.2178029
0
ARC
8
DEFAULT_255_1_234
10
12.7768654
20
-0.3728721
40
0.1714108
50
287.7958004
51
329.080874
0
ARC
8
DEFAULT_255_1_234
10
12.6811111
20
-0.313107
40
0.2842745
50
328.6634704
51
343.3325132
0
ARC
8
DEFAULT_255_1_234
10
12.4638131
20
-0.2454137
40
0.5118644
50
343.0499468
51
351.9393422
0
ARC
8
DEFAULT_255_1_234
10
12.1171431
20
-0.1943051
40
0.8622784
50
351.8069023
51
357.7959224
0
ARC
8
DEFAULT_255_1_234
10
11.7935987
20
-0.1775279
40
1.1862365
50
357.5871873
51
359.2677531
0
LINE
8
DEFAULT_255_1_234
10
13.8070073
20
0.5237433
11
13.8070073
21
-0.6513
0
LINE
8
DEFAULT_255_1_234
10
13.8070073
20
-0.6513
11
13.657617
21
-0.6513
0
LINE
8
DEFAULT_255_1_234
10
13.657617
20
-0.6513
11
13.657617
21
0.3390133
0
LINE
8
DEFAULT_255_1_234
10
13.657617
20
0.3390133
11
13.3580332
21
0.2289785
0
LINE
8
DEFAULT_255_1_234
10
13.3580332
20
0.2289785
11
13.3580332
21
0.3639117
0
LINE
8
DEFAULT_255_1_234
10
13.3580332
20
0.3639117
11
13.7837153
21
0.5237433
0
LINE
8
DEFAULT_255_1_234
10
13.7837153
20
0.5237433
11
13.8070073
21
0.5237433
0
LINE
8
DEFAULT_255_1_234
10
14.6045589
20
-0.6513
11
14.2808799
21
-0.6513
0
LINE
8
DEFAULT_255_1_234
10
14.2808799
20
-0.6513
11
14.2808799
21
0.5181211
0
LINE
8
DEFAULT_255_1_234
10
14.2808799
20
0.5181211
11
14.6109843
21
0.5181211
0
LINE
8
DEFAULT_255_1_234
10
15.1266219
20
-0.0272339
11
15.1266219
21
-0.1019291
0
LINE
8
DEFAULT_255_1_234
10
14.6150002
20
0.3912196
11
14.4350893
21
0.3912196
0
LINE
8
DEFAULT_255_1_234
10
14.4350893
20
0.3912196
11
14.4350893
21
-0.5252017
0
LINE
8
DEFAULT_255_1_234
10
14.4350893
20
-0.5252017
11
14.5973304
21
-0.5252017
0
LINE
8
DEFAULT_255_1_234
10
14.9740189
20
-0.0987164
11
14.9740189
21
-0.0304466
0
ARC
8
DEFAULT_255_1_234
10
14.6148786
20
-0.0684106
40
0.5865446
50
75.4101064
51
90.3804066
0
ARC
8
DEFAULT_255_1_234
10
14.6378299
20
0.0272492
40
0.4881916
50
60.145586
51
75.1888407
0
ARC
8
DEFAULT_255_1_234
10
14.6537075
20
0.0549199
40
0.4562893
50
26.5253612
51
60.1450928
0
ARC
8
DEFAULT_255_1_234
10
14.5416824
20
-0.0044842
40
0.5830602
50
7.4030428
51
26.8320788
0
ARC
8
DEFAULT_255_1_234
10
14.3822581
20
-0.0293196
40
0.7443669
50
0.1605367
51
7.7176192
0
ARC
8
DEFAULT_255_1_234
10
14.3986485
20
-0.1057566
40
0.7279835
50
348.7289388
51
0.3012466
0
ARC
8
DEFAULT_255_1_234
10
14.5642916
20
-0.1386614
40
0.559104
50
333.0706509
51
348.7181832
0
ARC
8
DEFAULT_255_1_234
10
14.6609673
20
-0.1911681
40
0.4491417
50
299.2531685
51
333.4571258
0
ARC
8
DEFAULT_255_1_234
10
14.6248813
20
-0.1226172
40
0.5265881
50
278.107187
51
299.0339503
0
ARC
8
DEFAULT_255_1_234
10
14.5992892
20
0.0281216
40
0.679442
50
270.4443897
51
278.4511052
0
ARC
8
DEFAULT_255_1_234
10
14.6013722
20
-0.0647787
40
0.4604407
50
269.4970433
51
284.0205042
0
ARC
8
DEFAULT_255_1_234
10
14.6369023
20
-0.2013022
40
0.3193797
50
283.7700273
51
318.1555492
0
ARC
8
DEFAULT_255_1_234
10
14.6031781
20
-0.1760633
40
0.3613588
50
318.7415601
51
343.6873628
0
ARC
8
DEFAULT_255_1_234
10
14.4227804
20
-0.1197168
40
0.5503313
50
343.3325091
51
355.8548958
0
ARC
8
DEFAULT_255_1_234
10
14.2129489
20
-0.0997681
40
0.7610708
50
355.4988528
51
0.0791727
0
ARC
8
DEFAULT_255_1_234
10
14.2912111
20
-0.026222
40
0.6828208
50
359.6455037
51
9.8607896
0
ARC
8
DEFAULT_255_1_234
10
14.5272809
20
0.0164099
40
0.4429406
50
9.6571907
51
26.1932807
0
ARC
8
DEFAULT_255_1_234
10
14.6200798
20
0.0595118
40
0.3406537
50
26.5777228
51
40.1532208
0
ARC
8
DEFAULT_255_1_234
10
14.6456524
20
0.0794619
40
0.308246
50
40.3840491
51
80.1431104
0
ARC
8
DEFAULT_255_1_234
10
14.6129642
20
-0.0654667
40
0.4566909
50
79.2152159
51
89.7445637
0
LINE
8
DEFAULT_255_1_234
10
16.064729
20
-0.2802337
11
16.2197415
21
-0.2802337
0
LINE
8
DEFAULT_255_1_234
10
15.3193836
20
-0.1212053
11
15.3193836
21
-0.0087609
0
LINE
8
DEFAULT_255_1_234
10
16.2197415
20
0.1422357
11
16.064729
21
0.1422357
0
LINE
8
DEFAULT_255_1_234
10
15.4743962
20
-0.0127768
11
15.4743962
21
-0.1260243
0
ARC
8
DEFAULT_255_1_234
10
15.6716802
20
-0.2205154
40
0.5513052
50
340.1774281
51
353.7814284
0
ARC
8
DEFAULT_255_1_234
10
15.8288154
20
-0.2790418
40
0.3836379
50
311.4558989
51
340.4421614
0
ARC
8
DEFAULT_255_1_234
10
15.8254823
20
-0.2679472
40
0.3941894
50
282.4333181
51
310.7513653
0
ARC
8
DEFAULT_255_1_234
10
15.7815562
20
-0.0864321
40
0.5809175
50
269.9358511
51
282.809604
0
ARC
8
DEFAULT_255_1_234
10
15.7763628
20
0.0593212
40
0.7266847
50
270.0021091
51
270.3581957
0
ARC
8
DEFAULT_255_1_234
10
15.7711045
20
-0.2007415
40
0.4666519
50
250.7884749
51
270.6489167
0
ARC
8
DEFAULT_255_1_234
10
15.7542879
20
-0.2644681
40
0.4009729
50
219.3627325
51
250.0611886
0
ARC
8
DEFAULT_255_1_234
10
15.8372091
20
-0.1939958
40
0.5097822
50
193.5479632
51
219.5756669
0
ARC
8
DEFAULT_255_1_234
10
16.0743711
20
-0.1324081
40
0.7547848
50
181.1218675
51
193.87563
0
ARC
8
DEFAULT_255_1_234
10
16.2813892
20
-0.121342
40
0.9620055
50
179.9918545
51
181.5394234
0
ARC
8
DEFAULT_255_1_234
10
16.0962994
20
-0.0050212
40
0.7769248
50
169.5837241
51
180.2757934
0
ARC
8
DEFAULT_255_1_234
10
15.9125933
20
0.0289229
40
0.590109
50
155.0365899
51
169.6003176
0
ARC
8
DEFAULT_255_1_234
10
15.7990397
20
0.0836677
40
0.4640625
50
136.783148
51
155.2472683
0
ARC
8
DEFAULT_255_1_234
10
15.7600873
20
0.1167562
40
0.4130255
50
121.7633186
51
136.428115
0
ARC
8
DEFAULT_255_1_234
10
15.7735836
20
0.0918227
40
0.4413323
50
95.6459699
51
121.5490577
0
ARC
8
DEFAULT_255_1_234
10
15.7893117
20
-0.0190051
40
0.55319
50
89.924208
51
96.1377933
0
ARC
8
DEFAULT_255_1_234
10
15.794355
20
-0.0071458
40
0.5413475
50
76.6779277
51
90.4563316
0
ARC
8
DEFAULT_255_1_234
10
15.8337174
20
0.1519114
40
0.3775041
50
47.485847
51
76.9287264
0
ARC
8
DEFAULT_255_1_234
10
15.8190146
20
0.1419159
40
0.3948286
50
16.5424086
51
46.8933463
0
ARC
8
DEFAULT_255_1_234
10
15.6582303
20
0.0890861
40
0.564021
50
5.4072051
51
17.0365086
0
ARC
8
DEFAULT_255_1_234
10
15.5143321
20
0.0659679
40
0.5556559
50
7.8891745
51
15.9239216
0
ARC
8
DEFAULT_255_1_234
10
15.7130334
20
0.1236631
40
0.3487515
50
15.7653144
51
27.9410532
0
ARC
8
DEFAULT_255_1_234
10
15.8234552
20
0.182779
40
0.2235026
50
27.8166557
51
46.4008329
0
ARC
8
DEFAULT_255_1_234
10
15.8284195
20
0.1822082
40
0.2205286
50
47.4371857
51
75.0698205
0
ARC
8
DEFAULT_255_1_234
10
15.7975589
20
0.0747765
40
0.3322915
50
74.7008593
51
87.8124495
0
ARC
8
DEFAULT_255_1_234
10
15.7902277
20
-0.0308156
40
0.4380987
50
87.3814673
51
90.0240855
0
ARC
8
DEFAULT_255_1_234
10
15.786382
20
0.0869291
40
0.3203749
50
89.3451631
51
108.5745436
0
ARC
8
DEFAULT_255_1_234
10
15.7726925
20
0.1382908
40
0.2673494
50
109.2998449
51
143.3037509
0
ARC
8
DEFAULT_255_1_234
10
15.8488998
20
0.0796881
40
0.3634757
50
143.0753173
51
163.1916937
0
ARC
8
DEFAULT_255_1_234
10
16.0440725
20
0.0180967
40
0.5681262
50
162.9373603
51
174.6208611
0
ARC
8
DEFAULT_255_1_234
10
16.3066768
20
-0.010699
40
0.8322832
50
174.3419979
51
180.1430411
0
ARC
8
DEFAULT_255_1_234
10
16.2135924
20
-0.1301302
40
0.7392076
50
179.6817502
51
189.150529
0
ARC
8
DEFAULT_255_1_234
10
15.9635172
20
-0.171781
40
0.4856932
50
188.9910863
51
203.5773039
0
ARC
8
DEFAULT_255_1_234
10
15.8555505
20
-0.2165789
40
0.3688271
50
203.9077269
51
215.1312379
0
ARC
8
DEFAULT_255_1_234
10
15.7632598
20
-0.2881059
40
0.2522457
50
213.9071664
51
263.8849284
0
ARC
8
DEFAULT_255_1_234
10
15.7757928
20
-0.2096482
40
0.3316174
50
263.1758525
51
270.1031083
0
ARC
8
DEFAULT_255_1_234
10
15.7790019
20
-0.0849635
40
0.4563091
50
269.6719807
51
279.0609165
0
ARC
8
DEFAULT_255_1_234
10
15.8056787
20
-0.2462093
40
0.2928759
50
278.8750225
51
293.6346586
0
ARC
8
DEFAULT_255_1_234
10
15.8376996
20
-0.32141
40
0.2111472
50
293.8553404
51
310.0518804
0
ARC
8
DEFAULT_255_1_234
10
15.8381849
20
-0.3276484
40
0.2060917
50
311.0646779
51
332.0108348
0
ARC
8
DEFAULT_255_1_234
10
15.7189576
20
-0.2619022
40
0.3422352
50
331.6588543
51
343.2878891
0
ARC
8
DEFAULT_255_1_234
10
15.5127091
20
-0.1985202
40
0.5580003
50
343.1446044
51
351.010618
0
ARC
8
DEFAULT_255_1_234
10
15.3585737
20
-0.1704129
40
0.7146438
50
350.7157277
51
351.1602153
0
LINE
8
DEFAULT_255_1_234
10
17.187566
20
-0.6513
11
17.0759248
21
-0.3460939
0
LINE
8
DEFAULT_255_1_234
10
17.0759248
20
-0.3460939
11
16.5859888
21
-0.3460939
0
LINE
8
DEFAULT_255_1_234
10
16.5859888
20
-0.3460939
11
16.475954
21
-0.6513
0
LINE
8
DEFAULT_255_1_234
10
16.475954
20
-0.6513
11
16.3169255
21
-0.6513
0
LINE
8
DEFAULT_255_1_234
10
16.3169255
20
-0.6513
11
16.7634902
21
0.5181211
0
LINE
8
DEFAULT_255_1_234
10
16.7634902
20
0.5181211
11
16.8984234
21
0.5181211
0
LINE
8
DEFAULT_255_1_234
10
16.8984234
20
0.5181211
11
17.3457912
21
-0.6513
0
LINE
8
DEFAULT_255_1_234
10
17.3457912
20
-0.6513
11
17.187566
21
-0.6513
0
LINE
8
DEFAULT_255_1_234
10
16.8309568
20
0.3277689
11
16.6325729
21
-0.2191925
0
LINE
8
DEFAULT_255_1_234
10
16.6325729
20
-0.2191925
11
17.0301439
21
-0.2191925
0
LINE
8
DEFAULT_255_1_234
10
17.0301439
20
-0.2191925
11
16.8309568
21
0.3277689
0
LINE
8
DEFAULT_255_1_234
10
18.199565
20
-0.2802337
11
18.3545775
21
-0.2802337
0
LINE
8
DEFAULT_255_1_234
10
17.4542197
20
-0.1212053
11
17.4542197
21
-0.0087609
0
LINE
8
DEFAULT_255_1_234
10
18.3545775
20
0.1422357
11
18.199565
21
0.1422357
0
LINE
8
DEFAULT_255_1_234
10
17.6092322
20
-0.0127768
11
17.6092322
21
-0.1260243
0
ARC
8
DEFAULT_255_1_234
10
17.8065162
20
-0.2205154
40
0.5513052
50
340.1774281
51
353.7814284
0
ARC
8
DEFAULT_255_1_234
10
17.9636514
20
-0.2790418
40
0.3836379
50
311.4558989
51
340.4421614
0
ARC
8
DEFAULT_255_1_234
10
17.9603183
20
-0.2679472
40
0.3941894
50
282.4333181
51
310.7513653
0
ARC
8
DEFAULT_255_1_234
10
17.9163922
20
-0.0864321
40
0.5809175
50
269.9358511
51
282.809604
0
ARC
8
DEFAULT_255_1_234
10
17.9111988
20
0.0593212
40
0.7266847
50
270.0021091
51
270.3581957
0
ARC
8
DEFAULT_255_1_234
10
17.9059405
20
-0.2007415
40
0.4666519
50
250.7884749
51
270.6489167
0
ARC
8
DEFAULT_255_1_234
10
17.889124
20
-0.2644681
40
0.4009729
50
219.3627325
51
250.0611886
0
ARC
8
DEFAULT_255_1_234
10
17.9720451
20
-0.1939958
40
0.5097822
50
193.5479632
51
219.5756669
0
ARC
8
DEFAULT_255_1_234
10
18.2092072
20
-0.1324081
40
0.7547848
50
181.1218675
51
193.87563
0
ARC
8
DEFAULT_255_1_234
10
18.4162253
20
-0.121342
40
0.9620055
50
179.9918545
51
181.5394234
0
ARC
8
DEFAULT_255_1_234
10
18.2311355
20
-0.0050212
40
0.7769248
50
169.5837241
51
180.2757934
0
ARC
8
DEFAULT_255_1_234
10
18.0474293
20
0.0289229
40
0.590109
50
155.0365899
51
169.6003176
0
ARC
8
DEFAULT_255_1_234
10
17.9338757
20
0.0836677
40
0.4640625
50
136.783148
51
155.2472683
0
ARC
8
DEFAULT_255_1_234
10
17.8949234
20
0.1167562
40
0.4130255
50
121.7633186
51
136.428115
0
ARC
8
DEFAULT_255_1_234
10
17.9084196
20
0.0918227
40
0.4413323
50
95.6459699
51
121.5490577
0
ARC
8
DEFAULT_255_1_234
10
17.9241478
20
-0.0190051
40
0.55319
50
89.924208
51
96.1377933
0
ARC
8
DEFAULT_255_1_234
10
17.9291911
20
-0.0071458
40
0.5413475
50
76.6779277
51
90.4563316
0
ARC
8
DEFAULT_255_1_234
10
17.9685534
20
0.1519114
40
0.3775041
50
47.485847
51
76.9287264
0
ARC
8
DEFAULT_255_1_234
10
17.9538507
20
0.1419159
40
0.3948286
50
16.5424086
51
46.8933463
0
ARC
8
DEFAULT_255_1_234
10
17.7930664
20
0.0890861
40
0.564021
50
5.4072051
51
17.0365086
0
ARC
8
DEFAULT_255_1_234
10
17.6491681
20
0.0659679
40
0.5556559
50
7.8891745
51
15.9239216
0
ARC
8
DEFAULT_255_1_234
10
17.8478694
20
0.1236631
40
0.3487515
50
15.7653144
51
27.9410532
0
ARC
8
DEFAULT_255_1_234
10
17.9582912
20
0.182779
40
0.2235026
50
27.8166557
51
46.4008329
0
ARC
8
DEFAULT_255_1_234
10
17.9632555
20
0.1822082
40
0.2205286
50
47.4371857
51
75.0698205
0
ARC
8
DEFAULT_255_1_234
10
17.9323949
20
0.0747765
40
0.3322915
50
74.7008593
51
87.8124495
0
ARC
8
DEFAULT_255_1_234
10
17.9250637
20
-0.0308156
40
0.4380987
50
87.3814673
51
90.0240855
0
ARC
8
DEFAULT_255_1_234
10
17.921218
20
0.0869291
40
0.3203749
50
89.3451631
51
108.5745436
0
ARC
8
DEFAULT_255_1_234
10
17.9075285
20
0.1382908
40
0.2673494
50
109.2998449
51
143.3037509
0
ARC
8
DEFAULT_255_1_234
10
17.9837358
20
0.0796881
40
0.3634757
50
143.0753173
51
163.1916937
0
ARC
8
DEFAULT_255_1_234
10
18.1789086
20
0.0180967
40
0.5681262
50
162.9373603
51
174.6208611
0
ARC
8
DEFAULT_255_1_234
10
18.4415128
20
-0.010699
40
0.8322832
50
174.3419979
51
180.1430411
0
ARC
8
DEFAULT_255_1_234
10
18.3484284
20
-0.1301302
40
0.7392076
50
179.6817502
51
189.150529
0
ARC
8
DEFAULT_255_1_234
10
18.0983532
20
-0.171781
40
0.4856932
50
188.9910863
51
203.5773039
0
ARC
8
DEFAULT_255_1_234
10
17.9903865
20
-0.2165789
40
0.3688271
50
203.9077269
51
215.1312379
0
ARC
8
DEFAULT_255_1_234
10
17.8980959
20
-0.2881059
40
0.2522457
50
213.9071664
51
263.8849284
0
ARC
8
DEFAULT_255_1_234
10
17.9106288
20
-0.2096482
40
0.3316174
50
263.1758525
51
270.1031083
0
ARC
8
DEFAULT_255_1_234
10
17.9138379
20
-0.0849635
40
0.4563091
50
269.6719807
51
279.0609165
0
ARC
8
DEFAULT_255_1_234
10
17.9405148
20
-0.2462093
40
0.2928759
50
278.8750225
51
293.6346586
0
ARC
8
DEFAULT_255_1_234
10
17.9725356
20
-0.32141
40
0.2111472
50
293.8553404
51
310.0518804
0
ARC
8
DEFAULT_255_1_234
10
17.973021
20
-0.3276484
40
0.2060917
50
311.0646779
51
332.0108348
0
ARC
8
DEFAULT_255_1_234
10
17.8537937
20
-0.2619022
40
0.3422352
50
331.6588543
51
343.2878891
0
ARC
8
DEFAULT_255_1_234
10
17.6475452
20
-0.1985202
40
0.5580003
50
343.1446044
51
351.010618
0
ARC
8
DEFAULT_255_1_234
10
17.4934098
20
-0.1704129
40
0.7146438
50
350.7157277
51
351.1602153
0
LINE
8
DEFAULT_255_1_234
10
8.5448344
20
22.9575091
11
8.2693458
21
22.9575091
0
LINE
8
DEFAULT_255_1_234
10
8.2693458
20
22.9575091
11
8.2693458
21
22.4997
0
LINE
8
DEFAULT_255_1_234
10
8.2693458
20
22.4997
11
8.1151364
21
22.4997
0
LINE
8
DEFAULT_255_1_234
10
8.1151364
20
22.4997
11
8.1151364
21
23.6691211
0
LINE
8
DEFAULT_255_1_234
10
8.1151364
20
23.6691211
11
8.5464407
21
23.6691211
0
LINE
8
DEFAULT_255_1_234
10
8.2693458
20
23.5422196
11
8.2693458
21
23.0836074
0
LINE
8
DEFAULT_255_1_234
10
8.2693458
20
23.0836074
11
8.5464407
21
23.0836074
0
LINE
8
DEFAULT_255_1_234
10
8.5552756
20
23.5422196
11
8.2693458
21
23.5422196
0
ARC
8
DEFAULT_255_1_234
10
8.5506534
20
23.0632195
40
0.6059162
50
78.8378113
51
90.3983573
0
ARC
8
DEFAULT_255_1_234
10
8.5922548
20
23.2652879
40
0.3996205
50
58.9632738
51
79.0810598
0
ARC
8
DEFAULT_255_1_234
10
8.622409
20
23.3212721
40
0.3361177
50
48.0197965
51
58.447194
0
ARC
8
DEFAULT_255_1_234
10
8.6312951
20
23.3298225
40
0.3238191
50
3.3375044
51
48.1766626
0
ARC
8
DEFAULT_255_1_234
10
8.508279
20
23.3121171
40
0.4477806
50
359.9477528
51
4.6829065
0
ARC
8
DEFAULT_255_1_234
10
8.5206107
20
23.3078628
40
0.4354656
50
346.1877825
51
0.5060252
0
ARC
8
DEFAULT_255_1_234
10
8.6564975
20
23.2725731
40
0.295089
50
310.8831995
51
346.5426355
0
ARC
8
DEFAULT_255_1_234
10
8.6256395
20
23.3142695
40
0.3468331
50
286.6925341
51
310.2288297
0
ARC
8
DEFAULT_255_1_234
10
8.5687226
20
23.4932882
40
0.5346654
50
274.6850312
51
287.0245141
0
ARC
8
DEFAULT_255_1_234
10
8.5461949
20
23.7141932
40
0.7566852
50
269.8969846
51
275.018904
0
ARC
8
DEFAULT_255_1_234
10
8.548954
20
23.5062707
40
0.4226708
50
269.6593078
51
279.4153575
0
ARC
8
DEFAULT_255_1_234
10
8.5746815
20
23.3572133
40
0.2714146
50
279.2049762
51
294.9900808
0
ARC
8
DEFAULT_255_1_234
10
8.6037141
20
23.2924508
40
0.2004525
50
295.2888114
51
311.2911209
0
ARC
8
DEFAULT_255_1_234
10
8.6108035
20
23.281922
40
0.1878703
50
311.7854996
51
347.2861051
0
ARC
8
DEFAULT_255_1_234
10
8.5124194
20
23.3072092
40
0.2894234
50
346.6893224
51
0.1059443
0
ARC
8
DEFAULT_255_1_234
10
8.4369089
20
23.3100685
40
0.3649409
50
359.6350983
51
0.0053152
0
ARC
8
DEFAULT_255_1_234
10
8.5339417
20
23.3125937
40
0.2679199
50
359.4672059
51
15.5933957
0
ARC
8
DEFAULT_255_1_234
10
8.5964306
20
23.3294779
40
0.2031932
50
15.7442113
51
46.6203375
0
ARC
8
DEFAULT_255_1_234
10
8.5816527
20
23.3124484
40
0.2257226
50
46.8628658
51
75.6676503
0
ARC
8
DEFAULT_255_1_234
10
8.5522347
20
23.2065718
40
0.3355939
50
75.276167
51
88.2915297
0
ARC
8
DEFAULT_255_1_234
10
8.5464054
20
23.1187524
40
0.4235602
50
87.8575022
51
88.8000139
0
LINE
8
DEFAULT_255_1_234
10
9.5496048
20
23.3735531
11
9.5496048
21
23.2354072
0
LINE
8
DEFAULT_255_1_234
10
9.2781321
20
23.1165375
11
9.2781321
21
22.4997
0
LINE
8
DEFAULT_255_1_234
10
9.2781321
20
22.4997
11
9.1295449
21
22.4997
0
LINE
8
DEFAULT_255_1_234
10
9.1295449
20
22.4997
11
9.1295449
21
23.3687341
0
LINE
8
DEFAULT_255_1_234
10
9.1295449
20
23.3687341
11
9.2741162
21
23.3687341
0
LINE
8
DEFAULT_255_1_234
10
9.2741162
20
23.3687341
11
9.2765257
21
23.2683374
0
ARC
8
DEFAULT_255_1_234
10
9.4829454
20
22.8294342
40
0.4114092
50
80.6754243
51
86.8932892
0
ARC
8
DEFAULT_255_1_234
10
9.4768988
20
22.73267
40
0.5083596
50
86.8038578
51
90.0431435
0
ARC
8
DEFAULT_255_1_234
10
9.4731969
20
22.9783866
40
0.2626638
50
89.2759698
51
106.6213787
0
ARC
8
DEFAULT_255_1_234
10
9.4527533
20
23.052683
40
0.1856317
50
107.1346045
51
157.6458115
0
ARC
8
DEFAULT_255_1_234
10
9.5219134
20
23.0143311
40
0.2643398
50
155.6586782
51
157.2539184
0
ARC
8
DEFAULT_255_1_234
10
9.5014337
20
23.1312157
40
0.2634121
50
127.8165941
51
148.6302098
0
ARC
8
DEFAULT_255_1_234
10
9.4760806
20
23.1572218
40
0.2273596
50
91.3329982
51
126.7875809
0
ARC
8
DEFAULT_255_1_234
10
9.4836746
20
23.0857195
40
0.299078
50
89.986594
51
92.4688449
0
ARC
8
DEFAULT_255_1_234
10
9.4845141
20
23.1132078
40
0.2715908
50
85.3589899
51
90.1623399
0
ARC
8
DEFAULT_255_1_234
10
9.4929657
20
23.2136164
40
0.1708278
50
78.401942
51
85.4594656
0
ARC
8
DEFAULT_255_1_234
10
9.5074541
20
23.2827236
40
0.1002194
50
67.7858312
51
78.5728455
0
ARC
8
DEFAULT_255_1_234
10
9.5182393
20
23.3106887
40
0.0702548
50
63.4835954
51
67.3062642
0
LINE
8
DEFAULT_255_1_234
10
9.6307254
20
22.9318075
11
9.6307254
21
22.9422488
0
LINE
8
DEFAULT_255_1_234
10
10.4218516
20
22.9350202
11
10.4218516
21
22.924579
0
ARC
8
DEFAULT_255_1_234
10
10.1893433
20
22.9454837
40
0.5586273
50
166.3003825
51
180.3317926
0
ARC
8
DEFAULT_255_1_234
10
10.1030593
20
22.9647964
40
0.4702272
50
153.8608245
51
166.0967125
0
ARC
8
DEFAULT_255_1_234
10
10.0364995
20
23.000475
40
0.3947658
50
135.1316692
51
154.253643
0
ARC
8
DEFAULT_255_1_234
10
10.0086555
20
23.0250666
40
0.3576898
50
121.7044358
51
134.776924
0
ARC
8
DEFAULT_255_1_234
10
10.0153548
20
23.0121867
40
0.3721701
50
93.4002104
51
121.5398234
0
ARC
8
DEFAULT_255_1_234
10
10.0248504
20
22.9296228
40
0.4551749
50
89.9706281
51
93.9769836
0
ARC
8
DEFAULT_255_1_234
10
10.0295596
20
22.9686362
40
0.4161854
50
71.3323442
51
90.6161982
0
ARC
8
DEFAULT_255_1_234
10
10.0458293
20
23.0288578
40
0.3539455
50
41.1815071
51
70.707185
0
ARC
8
DEFAULT_255_1_234
10
9.9980693
20
22.9854919
40
0.4184468
50
12.1971897
51
41.3445735
0
ARC
8
DEFAULT_255_1_234
10
9.80547
20
22.9396425
40
0.616399
50
359.5703439
51
12.5804035
0
ARC
8
DEFAULT_255_1_234
10
9.8527775
20
22.9214116
40
0.5690829
50
347.0197749
51
0.3188898
0
ARC
8
DEFAULT_255_1_234
10
9.9486277
20
22.9007808
40
0.4710501
50
334.3504053
51
346.846361
0
ARC
8
DEFAULT_255_1_234
10
10.0331701
20
22.8568805
40
0.3758475
50
310.422922
51
334.8045033
0
ARC
8
DEFAULT_255_1_234
10
10.0413526
20
22.8504782
40
0.3656736
50
301.8486886
51
310.097356
0
ARC
8
DEFAULT_255_1_234
10
10.0381252
20
22.8580638
40
0.3738224
50
274.307774
51
301.655379
0
ARC
8
DEFAULT_255_1_234
10
10.027056
20
22.9458361
40
0.4621997
50
269.9546461
51
274.8588071
0
ARC
8
DEFAULT_255_1_234
10
10.0221493
20
22.8957249
40
0.4121134
50
250.888809
51
270.631312
0
ARC
8
DEFAULT_255_1_234
10
10.0071413
20
22.8398277
40
0.3544073
50
221.1701932
51
250.2227191
0
ARC
8
DEFAULT_255_1_234
10
10.0555568
20
22.8839439
40
0.4198961
50
191.6263638
51
221.3526367
0
ARC
8
DEFAULT_255_1_234
10
10.2443563
20
22.9276329
40
0.6136451
50
179.610213
51
192.0693181
0
ARC
8
DEFAULT_255_1_234
10
10.2866791
20
22.9213633
40
0.5065736
50
179.636298
51
190.6162791
0
ARC
8
DEFAULT_255_1_234
10
10.1224459
20
22.889359
40
0.3392576
50
190.4136628
51
208.7170242
0
ARC
8
DEFAULT_255_1_234
10
10.0714084
20
22.8640366
40
0.2823401
50
209.1867941
51
217.4225593
0
ARC
8
DEFAULT_255_1_234
10
10.0184918
20
22.8174558
40
0.2120636
50
216.1156896
51
265.2575835
0
ARC
8
DEFAULT_255_1_234
10
10.0264066
20
22.8748109
40
0.2698952
50
264.5897417
51
270.0601757
0
ARC
8
DEFAULT_255_1_234
10
10.0297127
20
22.8368185
40
0.2319225
50
269.2532621
51
291.8792492
0
ARC
8
DEFAULT_255_1_234
10
10.0326348
20
22.8190238
40
0.2143562
50
292.9269754
51
323.1776747
0
ARC
8
DEFAULT_255_1_234
10
9.993317
20
22.8538452
40
0.2667346
50
322.2518483
51
323.0930371
0
ARC
8
DEFAULT_255_1_234
10
9.9638829
20
22.871999
40
0.3011886
50
323.6941278
51
343.8493282
0
ARC
8
DEFAULT_255_1_234
10
9.8060372
20
22.920035
40
0.4661719
50
343.5748474
51
355.0079071
0
ARC
8
DEFAULT_255_1_234
10
9.6052618
20
22.9408424
40
0.6680042
50
354.7285225
51
0.1206288
0
ARC
8
DEFAULT_255_1_234
10
9.7821084
20
22.9454751
40
0.4911667
50
359.623636
51
11.2015604
0
ARC
8
DEFAULT_255_1_234
10
9.9355311
20
22.977064
40
0.3345323
50
10.9989411
51
30.8319188
0
ARC
8
DEFAULT_255_1_234
10
9.9751184
20
22.9979297
40
0.2898553
50
31.3008956
51
37.3959224
0
ARC
8
DEFAULT_255_1_234
10
10.0247762
20
23.0398653
40
0.2249582
50
36.5915954
51
62.2442953
0
ARC
8
DEFAULT_255_1_234
10
10.0294216
20
23.0395602
40
0.2231053
50
63.3365542
51
89.7195421
0
ARC
8
DEFAULT_255_1_234
10
10.0251069
20
22.9826884
40
0.2800267
50
88.8936788
51
90.0047485
0
ARC
8
DEFAULT_255_1_234
10
10.0219429
20
23.0399787
40
0.2227586
50
89.1921125
51
114.7099455
0
ARC
8
DEFAULT_255_1_234
10
10.0248193
20
23.0437628
40
0.2205633
50
115.7997161
51
142.2900762
0
ARC
8
DEFAULT_255_1_234
10
10.0686925
20
23.0047658
40
0.2791541
50
141.4658779
51
142.3795754
0
ARC
8
DEFAULT_255_1_234
10
10.079583
20
23.0004557
40
0.2904292
50
143.0175714
51
163.234115
0
ARC
8
DEFAULT_255_1_234
10
10.2374002
20
22.9505054
40
0.4559523
50
162.9447461
51
174.3732162
0
ARC
8
DEFAULT_255_1_234
10
10.4519816
20
22.9264143
40
0.6718682
50
174.1228657
51
180.1565175
0
LINE
8
DEFAULT_255_1_234
10
10.5720451
20
22.9302012
11
10.5720451
21
22.9414456
0
LINE
8
DEFAULT_255_1_234
10
11.1567557
20
23.280385
11
11.1567557
21
23.733375
0
LINE
8
DEFAULT_255_1_234
10
11.1567557
20
23.733375
11
11.3053428
21
23.733375
0
LINE
8
DEFAULT_255_1_234
10
11.3053428
20
23.733375
11
11.3053428
21
22.4997
0
LINE
8
DEFAULT_255_1_234
10
11.3053428
20
22.4997
11
11.1688033
21
22.4997
0
LINE
8
DEFAULT_255_1_234
10
11.1688033
20
22.4997
11
11.1615747
21
22.5928682
0
LINE
8
DEFAULT_255_1_234
10
11.1567557
20
22.7366363
11
11.1567557
21
23.1358137
0
ARC
8
DEFAULT_255_1_234
10
11.2595605
20
22.9458457
40
0.6875294
50
169.1661407
51
180.3666851
0
ARC
8
DEFAULT_255_1_234
10
11.039925
20
22.9896387
40
0.4635805
50
150.2838427
51
169.3798909
0
ARC
8
DEFAULT_255_1_234
10
10.9765867
20
23.0220238
40
0.392532
50
142.1062393
51
149.806405
0
ARC
8
DEFAULT_255_1_234
10
10.9193599
20
23.0718749
40
0.3167807
50
118.4283255
51
142.8643566
0
ARC
8
DEFAULT_255_1_234
10
10.9094944
20
23.0781137
40
0.3066506
50
89.9199246
51
117.3621547
0
ARC
8
DEFAULT_255_1_234
10
10.9149923
20
23.0023731
40
0.3824245
50
89.9987914
51
90.7595231
0
ARC
8
DEFAULT_255_1_234
10
10.9187314
20
23.0258667
40
0.3589502
50
72.8978905
51
90.5955712
0
ARC
8
DEFAULT_255_1_234
10
10.9385262
20
23.0973123
40
0.2848505
50
39.9932841
51
72.477307
0
ARC
8
DEFAULT_255_1_234
10
10.935601
20
22.7760579
40
0.2908996
50
275.084999
51
320.969419
0
ARC
8
DEFAULT_255_1_234
10
10.914173
20
22.9027893
40
0.4191533
50
269.8935077
51
276.4672393
0
ARC
8
DEFAULT_255_1_234
10
10.9073745
20
22.7760703
40
0.2924958
50
222.0839186
51
271.1792213
0
ARC
8
DEFAULT_255_1_234
10
10.9684255
20
22.8385816
40
0.3797413
50
217.5160585
51
222.9101888
0
ARC
8
DEFAULT_255_1_234
10
11.0178094
20
22.8725781
40
0.4396261
50
193.0962774
51
217.1109254
0
ARC
8
DEFAULT_255_1_234
10
11.2135193
20
22.9214128
40
0.6413192
50
181.1070734
51
193.3838631
0
ARC
8
DEFAULT_255_1_234
10
11.3801252
20
22.9300869
40
0.8080801
50
179.9919009
51
181.4937549
0
ARC
8
DEFAULT_255_1_234
10
11.2984854
20
22.921472
40
0.5778615
50
179.6919417
51
188.6549204
0
ARC
8
DEFAULT_255_1_234
10
11.096527
20
22.8896672
40
0.3734182
50
188.4936033
51
202.2187731
0
ARC
8
DEFAULT_255_1_234
10
10.9997978
20
22.8513391
40
0.2693801
50
202.4517848
51
215.9307642
0
ARC
8
DEFAULT_255_1_234
10
10.9405424
20
22.8041191
40
0.1937215
50
214.9062306
51
264.2077075
0
ARC
8
DEFAULT_255_1_234
10
10.9499252
20
22.863915
40
0.2541804
50
263.4637896
51
270.0934907
0
ARC
8
DEFAULT_255_1_234
10
10.9539169
20
22.8547045
40
0.2449958
50
269.1634649
51
291.0931088
0
ARC
8
DEFAULT_255_1_234
10
10.9620874
20
22.8214994
40
0.2111194
50
292.2674853
51
328.1937478
0
ARC
8
DEFAULT_255_1_234
10
10.8929292
20
22.8714026
40
0.2962539
50
327.0410354
51
332.9414029
0
ARC
8
DEFAULT_255_1_234
10
10.934249
20
23.0190886
40
0.2512647
50
27.6811062
51
48.7893196
0
ARC
8
DEFAULT_255_1_234
10
10.9625771
20
23.0451916
40
0.2130039
50
49.8959006
51
87.010286
0
ARC
8
DEFAULT_255_1_234
10
10.9521629
20
22.9664504
40
0.292249
50
85.7764096
51
90.0424572
0
ARC
8
DEFAULT_255_1_234
10
10.9492345
20
23.0324006
40
0.2263149
50
89.313423
51
109.4265906
0
ARC
8
DEFAULT_255_1_234
10
10.9418056
20
23.0628962
40
0.1951098
50
110.3478057
51
145.1577858
0
ARC
8
DEFAULT_255_1_234
10
11.0071849
20
23.015275
40
0.2759807
50
144.7982748
51
162.8715388
0
ARC
8
DEFAULT_255_1_234
10
11.1766499
20
22.9607842
40
0.453983
50
162.5984223
51
173.3418672
0
ARC
8
DEFAULT_255_1_234
10
11.4434277
20
22.9276851
40
0.7228019
50
173.1877442
51
180.2462216
0
LINE
8
DEFAULT_255_1_234
10
12.0755865
20
22.4997
11
12.0723738
21
22.5856396
0
LINE
8
DEFAULT_255_1_234
10
11.532641
20
22.8032997
11
11.532641
21
23.3687341
0
LINE
8
DEFAULT_255_1_234
10
11.532641
20
23.3687341
11
11.6812282
21
23.3687341
0
LINE
8
DEFAULT_255_1_234
10
11.6812282
20
23.3687341
11
11.6812282
21
22.8073156
0
LINE
8
DEFAULT_255_1_234
10
12.068358
20
22.7366363
11
12.068358
21
23.3687341
0
LINE
8
DEFAULT_255_1_234
10
12.068358
20
23.3687341
11
12.2169451
21
23.3687341
0
LINE
8
DEFAULT_255_1_234
10
12.2169451
20
23.3687341
11
12.2169451
21
22.4997
0
LINE
8
DEFAULT_255_1_234
10
12.2169451
20
22.4997
11
12.0755865
21
22.4997
0
ARC
8
DEFAULT_255_1_234
10
11.8608203
20
22.767406
40
0.2789157
50
282.5436552
51
319.3308843
0
ARC
8
DEFAULT_255_1_234
10
11.8221036
20
22.9180137
40
0.4343667
50
269.8917857
51
283.214153
0
ARC
8
DEFAULT_255_1_234
10
11.8177721
20
23.0340183
40
0.5503818
50
269.9995424
51
270.3655186
0
ARC
8
DEFAULT_255_1_234
10
11.8147197
20
22.864953
40
0.3813286
50
257.7355913
51
270.4579866
0
ARC
8
DEFAULT_255_1_234
10
11.7849896
20
22.7350503
40
0.2480795
50
233.3384413
51
258.0721298
0
ARC
8
DEFAULT_255_1_234
10
11.7715503
20
22.7131041
40
0.2224626
50
221.9626381
51
232.7401232
0
ARC
8
DEFAULT_255_1_234
10
11.7995552
20
22.734633
40
0.2576959
50
197.9450831
51
221.3585622
0
ARC
8
DEFAULT_255_1_234
10
11.9390747
20
22.7822997
40
0.4051213
50
185.8088195
51
198.2790125
0
ARC
8
DEFAULT_255_1_234
10
12.128255
20
22.8047963
40
0.5956158
50
180.1439627
51
186.1199408
0
ARC
8
DEFAULT_255_1_234
10
12.0381418
20
22.803756
40
0.3569313
50
179.4285986
51
191.0735588
0
ARC
8
DEFAULT_255_1_234
10
11.8697846
20
22.7690017
40
0.1850421
50
190.5251661
51
212.6990766
0
ARC
8
DEFAULT_255_1_234
10
11.8233639
20
22.743383
40
0.1321852
50
214.2246197
51
264.4398755
0
ARC
8
DEFAULT_255_1_234
10
11.8410975
20
22.8343426
40
0.224609
50
262.1850223
51
270.1952455
0
ARC
8
DEFAULT_255_1_234
10
11.8452865
20
22.9619524
40
0.3522342
50
269.4431043
51
282.9585023
0
ARC
8
DEFAULT_255_1_234
10
11.8789555
20
22.8249561
40
0.2111871
50
282.391263
51
311.9722193
0
ARC
8
DEFAULT_255_1_234
10
11.8797152
20
22.8176809
40
0.2053153
50
313.1724425
51
336.7506893
0
LINE
8
DEFAULT_255_1_234
10
12.9960237
20
22.7735823
11
13.1365792
21
22.7735823
0
LINE
8
DEFAULT_255_1_234
10
12.4040846
20
22.9261853
11
12.4040846
21
22.9510837
0
LINE
8
DEFAULT_255_1_234
10
13.1365792
20
23.0699534
11
12.9960237
21
23.0699534
0
LINE
8
DEFAULT_255_1_234
10
12.5526718
20
22.9454615
11
12.5526718
21
22.9173504
0
ARC
8
DEFAULT_255_1_234
10
12.7948273
20
22.8189121
40
0.2140268
50
269.0327816
51
309.2224514
0
ARC
8
DEFAULT_255_1_234
10
12.8158027
20
22.7974108
40
0.1841255
50
308.396669
51
329.6984113
0
ARC
8
DEFAULT_255_1_234
10
12.8295882
20
22.786982
40
0.166974
50
330.401383
51
355.3970571
0
ARC
8
DEFAULT_255_1_234
10
12.8752748
20
22.7887082
40
0.2617417
50
329.2357853
51
356.6870514
0
ARC
8
DEFAULT_255_1_234
10
12.820277
20
22.8177971
40
0.3238945
50
324.8706984
51
329.7905871
0
ARC
8
DEFAULT_255_1_234
10
12.8124489
20
22.8245106
40
0.3341614
50
298.8769168
51
324.7016144
0
ARC
8
DEFAULT_255_1_234
10
12.779268
20
22.8773917
40
0.3965068
50
296.9023738
51
299.385174
0
ARC
8
DEFAULT_255_1_234
10
12.7922294
20
22.8486422
40
0.365007
50
269.8406811
51
297.1299281
0
ARC
8
DEFAULT_255_1_234
10
12.786895
20
22.9124407
40
0.4288259
50
253.315473
51
270.5771285
0
ARC
8
DEFAULT_255_1_234
10
12.7621985
20
22.8230739
40
0.3361372
50
221.1002312
51
252.9744583
0
ARC
8
DEFAULT_255_1_234
10
12.8081983
20
22.862559
40
0.3967576
50
194.5394537
51
221.0302238
0
ARC
8
DEFAULT_255_1_234
10
12.9930804
20
22.9140952
40
0.5886672
50
182.0499201
51
194.8773585
0
ARC
8
DEFAULT_255_1_234
10
13.1701002
20
22.925906
40
0.7660157
50
179.9791086
51
182.4591564
0
ARC
8
DEFAULT_255_1_234
10
12.9963046
20
22.9540498
40
0.5922274
50
168.614861
51
180.2869651
0
ARC
8
DEFAULT_255_1_234
10
12.8761191
20
22.9776269
40
0.4697532
50
154.9162259
51
168.5402336
0
ARC
8
DEFAULT_255_1_234
10
12.7839699
20
23.023163
40
0.3669966
50
133.5746694
51
155.2558665
0
ARC
8
DEFAULT_255_1_234
10
12.7676857
20
23.0370467
40
0.3457206
50
122.0165146
51
133.2055214
0
ARC
8
DEFAULT_255_1_234
10
12.7712696
20
23.0282361
40
0.355095
50
97.8731644
51
121.7531281
0
ARC
8
DEFAULT_255_1_234
10
12.7891779
20
22.9225159
40
0.4622833
50
89.8471353
51
98.2769494
0
ARC
8
DEFAULT_255_1_234
10
12.7940531
20
22.9835091
40
0.401305
50
73.3760412
51
90.5199766
0
ARC
8
DEFAULT_255_1_234
10
12.8136895
20
23.0557516
40
0.3264695
50
47.7085968
51
73.0509704
0
ARC
8
DEFAULT_255_1_234
10
12.8266765
20
23.0670128
40
0.309407
50
3.7443473
51
48.0843753
0
ARC
8
DEFAULT_255_1_234
10
12.7279714
20
23.0512614
40
0.4090351
50
2.6192045
51
5.0432185
0
ARC
8
DEFAULT_255_1_234
10
12.7736568
20
23.0552592
40
0.2228519
50
3.780656
51
23.9356886
0
ARC
8
DEFAULT_255_1_234
10
12.7965184
20
23.0633155
40
0.198697
50
24.4869552
51
46.9440088
0
ARC
8
DEFAULT_255_1_234
10
12.7966034
20
23.0656484
40
0.1969404
50
46.498716
51
89.3298174
0
ARC
8
DEFAULT_255_1_234
10
12.7904388
20
23.0061723
40
0.2565428
50
88.1083975
51
90.0061569
0
ARC
8
DEFAULT_255_1_234
10
12.7876818
20
23.0115759
40
0.251154
50
89.3773333
51
107.2071161
0
ARC
8
DEFAULT_255_1_234
10
12.7733941
20
23.063319
40
0.1975072
50
107.6883219
51
143.3583002
0
ARC
8
DEFAULT_255_1_234
10
12.8301325
20
23.0206873
40
0.2684762
50
143.2846717
51
162.935323
0
ARC
8
DEFAULT_255_1_234
10
12.9806926
20
22.9723652
40
0.4265927
50
162.6650068
51
174.0805419
0
ARC
8
DEFAULT_255_1_234
10
13.1949766
20
22.9474636
40
0.6423078
50
173.8423985
51
180.1785963
0
ARC
8
DEFAULT_255_1_234
10
13.1401866
20
22.9143039
40
0.5875227
50
179.7028978
51
188.2277152
0
ARC
8
DEFAULT_255_1_234
10
12.9300167
20
22.8828247
40
0.3750127
50
188.0629871
51
201.1160002
0
ARC
8
DEFAULT_255_1_234
10
12.8202366
20
22.8409238
40
0.2575093
50
201.2187293
51
216.9761968
0
ARC
8
DEFAULT_255_1_234
10
12.7750929
20
22.8070993
40
0.2010998
50
217.0135981
51
265.2056839
0
ARC
8
DEFAULT_255_1_234
10
12.7906788
20
22.8992695
40
0.2943543
50
263.681807
51
270.104251
0
LINE
8
DEFAULT_255_1_234
10
13.3566488
20
23.5791656
11
13.5052359
21
23.5791656
0
LINE
8
DEFAULT_255_1_234
10
13.5052359
20
23.5791656
11
13.5052359
21
23.3687341
0
LINE
8
DEFAULT_255_1_234
10
13.5052359
20
23.3687341
11
13.6674771
21
23.3687341
0
LINE
8
DEFAULT_255_1_234
10
13.6674771
20
23.3687341
11
13.6674771
21
23.2538802
0
LINE
8
DEFAULT_255_1_234
10
13.6674771
20
23.2538802
11
13.5052359
21
23.2538802
0
LINE
8
DEFAULT_255_1_234
10
13.5052359
20
23.2538802
11
13.5052359
21
22.7149506
0
LINE
8
DEFAULT_255_1_234
10
13.6714929
20
22.6201761
11
13.6714929
21
22.4997
0
LINE
8
DEFAULT_255_1_234
10
13.3566488
20
22.7149506
11
13.3566488
21
23.2538802
0
LINE
8
DEFAULT_255_1_234
10
13.3566488
20
23.2538802
11
13.1984235
21
23.2538802
0
LINE
8
DEFAULT_255_1_234
10
13.1984235
20
23.2538802
11
13.1984235
21
23.3687341
0
LINE
8
DEFAULT_255_1_234
10
13.1984235
20
23.3687341
11
13.3566488
21
23.3687341
0
LINE
8
DEFAULT_255_1_234
10
13.3566488
20
23.3687341
11
13.3566488
21
23.5791656
0
ARC
8
DEFAULT_255_1_234
10
13.7059862
20
22.7139084
40
0.200753
50
179.7025659
51
187.917967
0
ARC
8
DEFAULT_255_1_234
10
13.6313888
20
22.7031724
40
0.1253883
50
187.7545981
51
200.2447476
0
ARC
8
DEFAULT_255_1_234
10
13.5893209
20
22.6874859
40
0.0804913
50
200.130383
51
219.174133
0
ARC
8
DEFAULT_255_1_234
10
13.5757386
20
22.6782515
40
0.0641445
50
220.4434483
51
249.6172
0
ARC
8
DEFAULT_255_1_234
10
13.5912236
20
22.7171968
40
0.1060489
50
249.1032952
51
262.775154
0
ARC
8
DEFAULT_255_1_234
10
13.6000408
20
22.7800715
40
0.1695354
50
262.4913187
51
270.2611758
0
ARC
8
DEFAULT_255_1_234
10
13.5997825
20
22.8016103
40
0.191075
50
270.3091804
51
275.6625139
0
ARC
8
DEFAULT_255_1_234
10
13.585505
20
22.9517435
40
0.3418851
50
275.5610264
51
279.0879356
0
ARC
8
DEFAULT_255_1_234
10
13.5524927
20
23.1612699
40
0.5539959
50
279.0365489
51
281.5011378
0
ARC
8
DEFAULT_255_1_234
10
13.5168004
20
23.3416423
40
0.7378639
50
281.4243939
51
282.1017894
0
ARC
8
DEFAULT_255_1_234
10
13.5511251
20
22.9334858
40
0.4501761
50
275.2597045
51
285.5083879
0
ARC
8
DEFAULT_255_1_234
10
13.5572576
20
22.8778606
40
0.3942242
50
270.0268409
51
275.1132796
0
ARC
8
DEFAULT_255_1_234
10
13.5552541
20
22.7451614
40
0.261534
50
257.3573315
51
270.479383
0
ARC
8
DEFAULT_255_1_234
10
13.5339431
20
22.6553406
40
0.1692304
50
230.8037497
51
257.741658
0
ARC
8
DEFAULT_255_1_234
10
13.5271335
20
22.6443777
40
0.1564393
50
219.974146
51
230.1990686
0
ARC
8
DEFAULT_255_1_234
10
13.5603281
20
22.6697579
40
0.1981916
50
196.5084186
51
219.4318458
0
ARC
8
DEFAULT_255_1_234
10
13.6618727
20
22.7016194
40
0.3046086
50
184.6404872
51
196.8269686
0
ARC
8
DEFAULT_255_1_234
10
13.7863791
20
22.7141908
40
0.4297309
50
179.8986958
51
184.9681077
0
LINE
8
DEFAULT_255_1_234
10
14.0024005
20
23.3687341
11
14.0024005
21
22.4997
0
LINE
8
DEFAULT_255_1_234
10
14.0024005
20
22.4997
11
13.8538134
21
22.4997
0
LINE
8
DEFAULT_255_1_234
10
13.8538134
20
22.4997
11
13.8538134
21
23.3687341
0
LINE
8
DEFAULT_255_1_234
10
13.8538134
20
23.3687341
11
14.0024005
21
23.3687341
0
ARC
8
DEFAULT_255_1_234
10
13.9396282
20
23.6001889
40
0.097867
50
161.415052
51
180.5526306
0
ARC
8
DEFAULT_255_1_234
10
13.9272061
20
23.6036077
40
0.0850062
50
138.1827368
51
160.9307106
0
ARC
8
DEFAULT_255_1_234
10
13.9162006
20
23.6131588
40
0.0704362
50
104.6368899
51
138.0039868
0
ARC
8
DEFAULT_255_1_234
10
13.9269161
20
23.5764963
40
0.1086221
50
92.0600725
51
105.2189128
0
ARC
8
DEFAULT_255_1_234
10
13.9292509
20
23.5422117
40
0.1429728
50
89.9756393
51
92.5012496
0
ARC
8
DEFAULT_255_1_234
10
13.9302529
20
23.5647731
40
0.1204151
50
78.0235316
51
90.4478182
0
ARC
8
DEFAULT_255_1_234
10
13.9394621
20
23.6061295
40
0.0780493
50
55.051506
51
78.3369085
0
ARC
8
DEFAULT_255_1_234
10
13.9444895
20
23.6145711
40
0.0682538
50
42.0501187
51
54.4513741
0
ARC
8
DEFAULT_255_1_234
10
13.9309762
20
23.6021798
40
0.0865878
50
1.7497075
51
42.1496013
0
ARC
8
DEFAULT_255_1_234
10
13.9055095
20
23.5992738
40
0.1121515
50
359.9852656
51
2.8364544
0
ARC
8
DEFAULT_255_1_234
10
13.9221087
20
23.5983229
40
0.0955566
50
342.1070653
51
0.552888
0
ARC
8
DEFAULT_255_1_234
10
13.9363784
20
23.5943904
40
0.0807713
50
316.7107116
51
341.6516965
0
ARC
8
DEFAULT_255_1_234
10
13.9430822
20
23.5883823
40
0.0717724
50
285.4397031
51
316.5324284
0
ARC
8
DEFAULT_255_1_234
10
13.9320739
20
23.6249554
40
0.1099597
50
272.3547054
51
285.8953117
0
ARC
8
DEFAULT_255_1_234
10
13.9293897
20
23.6615048
40
0.1465932
50
269.9695369
51
272.8160237
0
ARC
8
DEFAULT_255_1_234
10
13.9284078
20
23.6395863
40
0.1246779
50
258.8431134
51
270.4153935
0
ARC
8
DEFAULT_255_1_234
10
13.919412
20
23.5960414
40
0.0802162
50
238.5431189
51
259.1288175
0
ARC
8
DEFAULT_255_1_234
10
13.9126005
20
23.5836856
40
0.0661247
50
222.5062634
51
237.9906969
0
ARC
8
DEFAULT_255_1_234
10
13.9253593
20
23.5952889
40
0.0833707
50
184.1069131
51
222.460413
0
ARC
8
DEFAULT_255_1_234
10
13.9522833
20
23.5991349
40
0.1105176
50
179.9429482
51
185.0960898
0
LINE
8
DEFAULT_255_1_234
10
14.3060002
20
23.3687341
11
14.526873
21
22.7012966
0
LINE
8
DEFAULT_255_1_234
10
14.526873
20
22.7012966
11
14.7421236
21
23.3687341
0
LINE
8
DEFAULT_255_1_234
10
14.7421236
20
23.3687341
11
14.8939235
21
23.3687341
0
LINE
8
DEFAULT_255_1_234
10
14.8939235
20
23.3687341
11
14.582292
21
22.4997
0
LINE
8
DEFAULT_255_1_234
10
14.582292
20
22.4997
11
14.4690445
21
22.4997
0
LINE
8
DEFAULT_255_1_234
10
14.4690445
20
22.4997
11
14.1542004
21
23.3687341
0
LINE
8
DEFAULT_255_1_234
10
14.1542004
20
23.3687341
11
14.3060002
21
23.3687341
0
LINE
8
DEFAULT_255_1_234
10
15.1983264
20
23.3687341
11
15.1983264
21
22.4997
0
LINE
8
DEFAULT_255_1_234
10
15.1983264
20
22.4997
11
15.0497392
21
22.4997
0
LINE
8
DEFAULT_255_1_234
10
15.0497392
20
22.4997
11
15.0497392
21
23.3687341
0
LINE
8
DEFAULT_255_1_234
10
15.0497392
20
23.3687341
11
15.1983264
21
23.3687341
0
ARC
8
DEFAULT_255_1_234
10
15.1355541
20
23.6001889
40
0.097867
50
161.415052
51
180.5526306
0
ARC
8
DEFAULT_255_1_234
10
15.1231319
20
23.6036077
40
0.0850062
50
138.1827368
51
160.9307106
0
ARC
8
DEFAULT_255_1_234
10
15.1121265
20
23.6131588
40
0.0704362
50
104.6368899
51
138.0039868
0
ARC
8
DEFAULT_255_1_234
10
15.1228419
20
23.5764963
40
0.1086221
50
92.0600725
51
105.2189128
0
ARC
8
DEFAULT_255_1_234
10
15.1251768
20
23.5422117
40
0.1429728
50
89.9756393
51
92.5012496
0
ARC
8
DEFAULT_255_1_234
10
15.1261787
20
23.5647731
40
0.1204151
50
78.0235316
51
90.4478182
0
ARC
8
DEFAULT_255_1_234
10
15.1353879
20
23.6061295
40
0.0780493
50
55.051506
51
78.3369085
0
ARC
8
DEFAULT_255_1_234
10
15.1404153
20
23.6145711
40
0.0682538
50
42.0501187
51
54.4513741
0
ARC
8
DEFAULT_255_1_234
10
15.126902
20
23.6021798
40
0.0865878
50
1.7497075
51
42.1496013
0
ARC
8
DEFAULT_255_1_234
10
15.1014353
20
23.5992738
40
0.1121515
50
359.9852656
51
2.8364544
0
ARC
8
DEFAULT_255_1_234
10
15.1180345
20
23.5983229
40
0.0955566
50
342.1070653
51
0.552888
0
ARC
8
DEFAULT_255_1_234
10
15.1323043
20
23.5943904
40
0.0807713
50
316.7107116
51
341.6516965
0
ARC
8
DEFAULT_255_1_234
10
15.139008
20
23.5883823
40
0.0717724
50
285.4397031
51
316.5324284
0
ARC
8
DEFAULT_255_1_234
10
15.1279997
20
23.6249554
40
0.1099597
50
272.3547054
51
285.8953117
0
ARC
8
DEFAULT_255_1_234
10
15.1253155
20
23.6615048
40
0.1465932
50
269.9695369
51
272.8160237
0
ARC
8
DEFAULT_255_1_234
10
15.1243336
20
23.6395863
40
0.1246779
50
258.8431134
51
270.4153935
0
ARC
8
DEFAULT_255_1_234
10
15.1153379
20
23.5960414
40
0.0802162
50
238.5431189
51
259.1288175
0
ARC
8
DEFAULT_255_1_234
10
15.1085264
20
23.5836856
40
0.0661247
50
222.5062634
51
237.9906969
0
ARC
8
DEFAULT_255_1_234
10
15.1212851
20
23.5952889
40
0.0833707
50
184.1069131
51
222.460413
0
ARC
8
DEFAULT_255_1_234
10
15.1482092
20
23.5991349
40
0.1105176
50
179.9429482
51
185.0960898
0
LINE
8
DEFAULT_255_1_234
10
15.4890753
20
23.5791656
11
15.6376625
21
23.5791656
0
LINE
8
DEFAULT_255_1_234
10
15.6376625
20
23.5791656
11
15.6376625
21
23.3687341
0
LINE
8
DEFAULT_255_1_234
10
15.6376625
20
23.3687341
11
15.7999036
21
23.3687341
0
LINE
8
DEFAULT_255_1_234
10
15.7999036
20
23.3687341
11
15.7999036
21
23.2538802
0
LINE
8
DEFAULT_255_1_234
10
15.7999036
20
23.2538802
11
15.6376625
21
23.2538802
0
LINE
8
DEFAULT_255_1_234
10
15.6376625
20
23.2538802
11
15.6376625
21
22.7149506
0
LINE
8
DEFAULT_255_1_234
10
15.8039194
20
22.6201761
11
15.8039194
21
22.4997
0
LINE
8
DEFAULT_255_1_234
10
15.4890753
20
22.7149506
11
15.4890753
21
23.2538802
0
LINE
8
DEFAULT_255_1_234
10
15.4890753
20
23.2538802
11
15.33085
21
23.2538802
0
LINE
8
DEFAULT_255_1_234
10
15.33085
20
23.2538802
11
15.33085
21
23.3687341
0
LINE
8
DEFAULT_255_1_234
10
15.33085
20
23.3687341
11
15.4890753
21
23.3687341
0
LINE
8
DEFAULT_255_1_234
10
15.4890753
20
23.3687341
11
15.4890753
21
23.5791656
0
ARC
8
DEFAULT_255_1_234
10
15.8384127
20
22.7139084
40
0.200753
50
179.7025659
51
187.917967
0
ARC
8
DEFAULT_255_1_234
10
15.7638153
20
22.7031724
40
0.1253883
50
187.7545981
51
200.2447476
0
ARC
8
DEFAULT_255_1_234
10
15.7217474
20
22.6874859
40
0.0804913
50
200.130383
51
219.174133
0
ARC
8
DEFAULT_255_1_234
10
15.7081651
20
22.6782515
40
0.0641445
50
220.4434483
51
249.6172
0
ARC
8
DEFAULT_255_1_234
10
15.7236501
20
22.7171968
40
0.1060489
50
249.1032952
51
262.775154
0
ARC
8
DEFAULT_255_1_234
10
15.7324673
20
22.7800715
40
0.1695354
50
262.4913187
51
270.2611758
0
ARC
8
DEFAULT_255_1_234
10
15.7322091
20
22.8016103
40
0.191075
50
270.3091804
51
275.6625139
0
ARC
8
DEFAULT_255_1_234
10
15.7179315
20
22.9517435
40
0.3418851
50
275.5610264
51
279.0879356
0
ARC
8
DEFAULT_255_1_234
10
15.6849192
20
23.1612699
40
0.5539959
50
279.0365489
51
281.5011378
0
ARC
8
DEFAULT_255_1_234
10
15.6492269
20
23.3416423
40
0.7378639
50
281.4243939
51
282.1017894
0
ARC
8
DEFAULT_255_1_234
10
15.6835516
20
22.9334858
40
0.4501761
50
275.2597045
51
285.5083879
0
ARC
8
DEFAULT_255_1_234
10
15.6896841
20
22.8778606
40
0.3942242
50
270.0268409
51
275.1132796
0
ARC
8
DEFAULT_255_1_234
10
15.6876806
20
22.7451614
40
0.261534
50
257.3573315
51
270.479383
0
ARC
8
DEFAULT_255_1_234
10
15.6663697
20
22.6553406
40
0.1692304
50
230.8037497
51
257.741658
0
ARC
8
DEFAULT_255_1_234
10
15.65956
20
22.6443777
40
0.1564393
50
219.974146
51
230.1990686
0
ARC
8
DEFAULT_255_1_234
10
15.6927546
20
22.6697579
40
0.1981916
50
196.5084186
51
219.4318458
0
ARC
8
DEFAULT_255_1_234
10
15.7942992
20
22.7016194
40
0.3046086
50
184.6404872
51
196.8269686
0
ARC
8
DEFAULT_255_1_234
10
15.9188056
20
22.7141908
40
0.4297309
50
179.8986958
51
184.9681077
0
LINE
8
DEFAULT_255_1_234
10
16.0408557
20
23.3687341
11
16.2577126
21
22.7173601
0
LINE
8
DEFAULT_255_1_234
10
16.2577126
20
22.7173601
11
16.4601125
21
23.3687341
0
LINE
8
DEFAULT_255_1_234
10
16.4601125
20
23.3687341
11
16.6191409
21
23.3687341
0
LINE
8
DEFAULT_255_1_234
10
16.6191409
20
23.3687341
11
16.2697603
21
22.36557
0
LINE
8
DEFAULT_255_1_234
10
16.0119415
20
22.148713
11
15.9838304
21
22.1511226
0
LINE
8
DEFAULT_255_1_234
10
15.9838304
20
22.1511226
11
15.9284114
21
22.1615638
0
LINE
8
DEFAULT_255_1_234
10
15.9284114
20
22.1615638
11
15.9284114
21
22.2820399
0
LINE
8
DEFAULT_255_1_234
10
15.9284114
20
22.2820399
11
15.9685701
21
22.2788272
0
LINE
8
DEFAULT_255_1_234
10
16.1557096
20
22.420989
11
16.1886397
21
22.5093381
0
LINE
8
DEFAULT_255_1_234
10
16.1886397
20
22.5093381
11
15.8786146
21
23.3687341
0
LINE
8
DEFAULT_255_1_234
10
15.8786146
20
23.3687341
11
16.0408557
21
23.3687341
0
ARC
8
DEFAULT_255_1_234
10
15.8062945
20
22.5340403
40
0.4931356
50
327.7224013
51
340.0237316
0
ARC
8
DEFAULT_255_1_234
10
15.9815161
20
22.420872
40
0.2845645
50
305.2163759
51
328.1469174
0
ARC
8
DEFAULT_255_1_234
10
16.0160212
20
22.3799893
40
0.2313123
50
268.9893887
51
304.0733175
0
ARC
8
DEFAULT_255_1_234
10
15.9700414
20
22.5823864
40
0.3035628
50
269.7222887
51
278.0404605
0
ARC
8
DEFAULT_255_1_234
10
15.9856237
20
22.4763823
40
0.1964222
50
277.8648378
51
290.8634365
0
ARC
8
DEFAULT_255_1_234
10
16.0064226
20
22.4208422
40
0.1371168
50
291.0076295
51
305.5967213
0
ARC
8
DEFAULT_255_1_234
10
16.0045417
20
22.4192702
40
0.1369553
50
306.6194038
51
324.1023288
0
ARC
8
DEFAULT_255_1_234
10
15.9298231
20
22.47472
40
0.2299972
50
323.8264381
51
334.2987676
0
ARC
8
DEFAULT_255_1_234
10
15.805434
20
22.5358087
40
0.3685747
50
334.1277399
51
340.8153554
0
ARC
8
DEFAULT_255_1_234
10
15.7078275
20
22.5717465
40
0.4725741
50
340.5889714
51
341.3967148
0
LINE
8
DEFAULT_255_1_234
10
17.5026321
20
22.6209792
11
17.5026321
21
22.4997
0
LINE
8
DEFAULT_255_1_234
10
17.5026321
20
22.4997
11
16.7364042
21
22.4997
0
LINE
8
DEFAULT_255_1_234
10
16.7364042
20
22.4997
11
16.7364042
21
22.6065221
0
LINE
8
DEFAULT_255_1_234
10
16.7364042
20
22.6065221
11
17.1412039
21
23.0562995
0
LINE
8
DEFAULT_255_1_234
10
16.8625025
20
23.3245595
11
16.7139154
21
23.3245595
0
LINE
8
DEFAULT_255_1_234
10
17.2287498
20
22.9607218
11
16.915512
21
22.6209792
0
LINE
8
DEFAULT_255_1_234
10
16.915512
20
22.6209792
11
17.5026321
21
22.6209792
0
ARC
8
DEFAULT_255_1_234
10
15.7921872
20
24.2492527
40
1.8008286
50
318.5132453
51
320.7828378
0
ARC
8
DEFAULT_255_1_234
10
16.3208846
20
23.8189426
40
1.1191493
50
320.7372736
51
323.9737074
0
ARC
8
DEFAULT_255_1_234
10
16.7128703
20
23.5349361
40
0.6350923
50
323.8961724
51
328.6421089
0
ARC
8
DEFAULT_255_1_234
10
16.9175298
20
23.4087031
40
0.3946393
50
328.8299013
51
331.789948
0
ARC
8
DEFAULT_255_1_234
10
17.0172477
20
23.3572509
40
0.2824501
50
331.4255242
51
352.9364833
0
ARC
8
DEFAULT_255_1_234
10
17.0308977
20
23.3541976
40
0.2685315
50
353.2248685
51
0.0169286
0
ARC
8
DEFAULT_255_1_234
10
17.0518854
20
23.356495
40
0.2475536
50
359.4866256
51
15.9339782
0
ARC
8
DEFAULT_255_1_234
10
17.1025839
20
23.3701286
40
0.1950618
50
16.1714718
51
43.5284424
0
ARC
8
DEFAULT_255_1_234
10
17.1103148
20
23.3778573
40
0.184134
50
43.4415429
51
83.1661404
0
ARC
8
DEFAULT_255_1_234
10
17.0969066
20
23.3041771
40
0.258926
50
82.160215
51
90.1505798
0
ARC
8
DEFAULT_255_1_234
10
17.0937494
20
23.2504865
40
0.3126255
50
89.5460705
51
102.5418777
0
ARC
8
DEFAULT_255_1_234
10
17.069458
20
23.3535665
40
0.2067346
50
102.1739365
51
129.2061916
0
ARC
8
DEFAULT_255_1_234
10
17.0615651
20
23.3660094
40
0.1921118
50
129.7279328
51
135.7542026
0
ARC
8
DEFAULT_255_1_234
10
17.0737179
20
23.3563045
40
0.2075944
50
136.175737
51
166.3674722
0
ARC
8
DEFAULT_255_1_234
10
17.1744098
20
23.3293182
40
0.3118201
50
165.9092917
51
178.8683903
0
ARC
8
DEFAULT_255_1_234
10
17.260896
20
23.3246179
40
0.3983935
50
178.438168
51
180.0083905
0
ARC
8
DEFAULT_255_1_234
10
17.1207562
20
23.3285231
40
0.4068601
50
163.2878735
51
180.5581814
0
ARC
8
DEFAULT_255_1_234
10
17.0405823
20
23.350584
40
0.3237344
50
133.454115
51
162.9470031
0
ARC
8
DEFAULT_255_1_234
10
17.0584364
20
23.3316
40
0.349795
50
100.7869394
51
133.4384016
0
ARC
8
DEFAULT_255_1_234
10
17.0932136
20
23.1767319
40
0.5084616
50
89.6605301
51
101.3704185
0
ARC
8
DEFAULT_255_1_234
10
17.0998475
20
23.1828496
40
0.502348
50
78.2171172
51
90.4130393
0
ARC
8
DEFAULT_255_1_234
10
17.1353553
20
23.3452637
40
0.3361092
50
55.9268222
51
78.4888551
0
ARC
8
DEFAULT_255_1_234
10
17.1549993
20
23.3791324
40
0.2970617
50
47.9292255
51
55.4054003
0
ARC
8
DEFAULT_255_1_234
10
17.1651554
20
23.3894502
40
0.2825983
50
4.3347696
51
48.0560701
0
ARC
8
DEFAULT_255_1_234
10
17.0555947
20
23.3724601
40
0.393225
50
359.925209
51
5.5967654
0
ARC
8
DEFAULT_255_1_234
10
17.0984839
20
23.3780816
40
0.3503892
50
337.8914096
51
358.9967724
0
ARC
8
DEFAULT_255_1_234
10
16.8271251
20
23.4827706
40
0.6412172
50
326.9135351
51
338.3505194
0
ARC
8
DEFAULT_255_1_234
10
16.4285555
20
23.7382284
40
1.1146189
50
319.6472867
51
327.095818
0
ARC
8
DEFAULT_255_1_234
10
16.0452558
20
24.0544
40
1.6114559
50
317.2586784
51
319.9046139
0
LINE
8
DEFAULT_255_1_234
10
18.3933519
20
23.1912327
11
18.3933519
21
22.9984709
0
LINE
8
DEFAULT_255_1_234
10
17.6552351
20
22.9783916
11
17.6552351
21
23.1767755
0
LINE
8
DEFAULT_255_1_234
10
18.2447647
20
22.9583123
11
18.2447647
21
23.2016739
0
LINE
8
DEFAULT_255_1_234
10
17.8038223
20
23.2129184
11
17.8038223
21
22.9751789
0
ARC
8
DEFAULT_255_1_234
10
17.1686408
20
22.9935805
40
1.2247208
50
353.8441951
51
0.2287902
0
ARC
8
DEFAULT_255_1_234
10
17.6325912
20
22.9417806
40
0.7578929
50
344.4934747
51
353.9765454
0
ARC
8
DEFAULT_255_1_234
10
17.9318502
20
22.8566981
40
0.4467846
50
329.2803592
51
344.7472793
0
ARC
8
DEFAULT_255_1_234
10
18.0311327
20
22.8022018
40
0.3336173
50
324.9352394
51
328.6160465
0
ARC
8
DEFAULT_255_1_234
10
18.0688436
20
22.7758427
40
0.2876076
50
280.580143
51
324.9173126
0
ARC
8
DEFAULT_255_1_234
10
18.0287228
20
22.9429099
40
0.4592847
50
269.5977311
51
281.6734359
0
ARC
8
DEFAULT_255_1_234
10
18.0215134
20
22.9309173
40
0.4472986
50
256.6228859
51
270.51044
0
ARC
8
DEFAULT_255_1_234
10
17.9813112
20
22.7760877
40
0.2873874
50
215.8618325
51
257.2788573
0
ARC
8
DEFAULT_255_1_234
10
18.0834143
20
22.8445977
40
0.4102928
50
197.9693508
51
215.2623606
0
ARC
8
DEFAULT_255_1_234
10
18.3319259
20
22.9284709
40
0.6725652
50
187.8816417
51
198.2346507
0
ARC
8
DEFAULT_255_1_234
10
18.7277467
20
22.9856079
40
1.0724845
50
180.8976217
51
188.0055519
0
ARC
8
DEFAULT_255_1_234
10
19.0077655
20
22.9959777
40
1.3526448
50
180.7449369
51
181.1510016
0
ARC
8
DEFAULT_255_1_234
10
18.8500384
20
23.1816042
40
1.1948131
50
173.7675579
51
180.231553
0
ARC
8
DEFAULT_255_1_234
10
18.3982531
20
23.2326666
40
0.7401564
50
164.3058563
51
173.9002247
0
ARC
8
DEFAULT_255_1_234
10
18.10706
20
23.3165656
40
0.4371288
50
148.7922025
51
164.568378
0
ARC
8
DEFAULT_255_1_234
10
18.0119052
20
23.3696929
40
0.3282386
50
144.5883898
51
148.1176286
0
ARC
8
DEFAULT_255_1_234
10
17.977595
20
23.3936315
40
0.2864044
50
101.6440918
51
144.514236
0
ARC
8
DEFAULT_255_1_234
10
18.0201017
20
23.2247069
40
0.4604934
50
89.5284041
51
102.5819763
0
ARC
8
DEFAULT_255_1_234
10
18.0280104
20
23.2208018
40
0.464401
50
77.0437873
51
90.5081339
0
ARC
8
DEFAULT_255_1_234
10
18.0682106
20
23.3850615
40
0.2953195
50
48.2778575
51
77.4994676
0
ARC
8
DEFAULT_255_1_234
10
18.0754737
20
23.3979746
40
0.2808655
50
36.3142134
51
47.6305865
0
ARC
8
DEFAULT_255_1_234
10
17.9886044
20
23.3394515
40
0.3855453
50
18.2931786
51
35.6769206
0
ARC
8
DEFAULT_255_1_234
10
17.7342803
20
23.2521593
40
0.654423
50
8.024666
51
18.5605216
0
ARC
8
DEFAULT_255_1_234
10
17.3179723
20
23.1906792
40
1.0752407
50
1.1274072
51
8.1718305
0
ARC
8
DEFAULT_255_1_234
10
16.9943914
20
23.1779885
40
1.3990231
50
0.5424119
51
1.3863029
0
ARC
8
DEFAULT_255_1_234
10
17.1765292
20
23.2052342
40
1.0682415
50
359.8090433
51
4.9407866
0
ARC
8
DEFAULT_255_1_234
10
17.5975306
20
23.2428113
40
0.6455691
50
4.8362157
51
12.2904523
0
ARC
8
DEFAULT_255_1_234
10
17.873042
20
23.3041965
40
0.3633074
50
12.0805627
51
23.8173984
0
ARC
8
DEFAULT_255_1_234
10
17.9904126
20
23.3538919
40
0.2358723
50
24.2871213
51
31.3935614
0
ARC
8
DEFAULT_255_1_234
10
18.0428823
20
23.3882233
40
0.1732111
50
30.7407893
51
82.4657128
0
ARC
8
DEFAULT_255_1_234
10
18.0248957
20
23.2998691
40
0.263235
50
81.1060089
51
90.2184952
0
ARC
8
DEFAULT_255_1_234
10
18.0213256
20
23.3256924
40
0.2374236
50
89.3806855
51
105.6762551
0
ARC
8
DEFAULT_255_1_234
10
18.0029887
20
23.3923567
40
0.1682847
50
105.7981136
51
149.7388061
0
ARC
8
DEFAULT_255_1_234
10
18.1093965
20
23.328395
40
0.2924306
50
149.4208916
51
163.6286378
0
ARC
8
DEFAULT_255_1_234
10
18.3184853
20
23.264625
40
0.5110213
50
163.3763315
51
172.1410975
0
ARC
8
DEFAULT_255_1_234
10
18.6485572
20
23.2173518
40
0.8444586
50
172.0259487
51
178.0703232
0
ARC
8
DEFAULT_255_1_234
10
18.9515662
20
23.2029906
40
1.1477868
50
177.8631668
51
179.5044149
0
ARC
8
DEFAULT_255_1_234
10
18.8443066
20
22.9715389
40
1.0404907
50
179.7995573
51
185.2460446
0
ARC
8
DEFAULT_255_1_234
10
18.4400105
20
22.9332513
40
0.6343885
50
185.1411642
51
193.0079639
0
ARC
8
DEFAULT_255_1_234
10
18.1756578
20
22.8707641
40
0.3627568
50
192.7897626
51
205.2507664
0
ARC
8
DEFAULT_255_1_234
10
18.0710125
20
22.8240415
40
0.2481908
50
205.8005384
51
211.2537509
0
ARC
8
DEFAULT_255_1_234
10
18.0186565
20
22.788958
40
0.1852521
50
210.3789793
51
238.4008143
0
ARC
8
DEFAULT_255_1_234
10
18.0167087
20
22.7936376
40
0.1882621
50
239.6520629
51
265.9793761
0
ARC
8
DEFAULT_255_1_234
10
18.0252288
20
22.8608427
40
0.2559272
50
265.1315437
51
270.060332
0
ARC
8
DEFAULT_255_1_234
10
18.0281066
20
22.8284534
40
0.2235528
50
269.3314664
51
287.2178029
0
ARC
8
DEFAULT_255_1_234
10
18.0418918
20
22.7781279
40
0.1714108
50
287.7958004
51
329.080874
0
ARC
8
DEFAULT_255_1_234
10
17.9461375
20
22.837893
40
0.2842745
50
328.6634704
51
343.3325132
0
ARC
8
DEFAULT_255_1_234
10
17.7288395
20
22.9055863
40
0.5118644
50
343.0499468
51
351.9393422
0
ARC
8
DEFAULT_255_1_234
10
17.3821695
20
22.9566949
40
0.8622784
50
351.8069023
51
357.7959224
0
ARC
8
DEFAULT_255_1_234
10
17.0586251
20
22.9734721
40
1.1862365
50
357.5871873
51
359.2677531
0
LINE
8
DEFAULT_255_1_234
10
19.3170018
20
23.1912327
11
19.3170018
21
22.9984709
0
LINE
8
DEFAULT_255_1_234
10
18.578885
20
22.9783916
11
18.578885
21
23.1767755
0
LINE
8
DEFAULT_255_1_234
10
19.1684146
20
22.9583123
11
19.1684146
21
23.2016739
0
LINE
8
DEFAULT_255_1_234
10
18.7274722
20
23.2129184
11
18.7274722
21
22.9751789
0
ARC
8
DEFAULT_255_1_234
10
18.0922907
20
22.9935805
40
1.2247208
50
353.8441951
51
0.2287902
0
ARC
8
DEFAULT_255_1_234
10
18.5562411
20
22.9417806
40
0.7578929
50
344.4934747
51
353.9765454
0
ARC
8
DEFAULT_255_1_234
10
18.8555001
20
22.8566981
40
0.4467846
50
329.2803592
51
344.7472793
0
ARC
8
DEFAULT_255_1_234
10
18.9547826
20
22.8022018
40
0.3336173
50
324.9352394
51
328.6160465
0
ARC
8
DEFAULT_255_1_234
10
18.9924935
20
22.7758427
40
0.2876076
50
280.580143
51
324.9173126
0
ARC
8
DEFAULT_255_1_234
10
18.9523727
20
22.9429099
40
0.4592847
50
269.5977311
51
281.6734359
0
ARC
8
DEFAULT_255_1_234
10
18.9451633
20
22.9309173
40
0.4472986
50
256.6228859
51
270.51044
0
ARC
8
DEFAULT_255_1_234
10
18.9049611
20
22.7760877
40
0.2873874
50
215.8618325
51
257.2788573
0
ARC
8
DEFAULT_255_1_234
10
19.0070642
20
22.8445977
40
0.4102928
50
197.9693508
51
215.2623606
0
ARC
8
DEFAULT_255_1_234
10
19.2555758
20
22.9284709
40
0.6725652
50
187.8816417
51
198.2346507
0
ARC
8
DEFAULT_255_1_234
10
19.6513966
20
22.9856079
40
1.0724845
50
180.8976217
51
188.0055519
0
ARC
8
DEFAULT_255_1_234
10
19.9314154
20
22.9959777
40
1.3526448
50
180.7449369
51
181.1510016
0
ARC
8
DEFAULT_255_1_234
10
19.7736883
20
23.1816042
40
1.1948131
50
173.7675579
51
180.231553
0
ARC
8
DEFAULT_255_1_234
10
19.321903
20
23.2326666
40
0.7401564
50
164.3058563
51
173.9002247
0
ARC
8
DEFAULT_255_1_234
10
19.0307099
20
23.3165656
40
0.4371288
50
148.7922025
51
164.568378
0
ARC
8
DEFAULT_255_1_234
10
18.9355551
20
23.3696929
40
0.3282386
50
144.5883898
51
148.1176286
0
ARC
8
DEFAULT_255_1_234
10
18.9012449
20
23.3936315
40
0.2864044
50
101.6440918
51
144.514236
0
ARC
8
DEFAULT_255_1_234
10
18.9437516
20
23.2247069
40
0.4604934
50
89.5284041
51
102.5819763
0
ARC
8
DEFAULT_255_1_234
10
18.9516603
20
23.2208018
40
0.464401
50
77.0437873
51
90.5081339
0
ARC
8
DEFAULT_255_1_234
10
18.9918605
20
23.3850615
40
0.2953195
50
48.2778575
51
77.4994676
0
ARC
8
DEFAULT_255_1_234
10
18.9991236
20
23.3979746
40
0.2808655
50
36.3142134
51
47.6305865
0
ARC
8
DEFAULT_255_1_234
10
18.9122543
20
23.3394515
40
0.3855453
50
18.2931786
51
35.6769206
0
ARC
8
DEFAULT_255_1_234
10
18.6579302
20
23.2521593
40
0.654423
50
8.024666
51
18.5605216
0
ARC
8
DEFAULT_255_1_234
10
18.2416222
20
23.1906792
40
1.0752407
50
1.1274072
51
8.1718305
0
ARC
8
DEFAULT_255_1_234
10
17.9180413
20
23.1779885
40
1.3990231
50
0.5424119
51
1.3863029
0
ARC
8
DEFAULT_255_1_234
10
18.1001791
20
23.2052342
40
1.0682415
50
359.8090433
51
4.9407866
0
ARC
8
DEFAULT_255_1_234
10
18.5211805
20
23.2428113
40
0.6455691
50
4.8362157
51
12.2904523
0
ARC
8
DEFAULT_255_1_234
10
18.796692
20
23.3041965
40
0.3633074
50
12.0805627
51
23.8173984
0
ARC
8
DEFAULT_255_1_234
10
18.9140625
20
23.3538919
40
0.2358723
50
24.2871213
51
31.3935614
0
ARC
8
DEFAULT_255_1_234
10
18.9665322
20
23.3882233
40
0.1732111
50
30.7407893
51
82.4657128
0
ARC
8
DEFAULT_255_1_234
10
18.9485456
20
23.2998691
40
0.263235
50
81.1060089
51
90.2184952
0
ARC
8
DEFAULT_255_1_234
10
18.9449755
20
23.3256924
40
0.2374236
50
89.3806855
51
105.6762551
0
ARC
8
DEFAULT_255_1_234
10
18.9266386
20
23.3923567
40
0.1682847
50
105.7981136
51
149.7388061
0
ARC
8
DEFAULT_255_1_234
10
19.0330464
20
23.328395
40
0.2924306
50
149.4208916
51
163.6286378
0
ARC
8
DEFAULT_255_1_234
10
19.2421352
20
23.264625
40
0.5110213
50
163.3763315
51
172.1410975
0
ARC
8
DEFAULT_255_1_234
10
19.5722071
20
23.2173518
40
0.8444586
50
172.0259487
51
178.0703232
0
ARC
8
DEFAULT_255_1_234
10
19.8752161
20
23.2029906
40
1.1477868
50
177.8631668
51
179.5044149
0
ARC
8
DEFAULT_255_1_234
10
19.7679565
20
22.9715389
40
1.0404907
50
179.7995573
51
185.2460446
0
ARC
8
DEFAULT_255_1_234
10
19.3636604
20
22.9332513
40
0.6343885
50
185.1411642
51
193.0079639
0
ARC
8
DEFAULT_255_1_234
10
19.0993077
20
22.8707641
40
0.3627568
50
192.7897626
51
205.2507664
0
ARC
8
DEFAULT_255_1_234
10
18.9946624
20
22.8240415
40
0.2481908
50
205.8005384
51
211.2537509
0
ARC
8
DEFAULT_255_1_234
10
18.9423064
20
22.788958
40
0.1852521
50
210.3789793
51
238.4008143
0
ARC
8
DEFAULT_255_1_234
10
18.9403586
20
22.7936376
40
0.1882621
50
239.6520629
51
265.9793761
0
ARC
8
DEFAULT_255_1_234
10
18.9488787
20
22.8608427
40
0.2559272
50
265.1315437
51
270.060332
0
ARC
8
DEFAULT_255_1_234
10
18.9517565
20
22.8284534
40
0.2235528
50
269.3314664
51
287.2178029
0
ARC
8
DEFAULT_255_1_234
10
18.9655417
20
22.7781279
40
0.1714108
50
287.7958004
51
329.080874
0
ARC
8
DEFAULT_255_1_234
10
18.8697874
20
22.837893
40
0.2842745
50
328.6634704
51
343.3325132
0
ARC
8
DEFAULT_255_1_234
10
18.6524894
20
22.9055863
40
0.5118644
50
343.0499468
51
351.9393422
0
ARC
8
DEFAULT_255_1_234
10
18.3058194
20
22.9566949
40
0.8622784
50
351.8069023
51
357.7959224
0
ARC
8
DEFAULT_255_1_234
10
17.982275
20
22.9734721
40
1.1862365
50
357.5871873
51
359.2677531
0
LINE
8
DEFAULT_255_1_234
10
20.2406517
20
23.1912327
11
20.2406517
21
22.9984709
0
LINE
8
DEFAULT_255_1_234
10
19.5025349
20
22.9783916
11
19.5025349
21
23.1767755
0
LINE
8
DEFAULT_255_1_234
10
20.0920645
20
22.9583123
11
20.0920645
21
23.2016739
0
LINE
8
DEFAULT_255_1_234
10
19.6511221
20
23.2129184
11
19.6511221
21
22.9751789
0
ARC
8
DEFAULT_255_1_234
10
19.0159406
20
22.9935805
40
1.2247208
50
353.8441951
51
0.2287902
0
ARC
8
DEFAULT_255_1_234
10
19.479891
20
22.9417806
40
0.7578929
50
344.4934747
51
353.9765454
0
ARC
8
DEFAULT_255_1_234
10
19.77915
20
22.8566981
40
0.4467846
50
329.2803592
51
344.7472793
0
ARC
8
DEFAULT_255_1_234
10
19.8784325
20
22.8022018
40
0.3336173
50
324.9352394
51
328.6160465
0
ARC
8
DEFAULT_255_1_234
10
19.9161434
20
22.7758427
40
0.2876076
50
280.580143
51
324.9173126
0
ARC
8
DEFAULT_255_1_234
10
19.8760226
20
22.9429099
40
0.4592847
50
269.5977311
51
281.6734359
0
ARC
8
DEFAULT_255_1_234
10
19.8688132
20
22.9309173
40
0.4472986
50
256.6228859
51
270.51044
0
ARC
8
DEFAULT_255_1_234
10
19.828611
20
22.7760877
40
0.2873874
50
215.8618325
51
257.2788573
0
ARC
8
DEFAULT_255_1_234
10
19.9307141
20
22.8445977
40
0.4102928
50
197.9693508
51
215.2623606
0
ARC
8
DEFAULT_255_1_234
10
20.1792257
20
22.9284709
40
0.6725652
50
187.8816417
51
198.2346507
0
ARC
8
DEFAULT_255_1_234
10
20.5750465
20
22.9856079
40
1.0724845
50
180.8976217
51
188.0055519
0
ARC
8
DEFAULT_255_1_234
10
20.8550653
20
22.9959777
40
1.3526448
50
180.7449369
51
181.1510016
0
ARC
8
DEFAULT_255_1_234
10
20.6973382
20
23.1816042
40
1.1948131
50
173.7675579
51
180.231553
0
ARC
8
DEFAULT_255_1_234
10
20.2455529
20
23.2326666
40
0.7401564
50
164.3058563
51
173.9002247
0
ARC
8
DEFAULT_255_1_234
10
19.9543598
20
23.3165656
40
0.4371288
50
148.7922025
51
164.568378
0
ARC
8
DEFAULT_255_1_234
10
19.859205
20
23.3696929
40
0.3282386
50
144.5883898
51
148.1176286
0
ARC
8
DEFAULT_255_1_234
10
19.8248948
20
23.3936315
40
0.2864044
50
101.6440918
51
144.514236
0
ARC
8
DEFAULT_255_1_234
10
19.8674015
20
23.2247069
40
0.4604934
50
89.5284041
51
102.5819763
0
ARC
8
DEFAULT_255_1_234
10
19.8753102
20
23.2208018
40
0.464401
50
77.0437873
51
90.5081339
0
ARC
8
DEFAULT_255_1_234
10
19.9155104
20
23.3850615
40
0.2953195
50
48.2778575
51
77.4994676
0
ARC
8
DEFAULT_255_1_234
10
19.9227735
20
23.3979746
40
0.2808655
50
36.3142134
51
47.6305865
0
ARC
8
DEFAULT_255_1_234
10
19.8359042
20
23.3394515
40
0.3855453
50
18.2931786
51
35.6769206
0
ARC
8
DEFAULT_255_1_234
10
19.5815801
20
23.2521593
40
0.654423
50
8.024666
51
18.5605216
0
ARC
8
DEFAULT_255_1_234
10
19.1652721
20
23.1906792
40
1.0752407
50
1.1274072
51
8.1718305
0
ARC
8
DEFAULT_255_1_234
10
18.8416912
20
23.1779885
40
1.3990231
50
0.5424119
51
1.3863029
0
ARC
8
DEFAULT_255_1_234
10
19.023829
20
23.2052342
40
1.0682415
50
359.8090433
51
4.9407866
0
ARC
8
DEFAULT_255_1_234
10
19.4448304
20
23.2428113
40
0.6455691
50
4.8362157
51
12.2904523
0
ARC
8
DEFAULT_255_1_234
10
19.7203419
20
23.3041965
40
0.3633074
50
12.0805627
51
23.8173984
0
ARC
8
DEFAULT_255_1_234
10
19.8377124
20
23.3538919
40
0.2358723
50
24.2871213
51
31.3935614
0
ARC
8
DEFAULT_255_1_234
10
19.8901821
20
23.3882233
40
0.1732111
50
30.7407893
51
82.4657128
0
ARC
8
DEFAULT_255_1_234
10
19.8721955
20
23.2998691
40
0.263235
50
81.1060089
51
90.2184952
0
ARC
8
DEFAULT_255_1_234
10
19.8686254
20
23.3256924
40
0.2374236
50
89.3806855
51
105.6762551
0
ARC
8
DEFAULT_255_1_234
10
19.8502885
20
23.3923567
40
0.1682847
50
105.7981136
51
149.7388061
0
ARC
8
DEFAULT_255_1_234
10
19.9566963
20
23.328395
40
0.2924306
50
149.4208916
51
163.6286378
0
ARC
8
DEFAULT_255_1_234
10
20.1657851
20
23.264625
40
0.5110213
50
163.3763315
51
172.1410975
0
ARC
8
DEFAULT_255_1_234
10
20.495857
20
23.2173518
40
0.8444586
50
172.0259487
51
178.0703232
0
ARC
8
DEFAULT_255_1_234
10
20.798866
20
23.2029906
40
1.1477868
50
177.8631668
51
179.5044149
0
ARC
8
DEFAULT_255_1_234
10
20.6916064
20
22.9715389
40
1.0404907
50
179.7995573
51
185.2460446
0
ARC
8
DEFAULT_255_1_234
10
20.2873104
20
22.9332513
40
0.6343885
50
185.1411642
51
193.0079639
0
ARC
8
DEFAULT_255_1_234
10
20.0229576
20
22.8707641
40
0.3627568
50
192.7897626
51
205.2507664
0
ARC
8
DEFAULT_255_1_234
10
19.9183123
20
22.8240415
40
0.2481908
50
205.8005384
51
211.2537509
0
ARC
8
DEFAULT_255_1_234
10
19.8659564
20
22.788958
40
0.1852521
50
210.3789793
51
238.4008143
0
ARC
8
DEFAULT_255_1_234
10
19.8640085
20
22.7936376
40
0.1882621
50
239.6520629
51
265.9793761
0
ARC
8
DEFAULT_255_1_234
10
19.8725286
20
22.8608427
40
0.2559272
50
265.1315437
51
270.060332
0
ARC
8
DEFAULT_255_1_234
10
19.8754064
20
22.8284534
40
0.2235528
50
269.3314664
51
287.2178029
0
ARC
8
DEFAULT_255_1_234
10
19.8891916
20
22.7781279
40
0.1714108
50
287.7958004
51
329.080874
0
ARC
8
DEFAULT_255_1_234
10
19.7934373
20
22.837893
40
0.2842745
50
328.6634704
51
343.3325132
0
ARC
8
DEFAULT_255_1_234
10
19.5761393
20
22.9055863
40
0.5118644
50
343.0499468
51
351.9393422
0
ARC
8
DEFAULT_255_1_234
10
19.2294693
20
22.9566949
40
0.8622784
50
351.8069023
51
357.7959224
0
ARC
8
DEFAULT_255_1_234
10
18.9059249
20
22.9734721
40
1.1862365
50
357.5871873
51
359.2677531
0
ARC
8
DEFAULT_255_2_778
10
8.4839378
20
26.5058566
40
0.4373747
50
56.3665942
51
72.7074496
0
ARC
8
DEFAULT_255_2_778
10
8.5212053
20
26.6194168
40
0.3178747
50
73.036784
51
89.7973226
0
ARC
8
DEFAULT_255_2_778
10
8.5285513
20
26.5970299
40
0.3403165
50
91.0475309
51
125.5485458
0
ARC
8
DEFAULT_255_2_778
10
8.6942904
20
26.3481715
40
0.6392287
50
124.6669492
51
139.114563
0
ARC
8
DEFAULT_255_2_778
10
8.9357319
20
26.1247608
40
0.9680575
50
138.4713305
51
142.1157612
0
ARC
8
DEFAULT_255_2_778
10
8.5582787
20
26.1554931
40
0.5212765
50
117.7453356
51
135.8758074
0
ARC
8
DEFAULT_255_2_778
10
8.4611378
20
26.3378405
40
0.3146729
50
90.4656379
51
117.5483702
0
ARC
8
DEFAULT_255_2_778
10
8.4550272
20
26.3225767
40
0.3299454
50
64.3679478
51
89.3829577
0
ARC
8
DEFAULT_255_2_778
10
8.4227062
20
26.2410034
40
0.4175182
50
64.8738747
51
65.2115951
0
LINE
8
DEFAULT_255_2_778
10
8.1716896
20
26.7192141
11
8.1716896
21
26.8952141
0
LINE
8
DEFAULT_255_2_778
10
8.1716896
20
26.8952141
11
7.8313896
21
26.8952141
0
LINE
8
DEFAULT_255_2_778
10
7.8313896
20
26.8952141
11
7.8313896
21
25.6765141
0
LINE
8
DEFAULT_255_2_778
10
7.8313896
20
25.6765141
11
8.1967896
21
25.6765141
0
LINE
8
DEFAULT_255_2_778
10
8.1967896
20
25.6765141
11
8.1840896
21
26.5184141
0
LINE
8
DEFAULT_255_2_778
10
8.5999896
20
26.6190141
11
8.7261896
21
26.8700141
0
ARC
8
DEFAULT_255_2_778
10
12.3462297
20
26.0639166
40
0.1058286
50
290.4109967
51
338.4144294
0
ARC
8
DEFAULT_255_2_778
10
12.162295
20
26.433021
40
0.5177505
50
282.5203845
51
295.2483499
0
ARC
8
DEFAULT_255_2_778
10
12.2164596
20
26.2996179
40
0.3756367
50
270.2518229
51
277.9224239
0
ARC
8
DEFAULT_255_2_778
10
12.2019255
20
26.0871058
40
0.163922
50
191.9135594
51
275.6664103
0
ARC
8
DEFAULT_255_2_778
10
12.266424
20
26.2146972
40
0.6680449
50
207.8643513
51
221.7718618
0
ARC
8
DEFAULT_255_2_778
10
12.0489477
20
26.0082613
40
0.3684417
50
220.3588923
51
270.0277924
0
ARC
8
DEFAULT_255_2_778
10
12.0434926
20
26.1403085
40
0.5005206
50
270.6449322
51
287.6494066
0
ARC
8
DEFAULT_255_2_778
10
11.9529907
20
26.4362608
40
0.8099892
50
287.4026496
51
297.6988649
0
ARC
8
DEFAULT_255_2_778
10
11.7449905
20
26.8394576
40
1.2636684
50
297.5514274
51
304.3018591
0
LINE
8
DEFAULT_255_2_778
10
12.0415344
20
26.0532664
11
12.0351344
21
26.9012664
0
LINE
8
DEFAULT_255_2_778
10
12.0351344
20
26.9012664
11
11.6758344
21
26.9012664
0
LINE
8
DEFAULT_255_2_778
10
11.6758344
20
26.9012664
11
11.6758344
21
25.9024664
0
LINE
8
DEFAULT_255_2_778
10
12.4571344
20
25.7955664
11
12.4698344
21
25.6825664
0
LINE
8
DEFAULT_255_2_778
10
12.4698344
20
25.6825664
11
12.8101344
21
25.6825664
0
LINE
8
DEFAULT_255_2_778
10
12.8101344
20
25.6825664
11
12.8101344
21
26.9139664
0
LINE
8
DEFAULT_255_2_778
10
12.8101344
20
26.9139664
11
12.4444344
21
26.9139664
0
LINE
8
DEFAULT_255_2_778
10
12.4444344
20
26.9139664
11
12.4444344
21
26.0217664
0
LINE
8
DEFAULT_255_2_778
10
15.1797344
20
25.6762664
11
15.1797344
21
26.9076664
0
LINE
8
DEFAULT_255_2_778
10
15.1797344
20
26.9076664
11
15.5453344
21
26.9076664
0
LINE
8
DEFAULT_255_2_778
10
15.5453344
20
26.9076664
11
15.5453344
21
25.6762664
0
LINE
8
DEFAULT_255_2_778
10
15.5453344
20
25.6762664
11
15.1797344
21
25.6762664
0
ARC
8
DEFAULT_255_2_778
10
15.3647435
20
27.300366
40
0.1978332
50
90.7257917
51
180.9507563
0
ARC
8
DEFAULT_255_2_778
10
15.3597161
20
27.3004493
40
0.1977501
50
359.0247012
51
89.2694187
0
ARC
8
DEFAULT_255_2_778
10
15.3597161
20
27.2937174
40
0.1977501
50
270.7305813
51
0.9752988
0
ARC
8
DEFAULT_255_2_778
10
15.3647435
20
27.2938007
40
0.1978332
50
179.0492437
51
269.2742083
0
LINE
8
DEFAULT_255_2_778
10
15.1669375
20
27.2970833
11
15.1669375
21
27.2970833
0
LINE
8
DEFAULT_255_2_778
10
16.8729729
20
25.6729854
11
16.8729729
21
26.9043854
0
LINE
8
DEFAULT_255_2_778
10
16.8729729
20
26.9043854
11
17.2386729
21
26.9043854
0
LINE
8
DEFAULT_255_2_778
10
17.2386729
20
26.9043854
11
17.2386729
21
25.6729854
0
LINE
8
DEFAULT_255_2_778
10
17.2386729
20
25.6729854
11
16.8729729
21
25.6729854
0
ARC
8
DEFAULT_255_2_778
10
17.0581435
20
27.297166
40
0.1978332
50
90.7257917
51
180.9507563
0
ARC
8
DEFAULT_255_2_778
10
17.0530509
20
27.297186
40
0.1978142
50
359.0433553
51
89.2507851
0
ARC
8
DEFAULT_255_2_778
10
17.053051
20
27.2905805
40
0.197814
50
270.7491796
51
0.9566796
0
ARC
8
DEFAULT_255_2_778
10
17.0581435
20
27.2906007
40
0.1978332
50
179.0492437
51
269.2742083
0
LINE
8
DEFAULT_255_2_778
10
16.8603375
20
27.2938833
11
16.8603375
21
27.2938833
0
ARC
8
DEFAULT_255_2_778
10
21.970418
20
25.5314227
40
0.3997146
50
186.2131711
51
214.6577436
0
ARC
8
DEFAULT_255_2_778
10
21.8841491
20
25.4918601
40
0.3066997
50
217.744646
51
266.8145684
0
ARC
8
DEFAULT_255_2_778
10
21.9237244
20
25.7027036
40
0.5201599
50
263.7511447
51
266.7848801
0
ARC
8
DEFAULT_255_2_778
10
21.9002471
20
25.5084163
40
0.2402213
50
195.2759813
51
268.6413445
0
ARC
8
DEFAULT_255_2_778
10
22.1728439
20
25.6340818
40
0.5385664
50
193.3133601
51
200.5393414
0
ARC
8
DEFAULT_255_2_778
10
21.9558314
20
25.4811054
40
0.3084425
50
141.9154932
51
174.6130531
0
ARC
8
DEFAULT_255_2_778
10
21.8946765
20
25.5070396
40
0.2449229
50
90.0292982
51
137.86297
0
ARC
8
DEFAULT_255_2_778
10
21.8900311
20
25.5251835
40
0.3117117
50
89.169111
51
162.3562446
0
ARC
8
DEFAULT_255_2_778
10
22.1495641
20
25.3935256
40
0.6007672
50
157.8882743
51
162.6116909
0
ARC
8
DEFAULT_255_2_778
10
13.7518475
20
26.085969
40
0.434232
50
284.0737984
51
307.1283935
0
ARC
8
DEFAULT_255_2_778
10
13.6603344
20
26.4225455
40
0.7829896
50
272.5675489
51
284.5802087
0
ARC
8
DEFAULT_255_2_778
10
13.6344156
20
26.7814403
40
1.1427274
50
269.9523961
51
273.0596894
0
ARC
8
DEFAULT_255_2_778
10
13.6383034
20
27.1631179
40
1.5244123
50
264.3721605
51
269.8181894
0
ARC
8
DEFAULT_255_2_778
10
13.7027881
20
27.8348919
40
2.1992727
50
260.3040359
51
264.4165702
0
ARC
8
DEFAULT_255_2_778
10
13.7920902
20
28.3873156
40
2.75885
50
259.2299789
51
260.4081406
0
ARC
8
DEFAULT_255_2_778
10
13.5130405
20
26.2368783
40
0.6077178
50
188.8927198
51
247.0988028
0
ARC
8
DEFAULT_255_2_778
10
13.8555895
20
26.3280217
40
0.9609548
50
185.1081288
51
191.1050073
0
ARC
8
DEFAULT_255_2_778
10
13.7233792
20
26.255517
40
0.8250312
50
161.5072483
51
180.9066349
0
ARC
8
DEFAULT_255_2_778
10
13.4744453
20
26.3342627
40
0.5639907
50
120.4701872
51
161.0725957
0
ARC
8
DEFAULT_255_2_778
10
13.5600933
20
26.267527
40
0.6661417
50
90.0499347
51
123.9108507
0
ARC
8
DEFAULT_255_2_778
10
13.573003
20
26.110998
40
0.8227812
50
89.9974966
51
90.9394619
0
ARC
8
DEFAULT_255_2_778
10
13.567053
20
25.9499594
40
0.9838382
50
77.8335832
51
89.6513936
0
ARC
8
DEFAULT_255_2_778
10
13.4795686
20
25.5320554
40
1.4107957
50
69.8093959
51
77.9373312
0
ARC
8
DEFAULT_255_2_778
10
13.3760065
20
25.2302908
40
1.7297745
50
69.0266426
51
70.0397415
0
ARC
8
DEFAULT_255_2_778
10
13.5343739
20
25.2522164
40
1.4359408
50
73.9178594
51
79.2452957
0
ARC
8
DEFAULT_255_2_778
10
13.6318735
20
25.7725106
40
0.9065925
50
79.1629935
51
86.6049203
0
ARC
8
DEFAULT_255_2_778
10
13.649902
20
26.023833
40
0.654651
50
86.8774046
51
89.9568351
0
ARC
8
DEFAULT_255_2_778
10
13.64243
20
26.2611025
40
0.4174572
50
88.9067133
51
108.0688095
0
ARC
8
DEFAULT_255_2_778
10
13.5852023
20
26.4348459
40
0.2345328
50
107.942404
51
152.2459688
0
ARC
8
DEFAULT_255_2_778
10
14.2993316
20
26.1045872
40
1.0210941
50
154.5072776
51
162.5682748
0
ARC
8
DEFAULT_255_2_778
10
13.9273868
20
26.2193314
40
0.6318603
50
162.3915767
51
174.8213024
0
ARC
8
DEFAULT_255_2_778
10
13.7622439
20
26.2381421
40
0.4657093
50
175.2922289
51
179.9490984
0
ARC
8
DEFAULT_255_2_778
10
13.635088
20
26.2307528
40
0.338643
50
178.6796766
51
234.9381893
0
ARC
8
DEFAULT_255_2_778
10
13.6327313
20
26.2424177
40
0.3469445
50
236.3635337
51
264.9414885
0
ARC
8
DEFAULT_255_2_778
10
13.6587955
20
26.4179041
40
0.5241505
50
263.7947872
51
270.1188666
0
ARC
8
DEFAULT_255_2_778
10
13.6535226
20
26.6552912
40
0.7615633
50
270.4785196
51
281.0719661
0
ARC
8
DEFAULT_255_2_778
10
13.5692117
20
27.1091518
40
1.2231753
50
280.8649891
51
287.2606546
0
ARC
8
DEFAULT_255_2_778
10
14.6239491
20
27.9420775
40
2.2970478
50
276.5245429
51
279.5045514
0
ARC
8
DEFAULT_255_2_778
10
14.6893389
20
27.3644423
40
1.7157236
50
272.7759418
51
276.5469051
0
ARC
8
DEFAULT_255_2_778
10
14.7091281
20
26.9841849
40
1.3349546
50
270.0439674
51
272.7180028
0
ARC
8
DEFAULT_255_2_778
10
14.7005118
20
26.5160255
40
0.8668484
50
258.6359382
51
270.6372354
0
ARC
8
DEFAULT_255_2_778
10
14.6078537
20
26.0801002
40
0.4212409
50
235.5405817
51
259.3086539
0
ARC
8
DEFAULT_255_2_778
10
14.5467662
20
25.9727689
40
0.2983588
50
181.5929591
51
233.550276
0
ARC
8
DEFAULT_255_2_778
10
14.7449853
20
26.0027298
40
0.4979343
50
179.9387066
51
184.4062155
0
ARC
8
DEFAULT_255_2_778
10
14.8385536
20
26.0987996
40
0.2332136
50
194.3846046
51
259.805052
0
ARC
8
DEFAULT_255_2_778
10
14.9431857
20
26.4640482
40
0.6124159
50
256.2164989
51
270.9014371
0
ARC
8
DEFAULT_255_2_778
10
14.9523166
20
26.8309885
40
0.9792806
50
270.0294815
51
272.249316
0
LINE
8
DEFAULT_255_2_778
10
15.5956513
20
26.9012625
11
15.9422513
21
26.9012625
0
LINE
8
DEFAULT_255_2_778
10
15.9422513
20
26.9012625
11
16.2131513
21
26.1599625
0
LINE
8
DEFAULT_255_2_778
10
16.2131513
20
26.1599625
11
16.4840513
21
26.9076625
0
LINE
8
DEFAULT_255_2_778
10
16.4840513
20
26.9076625
11
16.7928513
21
26.9076625
0
LINE
8
DEFAULT_255_2_778
10
16.7928513
20
26.9076625
11
16.2885513
21
25.6574625
0
LINE
8
DEFAULT_255_2_778
10
16.2885513
20
25.6574625
11
16.0678513
21
25.6574625
0
LINE
8
DEFAULT_255_2_778
10
16.0678513
20
25.6574625
11
15.5956513
21
26.9012625
0
LINE
8
DEFAULT_255_2_778
10
6.2182513
20
27.5296625
11
6.3002513
21
27.5296625
0
LINE
8
DEFAULT_255_2_778
10
6.3002513
20
27.5296625
11
6.3002513
21
25.5727625
0
LINE
8
DEFAULT_255_2_778
10
6.3002513
20
25.5727625
11
18.5070513
21
25.5696625
0
LINE
8
DEFAULT_255_2_778
10
18.5070513
20
25.5696625
11
18.5102513
21
25.4878625
0
LINE
8
DEFAULT_255_2_778
10
18.5102513
20
25.4878625
11
6.2182513
21
25.4878625
0
LINE
8
DEFAULT_255_2_778
10
6.2182513
20
25.4878625
11
6.2182513
21
27.5233625
0
LINE
8
DEFAULT_255_2_778
10
18.9671513
20
25.5759625
11
18.9671513
21
25.4881625
0
LINE
8
DEFAULT_255_2_778
10
18.9671513
20
25.4881625
11
21.5730513
21
25.4881625
0
LINE
8
DEFAULT_255_2_778
10
21.8945513
20
25.1833625
11
21.8945513
21
25.2682625
0
LINE
8
DEFAULT_255_2_778
10
21.8945513
20
25.7519625
11
21.8945513
21
25.8368625
0
LINE
8
DEFAULT_255_2_778
10
21.5762513
20
25.5730625
11
18.9735513
21
25.5730625
0
LINE
8
DEFAULT_255_2_778
10
13.9382513
20
25.9408625
11
14.0139513
21
25.7397625
0
LINE
8
DEFAULT_255_2_778
10
13.9951513
20
26.8454625
11
13.9321513
21
26.6319625
0
LINE
8
DEFAULT_255_2_778
10
14.2470513
20
26.0032625
11
14.2470513
21
26.6940625
0
LINE
8
DEFAULT_255_2_778
10
14.2470513
20
26.6940625
11
14.0578513
21
26.6940625
0
LINE
8
DEFAULT_255_2_778
10
14.0578513
20
26.6940625
11
14.0578513
21
26.9076625
0
LINE
8
DEFAULT_255_2_778
10
14.0578513
20
26.9076625
11
14.2470513
21
26.9076625
0
LINE
8
DEFAULT_255_2_778
10
14.2470513
20
26.9076625
11
14.3856513
21
27.4100625
0
LINE
8
DEFAULT_255_2_778
10
14.3856513
20
27.4100625
11
14.5999513
21
27.4100625
0
LINE
8
DEFAULT_255_2_778
10
14.5999513
20
27.4100625
11
14.6126513
21
26.9076625
0
LINE
8
DEFAULT_255_2_778
10
14.6126513
20
26.9076625
11
14.9529513
21
26.9076625
0
LINE
8
DEFAULT_255_2_778
10
14.9529513
20
26.9076625
11
14.9529513
21
26.6940625
0
LINE
8
DEFAULT_255_2_778
10
14.9529513
20
26.6940625
11
14.6126513
21
26.6940625
0
LINE
8
DEFAULT_255_2_778
10
14.6126513
20
26.6940625
11
14.6126513
21
26.0408625
0
LINE
8
DEFAULT_255_2_778
10
14.9907513
20
25.8524625
11
15.0032513
21
25.6765625
0
ARC
8
DEFAULT_255_2_778
10
18.2771534
20
25.5356218
40
0.588751
50
314.1546216
51
331.9441074
0
ARC
8
DEFAULT_255_2_778
10
18.414715
20
25.3954814
40
0.3923819
50
269.0302143
51
313.9978072
0
ARC
8
DEFAULT_255_2_778
10
18.4129943
20
25.5878964
40
0.5847614
50
255.6540981
51
269.5178846
0
ARC
8
DEFAULT_255_2_778
10
18.4880495
20
25.8911195
40
0.8971292
50
246.7068488
51
255.8084251
0
ARC
8
DEFAULT_255_2_778
10
18.6125544
20
26.193834
40
1.224416
50
243.473706
51
246.9570682
0
ARC
8
DEFAULT_255_2_778
10
18.3377307
20
25.6243958
40
0.365718
50
238.6975405
51
269.7536991
0
ARC
8
DEFAULT_255_2_778
10
18.3341625
20
25.6583672
40
0.3996911
50
270.2861506
51
285.9235992
0
ARC
8
DEFAULT_255_2_778
10
18.3190528
20
25.4790257
40
0.2399938
50
301.3239159
51
328.5484084
0
ARC
8
DEFAULT_255_2_778
10
17.8344662
20
25.8052796
40
0.8240117
50
326.7768178
51
337.3925755
0
ARC
8
DEFAULT_255_2_778
10
16.7758869
20
26.2639406
40
1.9776351
50
336.9149998
51
342.1307954
0
ARC
8
DEFAULT_255_2_778
10
18.1003835
20
26.0685501
40
0.1954042
50
190.120766
51
263.958695
0
ARC
8
DEFAULT_255_2_778
10
18.1765334
20
26.3711691
40
0.5062622
50
258.9866291
51
270.5697296
0
ARC
8
DEFAULT_255_2_778
10
18.179421
20
26.6886009
40
0.8236717
50
270.1493118
51
275.0745303
0
ARC
8
DEFAULT_255_2_778
10
18.1623931
20
26.9056991
40
1.0414275
50
274.9512067
51
276.4741818
0
ARC
8
DEFAULT_255_2_778
10
17.8865118
20
28.1619593
40
2.5197089
50
276.512457
51
279.4178429
0
ARC
8
DEFAULT_255_2_778
10
17.9623799
20
27.4916109
40
1.8450814
50
272.9002784
51
276.532699
0
ARC
8
DEFAULT_255_2_778
10
17.9860581
20
27.049308
40
1.4021477
50
270.0528156
51
272.8484525
0
ARC
8
DEFAULT_255_2_778
10
17.9780255
20
26.5405179
40
0.8934054
50
259.5071449
51
270.5980454
0
ARC
8
DEFAULT_255_2_778
10
17.887913
20
26.0795607
40
0.4237716
50
238.7101736
51
260.1371304
0
ARC
8
DEFAULT_255_2_778
10
17.8040731
20
25.9331077
40
0.2551147
50
181.256628
51
237.7180126
0
LINE
8
DEFAULT_255_2_778
10
18.0657198
20
25.0983129
11
18.1477198
21
25.3119129
0
LINE
8
DEFAULT_255_2_778
10
18.6581198
20
25.6571129
11
18.2295198
21
26.6874129
0
LINE
8
DEFAULT_255_2_778
10
18.2295198
20
26.6874129
11
17.9080198
21
26.6874129
0
LINE
8
DEFAULT_255_2_778
10
17.9080198
20
26.6874129
11
17.9080198
21
26.0342129
0
LINE
8
DEFAULT_255_2_778
10
18.2798198
20
25.8709129
11
18.2988198
21
25.6762129
0
LINE
8
DEFAULT_255_2_778
10
17.5490198
20
25.9275129
11
17.5363198
21
26.6940129
0
LINE
8
DEFAULT_255_2_778
10
17.5363198
20
26.6940129
11
17.3471198
21
26.6940129
0
LINE
8
DEFAULT_255_2_778
10
17.3471198
20
26.6940129
11
17.3471198
21
26.9076129
0
LINE
8
DEFAULT_255_2_778
10
17.3471198
20
26.9076129
11
17.5487198
21
26.9076129
0
LINE
8
DEFAULT_255_2_778
10
17.5487198
20
26.9076129
11
17.6747198
21
27.4100129
0
LINE
8
DEFAULT_255_2_778
10
17.6747198
20
27.4100129
11
17.8890198
21
27.4100129
0
LINE
8
DEFAULT_255_2_778
10
17.8890198
20
27.4100129
11
17.9016198
21
26.9076129
0
LINE
8
DEFAULT_255_2_778
10
17.9016198
20
26.9076129
11
18.5319198
21
26.9076129
0
LINE
8
DEFAULT_255_2_778
10
18.5319198
20
26.9076129
11
18.8343198
21
26.0784129
0
LINE
8
DEFAULT_255_2_778
10
18.8343198
20
26.0784129
11
19.1367198
21
26.9076129
0
LINE
8
DEFAULT_255_2_778
10
19.1367198
20
26.9076129
11
19.4519198
21
26.9076129
0
LINE
8
DEFAULT_255_2_778
10
19.4519198
20
26.9076129
11
18.7965198
21
25.2616129
0
ARC
8
DEFAULT_255_2_778
10
19.6924437
20
26.8617696
40
0.0239272
50
28.3661387
51
103.4171235
0
ARC
8
DEFAULT_255_2_778
10
19.6675295
20
26.650419
40
0.2354223
50
85.2824157
51
90.3240769
0
ARC
8
DEFAULT_255_2_778
10
19.6826724
20
26.2502724
40
0.7355141
50
91.4329921
51
94.48177
0
ARC
8
DEFAULT_255_2_778
10
19.6760151
20
26.4740699
40
0.5116212
50
90.0201345
51
91.3144556
0
ARC
8
DEFAULT_255_2_778
10
19.6816468
20
26.7500681
40
0.2356947
50
77.9224126
51
91.4128683
0
ARC
8
DEFAULT_255_2_778
10
19.728896
20
26.9468901
40
0.033719
50
19.5884501
51
86.4861281
0
ARC
8
DEFAULT_255_2_778
10
19.7399029
20
26.9545596
40
0.0210765
50
359.8762401
51
9.931824
0
ARC
8
DEFAULT_255_2_778
10
19.7113269
20
26.9594143
40
0.0498935
50
318.6976019
51
354.3636464
0
ARC
8
DEFAULT_255_2_778
10
19.5933914
20
27.0468632
40
0.1965856
50
312.4190431
51
322.2400045
0
ARC
8
DEFAULT_255_2_778
10
19.7074456
20
26.8589292
40
0.0466555
50
7.7623904
51
66.56899
0
ARC
8
DEFAULT_255_2_778
10
19.5728806
20
26.8309086
40
0.184022
50
4.3922991
51
10.7492459
0
ARC
8
DEFAULT_255_2_778
10
19.7790464
20
26.8412679
40
0.0229895
50
170.6523659
51
230.6545988
0
ARC
8
DEFAULT_255_2_778
10
19.7669101
20
26.8317613
40
0.0086241
50
253.5721784
51
270.5831571
0
ARC
8
DEFAULT_255_2_778
10
19.6866504
20
26.928095
40
0.0341371
50
13.1090465
51
106.1583193
0
ARC
8
DEFAULT_255_2_778
10
19.6697504
20
26.7830182
40
0.1780193
50
87.6176468
51
90.0490737
0
ARC
8
DEFAULT_255_2_778
10
19.6796313
20
26.9783413
40
0.0651807
50
261.1451415
51
305.2728533
0
ARC
8
DEFAULT_255_2_778
10
19.7079877
20
26.9325896
40
0.0119111
50
321.2061753
51
0.7115169
0
ARC
8
DEFAULT_255_2_778
10
19.6909745
20
26.9044613
40
0.1602765
50
89.8843696
51
180.00852
0
ARC
8
DEFAULT_255_2_778
10
19.6918123
20
26.9046526
40
0.1600857
50
359.923006
51
90.1841118
0
ARC
8
DEFAULT_255_2_778
10
19.6917276
20
26.9042075
40
0.1601705
50
269.8462838
51
0.0822692
0
ARC
8
DEFAULT_255_2_778
10
19.6908681
20
26.9042074
40
0.1601705
50
179.9177057
51
270.1537517
0
ARC
8
DEFAULT_255_2_778
10
19.6919973
20
26.9057144
40
0.123506
50
179.9915118
51
180.592397
0
ARC
8
DEFAULT_255_2_778
10
19.6928185
20
26.9057195
40
0.1243272
50
90.7007565
51
179.993924
0
ARC
8
DEFAULT_255_2_778
10
19.6897774
20
26.9057195
40
0.1243272
50
0.006076
51
89.2992435
0
ARC
8
DEFAULT_255_2_778
10
19.6905986
20
26.9057144
40
0.123506
50
359.407603
51
0.0084882
0
ARC
8
DEFAULT_255_2_778
10
19.6902296
20
26.9031587
40
0.1238749
50
359.9915257
51
0.5914856
0
ARC
8
DEFAULT_255_2_778
10
19.6896908
20
26.9031409
40
0.1244138
50
270.7401562
51
359.9997457
0
ARC
8
DEFAULT_255_2_778
10
19.6929051
20
26.9031409
40
0.1244138
50
180.0002543
51
269.2598438
0
ARC
8
DEFAULT_255_2_778
10
19.6923663
20
26.9031587
40
0.123875
50
179.4085144
51
180.0084743
0
LINE
8
DEFAULT_255_2_778
10
19.7671979
20
26.8229375
11
19.7261979
21
26.8229375
0
LINE
8
DEFAULT_255_2_778
10
19.7261979
20
26.8229375
11
19.7134979
21
26.8731375
0
LINE
8
DEFAULT_255_2_778
10
19.6661979
20
26.8858375
11
19.6661979
21
26.8231375
0
LINE
8
DEFAULT_255_2_778
10
19.6661979
20
26.8231375
11
19.6282979
21
26.8231375
0
LINE
8
DEFAULT_255_2_778
10
19.6282979
20
26.8231375
11
19.6251979
21
26.9835375
0
LINE
8
DEFAULT_255_2_778
10
19.7669979
20
26.8231375
11
19.7671979
21
26.8229375
0
LINE
8
DEFAULT_255_2_778
10
19.6695979
20
26.9610375
11
19.6695979
21
26.9139375
0
LINE
8
DEFAULT_255_2_778
10
19.5306979
20
26.9044375
11
19.5306979
21
26.9044375
0
LINE
8
DEFAULT_255_2_778
10
19.5684979
20
26.9044375
11
19.5684979
21
26.9044375
0
LINE
8
DEFAULT_255_2_778
10
11.0900688
20
26.6318698
11
11.0900688
21
26.0035698
0
ARC
8
DEFAULT_255_2_778
10
10.4258178
20
27.1967512
40
1.3656176
50
292.8223416
51
299.1049387
0
ARC
8
DEFAULT_255_2_778
10
10.6923229
20
26.5550623
40
0.6708024
50
282.4794629
51
293.1002978
0
ARC
8
DEFAULT_255_2_778
10
10.7656801
20
26.2295416
40
0.3371233
50
270.5838487
51
282.2615078
0
ARC
8
DEFAULT_255_2_778
10
10.7637817
20
26.062928
40
0.1705756
50
241.3798642
51
271.7918735
0
ARC
8
DEFAULT_255_2_778
10
10.7476697
20
26.026112
40
0.1305871
50
222.8095502
51
239.8477433
0
ARC
8
DEFAULT_255_2_778
10
10.8383448
20
26.1506648
40
0.2833162
50
195.5923976
51
228.8379937
0
ARC
8
DEFAULT_255_2_778
10
11.2233514
20
26.2744125
40
0.6875956
50
182.8988217
51
196.901328
0
ARC
8
DEFAULT_255_2_778
10
11.7297763
20
26.3165595
40
1.1956176
50
179.9089191
51
183.6886871
0
ARC
8
DEFAULT_255_2_778
10
12.0981229
20
26.3169544
40
1.5639636
50
177.2544012
51
179.9448392
0
LINE
8
DEFAULT_255_2_778
10
10.5359547
20
26.3918705
11
10.5359688
21
26.3921698
0
ARC
8
DEFAULT_255_2_778
10
11.0005754
20
26.3272208
40
0.4691244
50
149.0121274
51
172.0420019
0
ARC
8
DEFAULT_255_2_778
10
10.8347413
20
26.4176494
40
0.280511
50
88.5440138
51
147.4067729
0
ARC
8
DEFAULT_255_2_778
10
10.7657193
20
25.8674864
40
0.8340669
50
72.0203436
51
84.7616527
0
ARC
8
DEFAULT_255_2_778
10
10.8831282
20
26.2455191
40
0.4382821
50
61.8252032
51
71.3646611
0
ARC
8
DEFAULT_255_2_778
10
10.4737962
20
26.9159032
40
1.2918982
50
287.0682731
51
298.4915226
0
ARC
8
DEFAULT_255_2_778
10
10.6328818
20
26.3929772
40
0.7453122
50
270.6811176
51
287.1763457
0
ARC
8
DEFAULT_255_2_778
10
10.6416525
20
26.2269494
40
0.5792318
50
267.7358327
51
270.0088232
0
ARC
8
DEFAULT_255_2_778
10
10.6221952
20
26.0673768
40
0.4192211
50
203.9093897
51
269.5317059
0
ARC
8
DEFAULT_255_2_778
10
11.0896726
20
26.3267122
40
0.9528801
50
192.6009015
51
206.7737237
0
ARC
8
DEFAULT_255_2_778
10
11.4914822
20
26.4350427
40
1.3687639
50
192.6165694
51
193.3570279
0
ARC
8
DEFAULT_255_2_778
10
11.1915444
20
26.3292151
40
1.05363
50
182.6356817
51
190.5628607
0
ARC
8
DEFAULT_255_2_778
10
11.0380576
20
26.3196692
40
0.89987
50
180.0135228
51
182.4779265
0
ARC
8
DEFAULT_255_2_778
10
10.8122185
20
26.3355664
40
0.6742234
50
136.7456723
51
181.3691273
0
ARC
8
DEFAULT_255_2_778
10
10.662857
20
26.4243873
40
0.5059802
50
89.2314975
51
132.4774114
0
ARC
8
DEFAULT_255_2_778
10
10.6695571
20
26.3136601
40
0.6166618
50
87.8056342
51
89.9919799
0
ARC
8
DEFAULT_255_2_778
10
10.6807164
20
25.7719717
40
1.157965
50
70.3175508
51
89.3838437
0
ARC
8
DEFAULT_255_2_778
10
10.5893508
20
25.4644874
40
1.4783609
50
70.2024224
51
70.9971735
0
ARC
8
DEFAULT_255_2_778
10
9.3624819
20
26.2983426
40
0.1950108
50
91.6788031
51
181.813939
0
ARC
8
DEFAULT_255_2_778
10
9.350989
20
26.2982798
40
0.1950756
50
358.2051219
51
88.3021655
0
ARC
8
DEFAULT_255_2_778
10
9.3509891
20
26.2860596
40
0.1950754
50
271.6978133
51
1.7949071
0
ARC
8
DEFAULT_255_2_778
10
9.3624819
20
26.2859969
40
0.1950108
50
178.186061
51
268.3211969
0
ARC
8
DEFAULT_255_2_778
10
9.5084727
20
26.2989309
40
0.4668529
50
145.043768
51
180.8298084
0
ARC
8
DEFAULT_255_2_778
10
9.3653029
20
26.4066132
40
0.287883
50
91.6987406
51
146.2830079
0
ARC
8
DEFAULT_255_2_778
10
9.3415457
20
26.3896621
40
0.3050877
50
23.4934874
51
87.1398977
0
ARC
8
DEFAULT_255_2_778
10
9.1870732
20
26.2957629
40
0.484809
50
359.5753549
51
26.3944218
0
ARC
8
DEFAULT_255_2_778
10
9.2053375
20
26.28542
40
0.4665802
50
325.0256173
51
0.8288991
0
ARC
8
DEFAULT_255_2_778
10
9.3482106
20
26.1778699
40
0.2879274
50
271.7032906
51
326.2656695
0
ARC
8
DEFAULT_255_2_778
10
9.3720078
20
26.1949987
40
0.3053095
50
203.3271307
51
267.1389871
0
ARC
8
DEFAULT_255_2_778
10
9.5267258
20
26.288593
40
0.4850703
50
179.5775117
51
206.2433806
0
ARC
8
DEFAULT_255_2_778
10
9.3459242
20
26.2732025
40
0.6700752
50
95.9615992
51
178.9168048
0
ARC
8
DEFAULT_255_2_778
10
9.3689457
20
26.2051302
40
0.7403396
50
89.982733
51
97.186551
0
ARC
8
DEFAULT_255_2_778
10
9.3734015
20
26.2353279
40
0.7101545
50
48.1622127
51
90.3414937
0
ARC
8
DEFAULT_255_2_778
10
9.4195028
20
26.2843697
40
0.6428678
50
0.1336951
51
48.3079447
0
ARC
8
DEFAULT_255_2_778
10
9.3924134
20
26.298537
40
0.6700752
50
275.9615992
51
358.9168048
0
ARC
8
DEFAULT_255_2_778
10
9.3693919
20
26.3666094
40
0.7403396
50
269.982733
51
277.186551
0
ARC
8
DEFAULT_255_2_778
10
9.3649362
20
26.3364116
40
0.7101545
50
228.1622127
51
270.3414937
0
ARC
8
DEFAULT_255_2_778
10
9.3188349
20
26.2873698
40
0.6428678
50
180.1336951
51
228.3079447
0
ARC
8
DEFAULT_255_2_778
10
6.8107463
20
26.9828908
40
0.4410946
50
358.399361
51
20.0218069
0
ARC
8
DEFAULT_255_2_778
10
7.0252301
20
27.0589859
40
0.2135292
50
20.5419455
51
86.7410997
0
ARC
8
DEFAULT_255_2_778
10
6.9401457
20
27.0193828
40
0.3152779
50
287.9611926
51
351.1485072
0
ARC
8
DEFAULT_255_2_778
10
7.0381682
20
26.96725
40
0.6191268
50
4.9683528
51
29.9289322
0
ARC
8
DEFAULT_255_2_778
10
7.1427871
20
27.0083443
40
0.508227
50
31.7987523
51
73.6168205
0
ARC
8
DEFAULT_255_2_778
10
7.0076309
20
26.6272148
40
0.9122727
50
72.2244713
51
84.9667071
0
ARC
8
DEFAULT_255_2_778
10
6.9731565
20
27.3912673
40
0.9427779
50
276.9765222
51
292.3131775
0
ARC
8
DEFAULT_255_2_778
10
7.152457
20
26.9837302
40
0.4978062
50
291.0302401
51
353.4987619
0
ARC
8
DEFAULT_255_2_778
10
6.882936
20
27.0390679
40
0.7722473
50
351.6832812
51
358.6496898
0
LINE
8
DEFAULT_255_2_778
10
11.0900688
20
26.6318698
11
11.0900688
21
26.6318698
0
LINE
8
DEFAULT_255_2_778
10
11.0900688
20
26.8552698
11
11.0900688
21
27.6076698
0
LINE
8
DEFAULT_255_2_778
10
11.0900688
20
27.6076698
11
11.4538688
21
27.6489698
0
LINE
8
DEFAULT_255_2_778
10
11.4538688
20
27.6489698
11
11.4538688
21
25.6812698
0
LINE
8
DEFAULT_255_2_778
10
11.4538688
20
25.6812698
11
11.0982688
21
25.6812698
0
LINE
8
DEFAULT_255_2_778
10
11.0982688
20
25.6812698
11
11.0900688
21
25.7804698
0
LINE
8
DEFAULT_255_2_778
10
11.0900688
20
26.8554698
11
11.0900688
21
26.8552698
0
LINE
8
DEFAULT_255_2_778
10
9.1675688
20
26.2921698
11
9.1675688
21
26.2921698
0
LINE
8
DEFAULT_255_2_778
10
9.0416688
20
26.2921698
11
9.0416688
21
26.2921698
0
LINE
8
DEFAULT_255_2_778
10
8.6759688
20
26.2858698
11
8.6759688
21
26.2858698
0
LINE
8
DEFAULT_255_2_778
10
7.0373688
20
27.2721698
11
6.7728688
21
27.2721698
0
LINE
8
DEFAULT_255_2_778
10
6.7728688
20
27.2721698
11
6.7728688
21
26.7194698
0
LINE
8
DEFAULT_255_2_778
10
6.7728688
20
26.7194698
11
7.0373688
21
26.7194698
0
LINE
8
DEFAULT_255_2_778
10
7.2516688
20
26.9708698
11
7.2516688
21
26.9705698
0
LINE
8
DEFAULT_255_2_778
10
7.0876688
20
27.5359698
11
6.3817688
21
27.5359698
0
LINE
8
DEFAULT_255_2_778
10
6.3817688
20
27.5359698
11
6.3817688
21
25.6764698
0
LINE
8
DEFAULT_255_2_778
10
6.3817688
20
25.6764698
11
6.7725688
21
25.6764698
0
LINE
8
DEFAULT_255_2_778
10
6.7725688
20
25.6764698
11
6.7725688
21
26.4554698
0
LINE
8
DEFAULT_255_2_778
10
6.7725688
20
26.4554698
11
7.0876688
21
26.4554698
0
LINE
8
DEFAULT_255_2_778
10
7.6549688
20
27.0208698
11
7.6549688
21
27.0208698
0
ARC
8
DEFAULT_255_2_778
10
22.0341103
20
25.5146325
40
0.1933696
50
91.2195322
51
181.3554583
0
ARC
8
DEFAULT_255_2_778
10
22.0258793
20
25.5146325
40
0.1933696
50
358.6445319
51
88.7804717
0
ARC
8
DEFAULT_255_2_778
10
22.0258794
20
25.5054841
40
0.1933695
50
271.2194968
51
1.3554733
0
ARC
8
DEFAULT_255_2_778
10
22.0341102
20
25.5054841
40
0.1933696
50
178.6445267
51
268.7805032
0
ARC
8
DEFAULT_255_2_778
10
22.500592
20
25.5146522
40
0.1933518
50
91.2438577
51
181.3614136
0
ARC
8
DEFAULT_255_2_778
10
22.4922792
20
25.5146325
40
0.1933696
50
358.6445428
51
88.7804459
0
ARC
8
DEFAULT_255_2_778
10
22.4922795
20
25.5054841
40
0.1933694
50
271.219471
51
1.3554842
0
ARC
8
DEFAULT_255_2_778
10
22.5005921
20
25.5054647
40
0.1933519
50
178.638633
51
268.7561308
0
ARC
8
DEFAULT_255_2_778
10
22.9668101
20
25.5273326
40
0.1933694
50
91.2194613
51
181.3555081
0
ARC
8
DEFAULT_255_2_778
10
22.9584976
20
25.5273522
40
0.1933517
50
358.6385825
51
88.7561312
0
ARC
8
DEFAULT_255_2_778
10
22.9584977
20
25.5181646
40
0.1933517
50
271.243817
51
1.3613891
0
ARC
8
DEFAULT_255_2_778
10
22.9668104
20
25.5181842
40
0.1933696
50
178.6445428
51
268.7804459
0
LINE
8
DEFAULT_255_2_778
10
21.8407948
20
25.5100583
11
21.8407948
21
25.5100583
0
LINE
8
DEFAULT_255_2_778
10
22.3072948
20
25.5100583
11
22.3072948
21
25.5100583
0
LINE
8
DEFAULT_255_2_778
10
22.7734948
20
25.5227583
11
22.7734948
21
25.5227583
0
LINE
8
DEFAULT_255_2_778
10
21.8956365
20
25.266124
11
21.8665365
21
25.270924
0
LINE
8
DEFAULT_255_2_778
10
21.8665365
20
25.270924
11
21.8059365
21
25.280724
0
LINE
8
DEFAULT_255_2_778
10
21.8059365
20
25.280724
11
21.7299365
21
25.338924
0
LINE
8
DEFAULT_255_2_778
10
21.7299365
20
25.338924
11
21.6728365
21
25.414624
0
LINE
8
DEFAULT_255_2_778
10
21.6728365
20
25.414624
11
21.6476365
21
25.508024
0
LINE
8
DEFAULT_255_2_778
10
21.6476365
20
25.508024
11
21.6728365
21
25.601624
0
LINE
8
DEFAULT_255_2_778
10
21.6728365
20
25.601624
11
21.7294365
21
25.678424
0
LINE
8
DEFAULT_255_2_778
10
21.7294365
20
25.678424
11
21.8053365
21
25.737924
0
LINE
8
DEFAULT_255_2_778
10
21.8053365
20
25.737924
11
21.8665365
21
25.747924
0
LINE
8
DEFAULT_255_2_778
10
21.8665365
20
25.747924
11
21.8958365
21
25.752724
0
LINE
8
DEFAULT_255_2_778
10
21.8958365
20
25.183124
11
21.8546365
21
25.188624
0
LINE
8
DEFAULT_255_2_778
10
21.8546365
20
25.188624
11
21.7707365
21
25.200024
0
LINE
8
DEFAULT_255_2_778
10
21.7707365
20
25.200024
11
21.6683365
21
25.274624
0
LINE
8
DEFAULT_255_2_778
10
21.6683365
20
25.274624
11
21.5950365
21
25.373324
0
LINE
8
DEFAULT_255_2_778
10
21.5950365
20
25.373324
11
21.5733365
21
25.488924
0
ARC
8
DEFAULT_255_2_778
10
19.6071242
20
26.1071303
40
0.3581298
50
180.0162757
51
182.2699138
0
ARC
8
DEFAULT_255_2_778
10
19.4534829
20
26.1207764
40
0.2049502
50
100.1638691
51
183.8462269
0
ARC
8
DEFAULT_255_2_778
10
19.5515993
20
25.7921455
40
0.5471003
50
90.0234402
51
104.2080975
0
ARC
8
DEFAULT_255_2_778
10
19.5528834
20
26.1454699
40
0.1937818
50
5.5175223
51
90.4458723
0
ARC
8
DEFAULT_255_2_778
10
19.3612362
20
26.1050775
40
0.3890348
50
359.7014597
51
8.726641
0
ARC
8
DEFAULT_255_2_778
10
19.2420729
20
26.1032577
40
0.5081929
50
357.7544822
51
359.976639
0
ARC
8
DEFAULT_255_2_778
10
19.3404742
20
26.148607
40
0.4145702
50
340.5439579
51
350.9428846
0
ARC
8
DEFAULT_255_2_778
10
19.6818113
20
26.0276061
40
0.0524224
50
319.3350621
51
340.9786234
0
ARC
8
DEFAULT_255_2_778
10
19.1300329
20
26.210169
40
0.4858933
50
337.8212904
51
346.2526281
0
ARC
8
DEFAULT_255_2_778
10
19.5379362
20
26.1090825
40
0.0656649
50
347.3486169
51
358.3972422
0
ARC
8
DEFAULT_255_2_778
10
19.3892367
20
26.1162112
40
0.2145262
50
357.6048162
51
359.9743471
0
ARC
8
DEFAULT_255_2_778
10
19.521739
20
26.1296395
40
0.0831313
50
350.6371276
51
96.844243
0
ARC
8
DEFAULT_255_2_778
10
19.5122091
20
26.0115521
40
0.2006266
50
90.1076454
51
94.8990763
0
ARC
8
DEFAULT_255_2_778
10
19.5034127
20
26.1081153
40
0.1036663
50
94.6129189
51
177.4610849
0
ARC
8
DEFAULT_255_2_778
10
19.6883706
20
26.0534397
40
0.2945469
50
168.391873
51
173.2331892
0
LINE
8
DEFAULT_255_2_778
10
19.3955754
20
26.0881458
11
19.2492754
21
26.0929458
0
LINE
8
DEFAULT_255_2_778
10
19.7215754
20
25.9934458
11
19.4572754
21
25.6949458
0
LINE
8
DEFAULT_255_2_778
10
19.4572754
20
25.6949458
11
19.7784754
21
25.6949458
0
LINE
8
DEFAULT_255_2_778
10
19.7784754
20
25.6949458
11
19.7784754
21
25.5719458
0
LINE
8
DEFAULT_255_2_778
10
19.7784754
20
25.5719458
11
19.2682754
21
25.5719458
0
LINE
8
DEFAULT_255_2_778
10
19.2682754
20
25.5719458
11
19.2682754
21
25.6762458
0
LINE
8
DEFAULT_255_2_778
10
19.2682754
20
25.6762458
11
19.5799754
21
26.0267458
0
LINE
8
DEFAULT_255_2_778
10
19.3958754
20
26.0881458
11
19.3955754
21
26.0881458
0
ARC
8
DEFAULT_255_2_778
10
21.6491338
20
25.9729013
40
0.5330281
50
158.8297779
51
180.8126209
0
ARC
8
DEFAULT_255_2_778
10
21.3443043
20
26.0990829
40
0.2033429
50
124.0119958
51
160.9659866
0
ARC
8
DEFAULT_255_2_778
10
21.2743176
20
26.192462
40
0.0869831
50
90.4994457
51
120.2017555
0
ARC
8
DEFAULT_255_2_778
10
21.2600082
20
26.1540586
40
0.1261132
50
24.6798401
51
83.8315083
0
ARC
8
DEFAULT_255_2_778
10
21.0025231
20
25.998952
40
0.4261556
50
6.130385
51
29.1785479
0
ARC
8
DEFAULT_255_2_778
10
20.8148831
20
25.9659702
40
0.6163766
50
359.941576
51
7.3161118
0
ARC
8
DEFAULT_255_2_778
10
20.8991049
20
25.9577366
40
0.5322088
50
338.8055679
51
0.8187669
0
ARC
8
DEFAULT_255_2_778
10
21.2033747
20
25.8316684
40
0.203082
50
303.9150541
51
340.932466
0
ARC
8
DEFAULT_255_2_778
10
21.2728185
20
25.7387902
40
0.0874515
50
270.4854298
51
300.1080748
0
ARC
8
DEFAULT_255_2_778
10
21.2871918
20
25.7770041
40
0.1263997
50
204.3281643
51
263.8084993
0
ARC
8
DEFAULT_255_2_778
10
21.5498039
20
25.9330123
40
0.4313014
50
185.613152
51
208.8453558
0
ARC
8
DEFAULT_255_2_778
10
21.738281
20
25.9647819
40
0.6221217
50
179.9484445
51
186.8272745
0
ARC
8
DEFAULT_255_2_778
10
21.5396261
20
25.9694048
40
0.5243157
50
152.5254433
51
180.7827883
0
ARC
8
DEFAULT_255_2_778
10
21.3138339
20
26.0968837
40
0.2653266
50
108.4095367
51
154.4544086
0
ARC
8
DEFAULT_255_2_778
10
21.2768034
20
26.1756783
40
0.1791635
50
90.0140927
51
105.1293658
0
ARC
8
DEFAULT_255_2_778
10
21.2623719
20
26.1239205
40
0.231369
50
28.2822033
51
86.4348199
0
ARC
8
DEFAULT_255_2_778
10
21.0418618
20
25.9767258
40
0.4959362
50
2.837394
51
31.1881489
0
ARC
8
DEFAULT_255_2_778
10
20.9404116
20
25.9623304
40
0.5980477
50
359.9914968
51
3.7337628
0
ARC
8
DEFAULT_255_2_778
10
21.0137058
20
25.9551164
40
0.524802
50
332.6504535
51
0.7779361
0
ARC
8
DEFAULT_255_2_778
10
21.2395936
20
25.8281026
40
0.265965
50
288.44039
51
334.5981325
0
ARC
8
DEFAULT_255_2_778
10
21.2767199
20
25.7493438
40
0.1798021
50
270.0125899
51
285.1541198
0
ARC
8
DEFAULT_255_2_778
10
21.2909632
20
25.8001186
40
0.2310141
50
208.1688806
51
266.4749618
0
ARC
8
DEFAULT_255_2_778
10
21.513001
20
25.9475235
40
0.4969751
50
182.8019459
51
211.0671432
0
ARC
8
DEFAULT_255_2_778
10
21.6169279
20
25.9621537
40
0.6015684
50
179.9916184
51
183.7098813
0
LINE
8
DEFAULT_255_2_778
10
21.1161594
20
25.9653417
11
21.1161594
21
25.9653417
0
LINE
8
DEFAULT_255_2_778
10
21.0153594
20
25.9622417
11
21.0153594
21
25.9622417
0
ARC
8
DEFAULT_255_2_778
10
21.0567338
20
25.9729013
40
0.5330281
50
158.8297779
51
180.8126209
0
ARC
8
DEFAULT_255_2_778
10
20.7519043
20
26.0990829
40
0.2033429
50
124.0119958
51
160.9659866
0
ARC
8
DEFAULT_255_2_778
10
20.6819176
20
26.192462
40
0.0869831
50
90.4994457
51
120.2017555
0
ARC
8
DEFAULT_255_2_778
10
20.6676082
20
26.1540586
40
0.1261132
50
24.6798401
51
83.8315083
0
ARC
8
DEFAULT_255_2_778
10
20.4101231
20
25.998952
40
0.4261556
50
6.130385
51
29.1785479
0
ARC
8
DEFAULT_255_2_778
10
20.2224831
20
25.9659702
40
0.6163766
50
359.941576
51
7.3161118
0
ARC
8
DEFAULT_255_2_778
10
20.3067049
20
25.9577366
40
0.5322088
50
338.8055679
51
0.8187669
0
ARC
8
DEFAULT_255_2_778
10
20.6109747
20
25.8316684
40
0.203082
50
303.9150541
51
340.932466
0
ARC
8
DEFAULT_255_2_778
10
20.6804185
20
25.7387902
40
0.0874515
50
270.4854298
51
300.1080748
0
ARC
8
DEFAULT_255_2_778
10
20.6947918
20
25.7770041
40
0.1263997
50
204.3281643
51
263.8084993
0
ARC
8
DEFAULT_255_2_778
10
20.9574039
20
25.9330123
40
0.4313014
50
185.613152
51
208.8453558
0
ARC
8
DEFAULT_255_2_778
10
21.145881
20
25.9647819
40
0.6221217
50
179.9484445
51
186.8272745
0
ARC
8
DEFAULT_255_2_778
10
20.9472261
20
25.9694048
40
0.5243157
50
152.5254433
51
180.7827883
0
ARC
8
DEFAULT_255_2_778
10
20.7214339
20
26.0968837
40
0.2653266
50
108.4095367
51
154.4544086
0
ARC
8
DEFAULT_255_2_778
10
20.6844034
20
26.1756783
40
0.1791635
50
90.0140927
51
105.1293658
0
ARC
8
DEFAULT_255_2_778
10
20.6699719
20
26.1239205
40
0.231369
50
28.2822033
51
86.4348199
0
ARC
8
DEFAULT_255_2_778
10
20.4494618
20
25.9767258
40
0.4959362
50
2.837394
51
31.1881489
0
ARC
8
DEFAULT_255_2_778
10
20.3480116
20
25.9623304
40
0.5980477
50
359.9914968
51
3.7337628
0
ARC
8
DEFAULT_255_2_778
10
20.4213058
20
25.9551164
40
0.524802
50
332.6504535
51
0.7779361
0
ARC
8
DEFAULT_255_2_778
10
20.6471936
20
25.8281026
40
0.265965
50
288.44039
51
334.5981325
0
ARC
8
DEFAULT_255_2_778
10
20.6843199
20
25.7493438
40
0.1798021
50
270.0125899
51
285.1541198
0
ARC
8
DEFAULT_255_2_778
10
20.6985632
20
25.8001186
40
0.2310141
50
208.1688806
51
266.4749618
0
ARC
8
DEFAULT_255_2_778
10
20.920601
20
25.9475235
40
0.4969751
50
182.8019459
51
211.0671432
0
ARC
8
DEFAULT_255_2_778
10
21.0245279
20
25.9621537
40
0.6015684
50
179.9916184
51
183.7098813
0
LINE
8
DEFAULT_255_2_778
10
20.5237594
20
25.9653417
11
20.5237594
21
25.9653417
0
LINE
8
DEFAULT_255_2_778
10
20.4229594
20
25.9622417
11
20.4229594
21
25.9622417
0
ARC
8
DEFAULT_255_2_778
10
20.4643338
20
25.9729013
40
0.5330281
50
158.8297779
51
180.8126209
0
ARC
8
DEFAULT_255_2_778
10
20.1595043
20
26.0990829
40
0.2033429
50
124.0119958
51
160.9659866
0
ARC
8
DEFAULT_255_2_778
10
20.0895176
20
26.192462
40
0.0869831
50
90.4994457
51
120.2017555
0
ARC
8
DEFAULT_255_2_778
10
20.0752082
20
26.1540586
40
0.1261132
50
24.6798401
51
83.8315083
0
ARC
8
DEFAULT_255_2_778
10
19.8177231
20
25.998952
40
0.4261556
50
6.130385
51
29.1785479
0
ARC
8
DEFAULT_255_2_778
10
19.6300831
20
25.9659702
40
0.6163766
50
359.941576
51
7.3161118
0
ARC
8
DEFAULT_255_2_778
10
19.7143049
20
25.9577366
40
0.5322088
50
338.8055679
51
0.8187669
0
ARC
8
DEFAULT_255_2_778
10
20.0185747
20
25.8316684
40
0.203082
50
303.9150541
51
340.932466
0
ARC
8
DEFAULT_255_2_778
10
20.0880185
20
25.7387902
40
0.0874515
50
270.4854298
51
300.1080748
0
ARC
8
DEFAULT_255_2_778
10
20.1023918
20
25.7770041
40
0.1263997
50
204.3281643
51
263.8084993
0
ARC
8
DEFAULT_255_2_778
10
20.3650039
20
25.9330123
40
0.4313014
50
185.613152
51
208.8453558
0
ARC
8
DEFAULT_255_2_778
10
20.553481
20
25.9647819
40
0.6221217
50
179.9484445
51
186.8272745
0
ARC
8
DEFAULT_255_2_778
10
20.3548261
20
25.9694048
40
0.5243157
50
152.5254433
51
180.7827883
0
ARC
8
DEFAULT_255_2_778
10
20.1290339
20
26.0968837
40
0.2653266
50
108.4095367
51
154.4544086
0
ARC
8
DEFAULT_255_2_778
10
20.0920034
20
26.1756783
40
0.1791635
50
90.0140927
51
105.1293658
0
ARC
8
DEFAULT_255_2_778
10
20.0775719
20
26.1239205
40
0.231369
50
28.2822033
51
86.4348199
0
ARC
8
DEFAULT_255_2_778
10
19.8570618
20
25.9767258
40
0.4959362
50
2.837394
51
31.1881489
0
ARC
8
DEFAULT_255_2_778
10
19.7556116
20
25.9623304
40
0.5980477
50
359.9914968
51
3.7337628
0
ARC
8
DEFAULT_255_2_778
10
19.8289058
20
25.9551164
40
0.524802
50
332.6504535
51
0.7779361
0
ARC
8
DEFAULT_255_2_778
10
20.0547936
20
25.8281026
40
0.265965
50
288.44039
51
334.5981325
0
ARC
8
DEFAULT_255_2_778
10
20.0919199
20
25.7493438
40
0.1798021
50
270.0125899
51
285.1541198
0
ARC
8
DEFAULT_255_2_778
10
20.1061632
20
25.8001186
40
0.2310141
50
208.1688806
51
266.4749618
0
ARC
8
DEFAULT_255_2_778
10
20.328201
20
25.9475235
40
0.4969751
50
182.8019459
51
211.0671432
0
ARC
8
DEFAULT_255_2_778
10
20.4321279
20
25.9621537
40
0.6015684
50
179.9916184
51
183.7098813
0
LINE
8
DEFAULT_255_2_778
10
19.9313594
20
25.9653417
11
19.9313594
21
25.9653417
0
LINE
8
DEFAULT_255_2_778
10
19.8305594
20
25.9622417
11
19.8305594
21
25.9622417
0
LINE
8
DEFAULT_255_2_778
10
10.7161501
20
21.0343499
11
18.6536501
21
21.0343499
0
LINE
8
DEFAULT_255_2_778
10
18.6536501
20
21.0343499
11
18.6536501
21
13.0968499
0
LINE
8
DEFAULT_255_2_778
10
18.6536501
20
13.0968499
11
10.7161501
21
13.0968499
0
LINE
8
DEFAULT_255_2_778
10
10.7161501
20
13.0968499
11
10.7161501
21
21.0343499
0
LINE
8
DEFAULT_255_2_778
10
10.7161501
20
13.0968499
11
18.6536501
21
21.0343499
0
ARC
8
DEFAULT_255_2_778
10
14.1077114
20
18.1505807
40
2.9032284
50
151.5042733
51
153.4806603
0
ARC
8
DEFAULT_255_2_778
10
13.4588806
20
18.5034763
40
2.1646375
50
149.0139962
51
151.519903
0
ARC
8
DEFAULT_255_2_778
10
12.9473115
20
18.8112368
40
1.567629
50
145.9162939
51
149.0311909
0
ARC
8
DEFAULT_255_2_778
10
12.5625818
20
19.0722335
40
1.1027247
50
141.9200062
51
145.9453242
0
ARC
8
DEFAULT_255_2_778
10
12.282074
20
19.2929211
40
0.7458118
50
136.484805
51
141.9744057
0
ARC
8
DEFAULT_255_2_778
10
12.092306
20
19.4740808
40
0.4834572
50
128.8638593
51
136.5691139
0
ARC
8
DEFAULT_255_2_778
10
11.9803184
20
19.6141418
40
0.304132
50
117.7110364
51
128.9931649
0
ARC
8
DEFAULT_255_2_778
10
11.928938
20
19.7137194
40
0.1920847
50
98.9021051
51
117.9549066
0
ARC
8
DEFAULT_255_2_778
10
11.9218758
20
19.748991
40
0.1561525
50
90.0344408
51
98.3447638
0
ARC
8
DEFAULT_255_2_778
10
11.9166634
20
19.7228238
40
0.1823916
50
50.7117937
51
88.3918664
0
ARC
8
DEFAULT_255_2_778
10
11.7837308
20
19.5444057
40
0.4047836
50
38.9451112
51
52.1404787
0
ARC
8
DEFAULT_255_2_778
10
11.431008
20
19.2549907
40
0.8610391
50
31.5376489
51
39.1699631
0
ARC
8
DEFAULT_255_2_778
10
10.4867496
20
18.6712547
40
1.9711589
50
27.5029892
51
31.6426884
0
ARC
8
DEFAULT_255_2_778
10
5.9865457
20
16.3170708
40
7.0499372
50
26.3566909
51
27.5839254
0
ARC
8
DEFAULT_255_2_778
10
16.3884515
20
21.4458746
40
4.5476932
50
206.0760745
51
208.8893742
0
ARC
8
DEFAULT_255_2_778
10
13.5302207
20
19.8732384
40
1.2853914
50
209.0650167
51
214.9193276
0
ARC
8
DEFAULT_255_2_778
10
12.9623008
20
19.4754421
40
0.5920141
50
214.8141771
51
224.5237395
0
ARC
8
DEFAULT_255_2_778
10
12.7411911
20
19.2548149
40
0.279676
50
224.0617241
51
242.8344517
0
ARC
8
DEFAULT_255_2_778
10
12.6867767
20
19.151633
40
0.1630376
50
243.2923391
51
269.5752511
0
ARC
8
DEFAULT_255_2_778
10
12.6838992
20
19.1606104
40
0.1720185
50
270.5559033
51
293.8685481
0
ARC
8
DEFAULT_255_2_778
10
12.6466708
20
19.2478881
40
0.2668991
50
293.5955797
51
306.345121
0
ARC
8
DEFAULT_255_2_778
10
12.553747
20
19.3760986
40
0.4252403
50
306.1919045
51
314.6688826
0
ARC
8
DEFAULT_255_2_778
10
12.3914409
20
19.5419992
40
0.6573295
50
314.5642472
51
320.4128675
0
ARC
8
DEFAULT_255_2_778
10
12.1431104
20
19.7483069
40
0.980177
50
320.3694038
51
324.845255
0
ARC
8
DEFAULT_255_2_778
10
11.7903394
20
19.9979469
40
1.4123423
50
324.8053061
51
328.1530642
0
ARC
8
DEFAULT_255_2_778
10
11.3253883
20
20.2876419
40
1.9601584
50
328.1310763
51
330.7610809
0
ARC
8
DEFAULT_255_2_778
10
10.732481
20
20.6203279
40
2.640025
50
330.7460722
51
332.8554872
0
ARC
8
DEFAULT_255_2_778
10
10.2490419
20
20.870894
40
3.1845357
50
332.812199
51
333.437874
0
LINE
8
DEFAULT_255_2_778
10
16.27245
20
15.0019
11
17.85995
21
15.0019
0
LINE
8
DEFAULT_255_2_778
10
16.27245
20
14.3669
11
16.58995
21
14.3669
0
LINE
8
DEFAULT_255_2_778
10
16.90745
20
14.3669
11
17.22495
21
14.3669
0
LINE
8
DEFAULT_255_2_778
10
17.54245
20
14.3669
11
17.85995
21
14.3669
0
LINE
8
DEFAULT_255_1_234
10
4.2132489
20
21.6848211
11
4.2132489
21
20.6414983
0
LINE
8
DEFAULT_255_1_234
10
4.2132489
20
20.6414983
11
4.7674389
21
20.6414983
0
LINE
8
DEFAULT_255_1_234
10
4.7674389
20
20.6414983
11
4.7674389
21
20.5154
0
LINE
8
DEFAULT_255_1_234
10
4.7674389
20
20.5154
11
4.0582364
21
20.5154
0
LINE
8
DEFAULT_255_1_234
10
4.0582364
20
20.5154
11
4.0582364
21
21.6848211
0
LINE
8
DEFAULT_255_1_234
10
4.0582364
20
21.6848211
11
4.2132489
21
21.6848211
0
LINE
8
DEFAULT_255_1_234
10
4.2538489
20
5.8098211
11
4.2538489
21
4.7664983
0
LINE
8
DEFAULT_255_1_234
10
4.2538489
20
4.7664983
11
4.8080389
21
4.7664983
0
LINE
8
DEFAULT_255_1_234
10
4.8080389
20
4.7664983
11
4.8080389
21
4.6404
0
LINE
8
DEFAULT_255_1_234
10
4.8080389
20
4.6404
11
4.0988364
21
4.6404
0
LINE
8
DEFAULT_255_1_234
10
4.0988364
20
4.6404
11
4.0988364
21
5.8098211
0
LINE
8
DEFAULT_255_1_234
10
4.0988364
20
5.8098211
11
4.2538489
21
5.8098211
0
LINE
8
DEFAULT_255_1_234
10
5.7951395
20
5.222701
11
5.7951395
21
4.7938062
0
LINE
8
DEFAULT_255_1_234
10
4.8939785
20
5.1688884
11
4.8939785
21
5.2708915
0
LINE
8
DEFAULT_255_1_234
10
5.7951395
20
5.4668659
11
5.6409301
21
5.4668659
0
LINE
8
DEFAULT_255_1_234
10
5.048991
20
5.2749073
11
5.048991
21
5.1793296
0
LINE
8
DEFAULT_255_1_234
10
5.6417333
20
4.8347681
11
5.6417333
21
5.0974059
0
LINE
8
DEFAULT_255_1_234
10
5.6417333
20
5.0974059
11
5.3710637
21
5.0974059
0
LINE
8
DEFAULT_255_1_234
10
5.3710637
20
5.0974059
11
5.3710637
21
5.222701
0
LINE
8
DEFAULT_255_1_234
10
5.3710637
20
5.222701
11
5.7951395
21
5.222701
0
ARC
8
DEFAULT_255_1_234
10
5.5119901
20
4.9931396
40
0.3462765
50
295.8437914
51
324.8549609
0
ARC
8
DEFAULT_255_1_234
10
5.4703868
20
5.0684567
40
0.4322211
50
291.5695085
51
296.4549398
0
ARC
8
DEFAULT_255_1_234
10
5.419312
20
5.2049275
40
0.5779178
50
278.6622409
51
291.3045483
0
ARC
8
DEFAULT_255_1_234
10
5.3853611
20
5.4197408
40
0.7953952
50
270.020006
51
278.7494541
0
ARC
8
DEFAULT_255_1_234
10
5.3815535
20
5.5514036
40
0.927067
50
269.9969998
51
270.2524872
0
ARC
8
DEFAULT_255_1_234
10
5.3777248
20
5.1430589
40
0.5187361
50
253.5786322
51
270.4175299
0
ARC
8
DEFAULT_255_1_234
10
5.3603904
20
5.0759236
40
0.4494451
50
238.8203306
51
253.2788235
0
ARC
8
DEFAULT_255_1_234
10
5.3584278
20
5.0708231
40
0.4440665
50
206.7883783
51
238.6962764
0
ARC
8
DEFAULT_255_1_234
10
5.4358188
20
5.1172405
40
0.5341121
50
206.1129412
51
207.4916643
0
ARC
8
DEFAULT_255_1_234
10
5.4955103
20
5.1426488
40
0.5989041
50
188.6921119
51
205.7821245
0
ARC
8
DEFAULT_255_1_234
10
5.6811465
20
5.174223
40
0.7871862
50
180.3882829
51
188.9219216
0
ARC
8
DEFAULT_255_1_234
10
5.8039279
20
5.2765464
40
0.909967
50
170.2024264
51
180.3560651
0
ARC
8
DEFAULT_255_1_234
10
5.4875797
20
5.3331237
40
0.5886083
50
154.2857445
51
170.3893044
0
ARC
8
DEFAULT_255_1_234
10
5.3594
20
5.391795
40
0.4476743
50
139.8401567
51
153.9332699
0
ARC
8
DEFAULT_255_1_234
10
5.3234736
20
5.4205577
40
0.4016697
50
98.4190291
51
139.6707122
0
ARC
8
DEFAULT_255_1_234
10
5.3614253
20
5.2360328
40
0.5898566
50
89.7659205
51
99.4415478
0
ARC
8
DEFAULT_255_1_234
10
5.3679503
20
5.2425844
40
0.5833147
50
78.0551672
51
90.4042112
0
ARC
8
DEFAULT_255_1_234
10
5.4084013
20
5.4244644
40
0.3970055
50
54.6380464
51
78.3339173
0
ARC
8
DEFAULT_255_1_234
10
5.4274069
20
5.4564795
40
0.3599102
50
50.031736
51
54.1558201
0
ARC
8
DEFAULT_255_1_234
10
5.4166856
20
5.4468766
40
0.3741624
50
18.1092409
51
49.7180913
0
ARC
8
DEFAULT_255_1_234
10
5.2710056
20
5.3935089
40
0.5292424
50
7.9672797
51
18.6984571
0
ARC
8
DEFAULT_255_1_234
10
5.2860534
20
5.4058504
40
0.3600838
50
9.7557294
51
27.3215714
0
ARC
8
DEFAULT_255_1_234
10
5.3988006
20
5.4621912
40
0.2340608
50
27.7361077
51
84.5257964
0
ARC
8
DEFAULT_255_1_234
10
5.3660393
20
5.297864
40
0.4011215
50
82.106034
51
90.2001166
0
ARC
8
DEFAULT_255_1_234
10
5.361061
20
5.3486215
40
0.3503799
50
89.4150119
51
105.5823402
0
ARC
8
DEFAULT_255_1_234
10
5.3353608
20
5.4421867
40
0.2533503
50
105.6678618
51
144.2648758
0
ARC
8
DEFAULT_255_1_234
10
5.4246864
20
5.3786289
40
0.3629787
50
144.3561283
51
162.8564086
0
ARC
8
DEFAULT_255_1_234
10
5.6330773
20
5.3117017
40
0.5818441
50
162.6076014
51
173.6780284
0
ARC
8
DEFAULT_255_1_234
10
5.9391916
20
5.274489
40
0.8902007
50
173.4670142
51
179.9730753
0
ARC
8
DEFAULT_255_1_234
10
5.7483588
20
5.175126
40
0.6993804
50
179.6556203
51
190.0080463
0
ARC
8
DEFAULT_255_1_234
10
5.5167417
20
5.1326375
40
0.4639066
50
189.8116607
51
206.6796816
0
ARC
8
DEFAULT_255_1_234
10
5.4322569
20
5.0932503
40
0.3707421
50
207.1031645
51
217.7074368
0
ARC
8
DEFAULT_255_1_234
10
5.3688257
20
5.0380559
40
0.2868417
50
216.7345547
51
265.6812148
0
ARC
8
DEFAULT_255_1_234
10
5.3819048
20
5.1284855
40
0.3780509
50
264.7366618
51
270.0611241
0
ARC
8
DEFAULT_255_1_234
10
5.3842312
20
5.4125111
40
0.662079
50
269.8335834
51
276.0539546
0
ARC
8
DEFAULT_255_1_234
10
5.4049316
20
5.222356
40
0.4708016
50
275.9894168
51
284.4615085
0
ARC
8
DEFAULT_255_1_234
10
5.4247323
20
5.1390663
40
0.3852094
50
284.7034461
51
286.4953897
0
ARC
8
DEFAULT_255_1_234
10
5.4654337
20
5.0079965
40
0.2479842
50
286.0770838
51
304.2625829
0
ARC
8
DEFAULT_255_1_234
10
5.478775
20
4.9861594
40
0.2224291
50
304.5891602
51
317.1073298
0
LINE
8
DEFAULT_255_1_234
10
4.5446265
20
13.5465276
11
4.5446265
21
13.2051788
0
LINE
8
DEFAULT_255_1_234
10
4.5446265
20
13.2051788
11
4.870715
21
13.2051788
0
LINE
8
DEFAULT_255_1_234
10
4.870715
20
13.2051788
11
4.870715
21
13.0646233
0
LINE
8
DEFAULT_255_1_234
10
4.870715
20
13.0646233
11
4.5446265
21
13.0646233
0
LINE
8
DEFAULT_255_1_234
10
4.5446265
20
13.0646233
11
4.5446265
21
12.6951634
0
LINE
8
DEFAULT_255_1_234
10
4.5446265
20
12.6951634
11
4.3952361
21
12.6951634
0
LINE
8
DEFAULT_255_1_234
10
4.3952361
20
12.6951634
11
4.3952361
21
13.0646233
0
LINE
8
DEFAULT_255_1_234
10
4.3952361
20
13.0646233
11
4.0691476
21
13.0646233
0
LINE
8
DEFAULT_255_1_234
10
4.0691476
20
13.0646233
11
4.0691476
21
13.2051788
0
LINE
8
DEFAULT_255_1_234
10
4.0691476
20
13.2051788
11
4.3952361
21
13.2051788
0
LINE
8
DEFAULT_255_1_234
10
4.3952361
20
13.2051788
11
4.3952361
21
13.5465276
0
LINE
8
DEFAULT_255_1_234
10
4.3952361
20
13.5465276
11
4.5446265
21
13.5465276
0
LINE
8
DEFAULT_255_1_234
10
5.129337
20
13.7473211
11
5.461851
21
12.7827093
0
LINE
8
DEFAULT_255_1_234
10
5.461851
20
12.7827093
11
5.7959713
21
13.7473211
0
LINE
8
DEFAULT_255_1_234
10
5.7959713
20
13.7473211
11
5.9646378
21
13.7473211
0
LINE
8
DEFAULT_255_1_234
10
5.9646378
20
13.7473211
11
5.5309239
21
12.5779
0
LINE
8
DEFAULT_255_1_234
10
5.5309239
20
12.5779
11
5.3943844
21
12.5779
0
LINE
8
DEFAULT_255_1_234
10
5.3943844
20
12.5779
11
4.9614737
21
13.7473211
0
LINE
8
DEFAULT_255_1_234
10
4.9614737
20
13.7473211
11
5.129337
21
13.7473211
0
LINE
8
DEFAULT_255_1_234
10
24.2620879
20
21.6848211
11
24.2620879
21
20.5154
0
LINE
8
DEFAULT_255_1_234
10
24.2620879
20
20.5154
11
24.1070753
21
20.5154
0
LINE
8
DEFAULT_255_1_234
10
24.1070753
20
20.5154
11
23.5183489
21
21.416561
0
LINE
8
DEFAULT_255_1_234
10
23.5183489
20
21.416561
11
23.5183489
21
20.5154
0
LINE
8
DEFAULT_255_1_234
10
23.5183489
20
20.5154
11
23.3633364
21
20.5154
0
LINE
8
DEFAULT_255_1_234
10
23.3633364
20
20.5154
11
23.3633364
21
21.6848211
0
LINE
8
DEFAULT_255_1_234
10
23.3633364
20
21.6848211
11
23.5183489
21
21.6848211
0
LINE
8
DEFAULT_255_1_234
10
23.5183489
20
21.6848211
11
24.1086817
21
20.7796442
0
LINE
8
DEFAULT_255_1_234
10
24.1086817
20
20.7796442
11
24.1086817
21
21.6848211
0
LINE
8
DEFAULT_255_1_234
10
24.1086817
20
21.6848211
11
24.2620879
21
21.6848211
0
LINE
8
DEFAULT_255_1_234
10
24.2791482
20
5.222701
11
24.2791482
21
4.7938062
0
LINE
8
DEFAULT_255_1_234
10
23.3779872
20
5.1688884
11
23.3779872
21
5.2708915
0
LINE
8
DEFAULT_255_1_234
10
24.2791482
20
5.4668659
11
24.1249389
21
5.4668659
0
LINE
8
DEFAULT_255_1_234
10
23.5329998
20
5.2749073
11
23.5329998
21
5.1793296
0
LINE
8
DEFAULT_255_1_234
10
24.125742
20
4.8347681
11
24.125742
21
5.0974059
0
LINE
8
DEFAULT_255_1_234
10
24.125742
20
5.0974059
11
23.8550725
21
5.0974059
0
LINE
8
DEFAULT_255_1_234
10
23.8550725
20
5.0974059
11
23.8550725
21
5.222701
0
LINE
8
DEFAULT_255_1_234
10
23.8550725
20
5.222701
11
24.2791482
21
5.222701
0
ARC
8
DEFAULT_255_1_234
10
23.9959989
20
4.9931396
40
0.3462765
50
295.8437914
51
324.8549609
0
ARC
8
DEFAULT_255_1_234
10
23.9543956
20
5.0684567
40
0.4322211
50
291.5695085
51
296.4549398
0
ARC
8
DEFAULT_255_1_234
10
23.9033207
20
5.2049275
40
0.5779178
50
278.6622409
51
291.3045483
0
ARC
8
DEFAULT_255_1_234
10
23.8693699
20
5.4197408
40
0.7953952
50
270.020006
51
278.7494541
0
ARC
8
DEFAULT_255_1_234
10
23.8655623
20
5.5514036
40
0.927067
50
269.9969998
51
270.2524872
0
ARC
8
DEFAULT_255_1_234
10
23.8617336
20
5.1430589
40
0.5187361
50
253.5786322
51
270.4175299
0
ARC
8
DEFAULT_255_1_234
10
23.8443992
20
5.0759236
40
0.4494451
50
238.8203306
51
253.2788235
0
ARC
8
DEFAULT_255_1_234
10
23.8424365
20
5.0708231
40
0.4440665
50
206.7883783
51
238.6962764
0
ARC
8
DEFAULT_255_1_234
10
23.9198275
20
5.1172405
40
0.5341121
50
206.1129412
51
207.4916643
0
ARC
8
DEFAULT_255_1_234
10
23.979519
20
5.1426488
40
0.5989041
50
188.6921119
51
205.7821245
0
ARC
8
DEFAULT_255_1_234
10
24.1651552
20
5.174223
40
0.7871862
50
180.3882829
51
188.9219216
0
ARC
8
DEFAULT_255_1_234
10
24.2879366
20
5.2765464
40
0.909967
50
170.2024264
51
180.3560651
0
ARC
8
DEFAULT_255_1_234
10
23.9715884
20
5.3331237
40
0.5886083
50
154.2857445
51
170.3893044
0
ARC
8
DEFAULT_255_1_234
10
23.8434087
20
5.391795
40
0.4476743
50
139.8401567
51
153.9332699
0
ARC
8
DEFAULT_255_1_234
10
23.8074823
20
5.4205577
40
0.4016697
50
98.4190291
51
139.6707122
0
ARC
8
DEFAULT_255_1_234
10
23.8454341
20
5.2360328
40
0.5898566
50
89.7659205
51
99.4415478
0
ARC
8
DEFAULT_255_1_234
10
23.851959
20
5.2425844
40
0.5833147
50
78.0551672
51
90.4042112
0
ARC
8
DEFAULT_255_1_234
10
23.89241
20
5.4244644
40
0.3970055
50
54.6380464
51
78.3339173
0
ARC
8
DEFAULT_255_1_234
10
23.9114156
20
5.4564795
40
0.3599102
50
50.031736
51
54.1558201
0
ARC
8
DEFAULT_255_1_234
10
23.9006944
20
5.4468766
40
0.3741624
50
18.1092409
51
49.7180913
0
ARC
8
DEFAULT_255_1_234
10
23.7550144
20
5.3935089
40
0.5292424
50
7.9672797
51
18.6984571
0
ARC
8
DEFAULT_255_1_234
10
23.7700622
20
5.4058504
40
0.3600838
50
9.7557294
51
27.3215714
0
ARC
8
DEFAULT_255_1_234
10
23.8828094
20
5.4621912
40
0.2340608
50
27.7361077
51
84.5257964
0
ARC
8
DEFAULT_255_1_234
10
23.8500481
20
5.297864
40
0.4011215
50
82.106034
51
90.2001166
0
ARC
8
DEFAULT_255_1_234
10
23.8450698
20
5.3486215
40
0.3503799
50
89.4150119
51
105.5823402
0
ARC
8
DEFAULT_255_1_234
10
23.8193696
20
5.4421867
40
0.2533503
50
105.6678618
51
144.2648758
0
ARC
8
DEFAULT_255_1_234
10
23.9086951
20
5.3786289
40
0.3629787
50
144.3561283
51
162.8564086
0
ARC
8
DEFAULT_255_1_234
10
24.117086
20
5.3117017
40
0.5818441
50
162.6076014
51
173.6780284
0
ARC
8
DEFAULT_255_1_234
10
24.4232004
20
5.274489
40
0.8902007
50
173.4670142
51
179.9730753
0
ARC
8
DEFAULT_255_1_234
10
24.2323675
20
5.175126
40
0.6993804
50
179.6556203
51
190.0080463
0
ARC
8
DEFAULT_255_1_234
10
24.0007504
20
5.1326375
40
0.4639066
50
189.8116607
51
206.6796816
0
ARC
8
DEFAULT_255_1_234
10
23.9162656
20
5.0932503
40
0.3707421
50
207.1031645
51
217.7074368
0
ARC
8
DEFAULT_255_1_234
10
23.8528345
20
5.0380559
40
0.2868417
50
216.7345547
51
265.6812148
0
ARC
8
DEFAULT_255_1_234
10
23.8659136
20
5.1284855
40
0.3780509
50
264.7366618
51
270.0611241
0
ARC
8
DEFAULT_255_1_234
10
23.8682399
20
5.4125111
40
0.662079
50
269.8335834
51
276.0539546
0
ARC
8
DEFAULT_255_1_234
10
23.8889404
20
5.222356
40
0.4708016
50
275.9894168
51
284.4615085
0
ARC
8
DEFAULT_255_1_234
10
23.9087411
20
5.1390663
40
0.3852094
50
284.7034461
51
286.4953897
0
ARC
8
DEFAULT_255_1_234
10
23.9494424
20
5.0079965
40
0.2479842
50
286.0770838
51
304.2625829
0
ARC
8
DEFAULT_255_1_234
10
23.9627838
20
4.9861594
40
0.2224291
50
304.5891602
51
317.1073298
0
LINE
8
DEFAULT_255_1_234
10
23.1506663
20
13.1353026
11
23.1506663
21
13.0140234
0
LINE
8
DEFAULT_255_1_234
10
23.1506663
20
13.0140234
11
22.7587174
21
13.0140234
0
LINE
8
DEFAULT_255_1_234
10
22.7587174
20
13.0140234
11
22.7587174
21
13.1353026
0
LINE
8
DEFAULT_255_1_234
10
22.7587174
20
13.1353026
11
23.1506663
21
13.1353026
0
LINE
8
DEFAULT_255_1_234
10
23.3731454
20
13.7473211
11
23.7056594
21
12.7827093
0
LINE
8
DEFAULT_255_1_234
10
23.7056594
20
12.7827093
11
24.0397797
21
13.7473211
0
LINE
8
DEFAULT_255_1_234
10
24.0397797
20
13.7473211
11
24.2084462
21
13.7473211
0
LINE
8
DEFAULT_255_1_234
10
24.2084462
20
13.7473211
11
23.7747323
21
12.5779
0
LINE
8
DEFAULT_255_1_234
10
23.7747323
20
12.5779
11
23.6381928
21
12.5779
0
LINE
8
DEFAULT_255_1_234
10
23.6381928
20
12.5779
11
23.2052821
21
13.7473211
0
LINE
8
DEFAULT_255_1_234
10
23.2052821
20
13.7473211
11
23.3731454
21
13.7473211
0
ENDSEC
0
EOF