0
SECTION
2
HEADER
9
$MEASUREMENT
70
1
0
ENDSEC
0
SECTION
2
TABLES
0
TABLE
2
LTYPE
0
LTYPE
72
65
70
64
2
CONTINUOUS
3
______
73
0
40
0
0
ENDTAB
0
TABLE
2
LAYER
0
LAYER
2
DEFAULT_255_2_778
70
0
62
255
6
CONTINUOUS
0
ENDTAB
0
ENDSEC
0
SECTION
2
ENTITIES
0
ARC
8
DEFAULT_255_2_778
10
9.5863217
20
4.4578704
40
0.0826791
50
135.0357971
51
177.486095
0
ARC
8
DEFAULT_255_2_778
10
9.5949076
20
4.4345976
40
0.105713
50
90.134538
51
129.390324
0
ARC
8
DEFAULT_255_2_778
10
9.5946463
20
4.4355184
40
0.1047918
50
89.0836855
51
89.9928532
0
ARC
8
DEFAULT_255_2_778
10
10.138348
20
3.9214817
40
0.619445
50
90.0002373
51
92.5838905
0
ARC
8
DEFAULT_255_2_778
10
10.1382356
20
3.920241
40
0.6206857
50
50.6336348
51
89.9898574
0
ARC
8
DEFAULT_255_2_778
10
10.1167167
20
4.0034752
40
0.5741989
50
359.997054
51
43.6886541
0
ARC
8
DEFAULT_255_2_778
10
10.1157391
20
4.003448
40
0.5751766
50
356.1568743
51
359.9997642
0
ARC
8
DEFAULT_255_2_778
10
10.111656
20
3.8923776
40
0.5797953
50
0.0005028
51
4.5524482
0
ARC
8
DEFAULT_255_2_778
10
10.1114322
20
3.8924581
40
0.5800193
50
315.9799512
51
359.9925449
0
ARC
8
DEFAULT_255_2_778
10
10.1288915
20
3.9701112
40
0.6251327
50
270.0075562
51
309.7376509
0
ARC
8
DEFAULT_255_2_778
10
10.1289764
20
3.9701621
40
0.6251837
50
267.6665636
51
269.9997716
0
ARC
8
DEFAULT_255_2_778
10
9.6690586
20
2.622937
40
0.0641274
50
0.0081068
51
2.5560209
0
ARC
8
DEFAULT_255_2_778
10
9.6723091
20
2.6224473
40
0.0608788
50
295.7129489
51
0.469418
0
ARC
8
DEFAULT_255_2_778
10
9.6182084
20
2.6948941
40
0.1506222
50
269.9862224
51
302.3128038
0
ARC
8
DEFAULT_255_2_778
10
9.6181359
20
2.6948941
40
0.1506222
50
237.6871962
51
270.0137776
0
ARC
8
DEFAULT_255_2_778
10
9.5692271
20
2.6255439
40
0.0660055
50
180.0174034
51
241.3914358
0
ARC
8
DEFAULT_255_2_778
10
9.5964718
20
2.6254555
40
0.0932502
50
179.7902737
51
179.9580497
0
ARC
8
DEFAULT_255_2_778
10
10.1293265
20
3.8665694
40
0.3418254
50
265.7210631
51
270.0000232
0
ARC
8
DEFAULT_255_2_778
10
10.1293714
20
3.8659579
40
0.3412138
50
269.9924793
51
314.2863461
0
ARC
8
DEFAULT_255_2_778
10
10.0533654
20
3.8867049
40
0.4110797
50
319.8595592
51
0.0077209
0
ARC
8
DEFAULT_255_2_778
10
10.0521492
20
3.8867592
40
0.412296
50
0.0001533
51
3.6207998
0
ARC
8
DEFAULT_255_2_778
10
10.0612306
20
3.9725642
40
0.4031903
50
356.3927711
51
359.9998516
0
ARC
8
DEFAULT_255_2_778
10
10.0597058
20
3.9723528
40
0.4047152
50
0.0297727
51
40.4632524
0
ARC
8
DEFAULT_255_2_778
10
10.1306286
20
3.9962745
40
0.3363842
50
45.2082156
51
89.3262327
0
ARC
8
DEFAULT_255_2_778
10
10.1345614
20
4.0248014
40
0.307834
50
89.9957595
51
95.7309119
0
ARC
8
DEFAULT_255_2_778
10
12.0648669
20
3.9935062
40
0.5790994
50
180.0009447
51
184.5867172
0
ARC
8
DEFAULT_255_2_778
10
12.0650841
20
3.9933937
40
0.5793165
50
135.9482708
51
179.9898211
0
ARC
8
DEFAULT_255_2_778
10
12.0750006
20
3.8339393
40
0.7055827
50
89.9698289
51
127.1677695
0
ARC
8
DEFAULT_255_2_778
10
12.0757437
20
3.8339391
40
0.7055828
50
52.8322361
51
90.0301693
0
ARC
8
DEFAULT_255_2_778
10
12.1061118
20
4.0034885
40
0.5576422
50
0.1317752
51
44.767362
0
ARC
8
DEFAULT_255_2_778
10
12.1153265
20
4.0047704
40
0.548426
50
353.9740042
51
0.0000633
0
ARC
8
DEFAULT_255_2_778
10
12.0934672
20
3.0715179
40
0.5697515
50
0.0010718
51
5.365719
0
ARC
8
DEFAULT_255_2_778
10
12.0946862
20
3.071466
40
0.5685325
50
315.4180745
51
0.0063031
0
ARC
8
DEFAULT_255_2_778
10
12.073326
20
3.2343382
40
0.7053414
50
269.9712594
51
307.1844367
0
ARC
8
DEFAULT_255_2_778
10
12.0726183
20
3.2343381
40
0.7053413
50
232.8155577
51
270.0287425
0
ARC
8
DEFAULT_255_2_778
10
12.0654494
20
3.0765402
40
0.5822366
50
180.0063588
51
223.9573026
0
ARC
8
DEFAULT_255_2_778
10
12.0654306
20
3.0764693
40
0.5822178
50
175.2386316
51
179.9993866
0
ARC
8
DEFAULT_255_2_778
10
12.2693347
20
3.1127537
40
0.5522438
50
178.7504111
51
198.7732914
0
ARC
8
DEFAULT_255_2_778
10
12.0247458
20
3.0324879
40
0.2948483
50
199.301672
51
272.5631857
0
ARC
8
DEFAULT_255_2_778
10
12.0597546
20
3.2818284
40
0.5443315
50
267.7023372
51
270.0176401
0
ARC
8
DEFAULT_255_2_778
10
12.0880428
20
3.0843046
40
0.347946
50
265.3643611
51
269.9977986
0
ARC
8
DEFAULT_255_2_778
10
12.0903973
20
3.0670456
40
0.3306954
50
269.5897305
51
315.0705774
0
ARC
8
DEFAULT_255_2_778
10
12.0238184
20
3.0894596
40
0.394892
50
319.5951657
51
359.9949294
0
ARC
8
DEFAULT_255_2_778
10
12.0239525
20
3.0894197
40
0.3947579
50
0.0007172
51
5.1415921
0
ARC
8
DEFAULT_255_2_778
10
12.0353523
20
3.9830003
40
0.383445
50
354.6423129
51
359.999275
0
ARC
8
DEFAULT_255_2_778
10
12.0346789
20
3.9829297
40
0.3841184
50
0.0098104
51
41.0124165
0
ARC
8
DEFAULT_255_2_778
10
12.0860003
20
3.9905835
40
0.3415122
50
45.6989406
51
89.9954009
0
ARC
8
DEFAULT_255_2_778
10
12.0860336
20
3.9903505
40
0.3417452
50
90.0009903
51
94.3820272
0
ARC
8
DEFAULT_255_2_778
10
12.0472416
20
3.9065791
40
0.4247071
50
88.2890547
51
112.26292
0
ARC
8
DEFAULT_255_2_778
10
12.0030292
20
4.0500333
40
0.2755241
50
115.0572676
51
172.4610591
0
ARC
8
DEFAULT_255_2_778
10
12.4024517
20
3.9548379
40
0.6852699
50
168.9498668
51
180.6221578
0
ARC
8
DEFAULT_255_2_778
10
13.6124969
20
2.8285363
40
0.1267853
50
179.9933376
51
180.740921
0
ARC
8
DEFAULT_255_2_778
10
13.6150664
20
2.8285669
40
0.1293548
50
139.4878656
51
180.0070035
0
ARC
8
DEFAULT_255_2_778
10
13.5898437
20
2.8686969
40
0.0852875
50
95.464292
51
149.0206943
0
ARC
8
DEFAULT_255_2_778
10
13.5615595
20
2.836641
40
0.1186812
50
44.0759398
51
80.2185984
0
ARC
8
DEFAULT_255_2_778
10
13.9668546
20
3.0906826
40
0.3451049
50
225.6754338
51
250.6876347
0
ARC
8
DEFAULT_255_2_778
10
14.0499706
20
3.3129318
40
0.582357
50
250.2018778
51
269.981064
0
ARC
8
DEFAULT_255_2_778
10
14.0498006
20
3.3089141
40
0.5783392
50
269.997773
51
270.4974889
0
ARC
8
DEFAULT_255_2_778
10
14.0702705
20
3.1599964
40
0.4296774
50
267.9395777
51
269.9992417
0
ARC
8
DEFAULT_255_2_778
10
14.0703362
20
3.1588916
40
0.4285724
50
269.9904601
51
307.7003956
0
ARC
8
DEFAULT_255_2_778
10
14.1204492
20
3.0489654
40
0.312171
50
312.7677559
51
359.9933574
0
ARC
8
DEFAULT_255_2_778
10
14.1201943
20
3.0489244
40
0.3124259
50
0.0008825
51
3.8306558
0
ARC
8
DEFAULT_255_2_778
10
14.116532
20
3.0882676
40
0.3159305
50
356.6483195
51
359.9992757
0
ARC
8
DEFAULT_255_2_778
10
14.1132085
20
3.0878173
40
0.3192542
50
0.0800857
51
44.9068404
0
ARC
8
DEFAULT_255_2_778
10
13.9145955
20
2.9000246
40
0.5925403
50
44.2099572
51
70.0755162
0
ARC
8
DEFAULT_255_2_778
10
14.0551667
20
4.0879853
40
0.5717826
50
218.1991462
51
246.6586935
0
ARC
8
DEFAULT_255_2_778
10
13.9605917
20
4.0080128
40
0.4480259
50
179.9718899
51
217.6411989
0
ARC
8
DEFAULT_255_2_778
10
13.9657353
20
4.0082184
40
0.4531693
50
176.9162555
51
179.9981958
0
ARC
8
DEFAULT_255_2_778
10
14.03474
20
4.0482613
40
0.521753
50
180.0006029
51
181.7204382
0
ARC
8
DEFAULT_255_2_778
10
14.0413893
20
4.0477931
40
0.5284026
50
153.6172631
51
179.9498228
0
ARC
8
DEFAULT_255_2_778
10
13.907646
20
4.1171964
40
0.3777587
50
121.2061273
51
154.0334218
0
ARC
8
DEFAULT_255_2_778
10
14.0537047
20
3.888562
40
0.6490198
50
103.6700061
51
121.7769193
0
ARC
8
DEFAULT_255_2_778
10
14.1186977
20
3.6665226
40
0.8801939
50
90.3824713
51
104.3650742
0
ARC
8
DEFAULT_255_2_778
10
14.1136399
20
3.5156124
40
1.0310848
50
71.8503843
51
90.0454389
0
ARC
8
DEFAULT_255_2_778
10
14.3292454
20
4.1395971
40
0.3711333
50
54.7825126
51
73.4727509
0
ARC
8
DEFAULT_255_2_778
10
14.4904327
20
4.3593627
40
0.098762
50
3.3866303
51
57.6555822
0
ARC
8
DEFAULT_255_2_778
10
14.4489753
20
4.3662481
40
0.1400508
50
323.4766713
51
359.5699219
0
ARC
8
DEFAULT_255_2_778
10
14.4909557
20
4.3167471
40
0.0782653
50
270.0705882
51
334.3732848
0
ARC
8
DEFAULT_255_2_778
10
14.4910638
20
4.3177058
40
0.0792239
50
268.8850132
51
269.9916044
0
ARC
8
DEFAULT_255_2_778
10
14.7003594
20
4.9409392
40
0.7334014
50
243.203238
51
253.2929352
0
ARC
8
DEFAULT_255_2_778
10
14.1159371
20
3.6854703
40
0.6522265
50
67.1011316
51
89.9749566
0
ARC
8
DEFAULT_255_2_778
10
14.0907251
20
3.8608636
40
0.4775145
50
86.9392166
51
90.000339
0
ARC
8
DEFAULT_255_2_778
10
14.0906217
20
3.8618181
40
0.4765601
50
89.9879138
51
120.4619223
0
ARC
8
DEFAULT_255_2_778
10
13.9887239
20
4.0735402
40
0.2431874
50
125.0619212
51
179.9912144
0
ARC
8
DEFAULT_255_2_778
10
13.9892973
20
4.0735804
40
0.2437607
50
180.0006728
51
183.9716455
0
ARC
8
DEFAULT_255_2_778
10
14.0094719
20
4.0476484
40
0.2635051
50
178.0321488
51
179.9993437
0
ARC
8
DEFAULT_255_2_778
10
14.0063862
20
4.0473651
40
0.2604195
50
179.9370069
51
228.9085737
0
ARC
8
DEFAULT_255_2_778
10
14.2905252
20
4.4172354
40
0.7265079
50
231.1928726
51
251.6181574
0
ARC
8
DEFAULT_255_2_778
10
14.0830589
20
3.1222458
40
0.5556818
50
0.0158253
51
64.0724337
0
ARC
8
DEFAULT_255_2_778
10
14.0806719
20
3.1224044
40
0.5580687
50
357.0924702
51
359.9994747
0
ARC
8
DEFAULT_255_2_778
10
14.0982098
20
3.0556079
40
0.5411828
50
0.0009795
51
4.0783185
0
ARC
8
DEFAULT_255_2_778
10
14.0993713
20
3.0555965
40
0.5400213
50
314.3136063
51
0.0021918
0
ARC
8
DEFAULT_255_2_778
10
14.0687589
20
3.1726354
40
0.6479219
50
270.0045364
51
309.0128371
0
ARC
8
DEFAULT_255_2_778
10
14.0688108
20
3.1726125
40
0.647899
50
267.5683577
51
269.9999427
0
ARC
8
DEFAULT_255_2_778
10
14.0181892
20
3.2935497
40
0.768601
50
270.0003088
51
271.7247197
0
ARC
8
DEFAULT_255_2_778
10
14.0181465
20
3.2926094
40
0.7676607
50
239.9401686
51
270.0034922
0
ARC
8
DEFAULT_255_2_778
10
13.8760806
20
3.0198932
40
0.4606649
50
220.7420723
51
238.2426671
0
ARC
8
DEFAULT_255_2_778
10
13.6535161
20
2.8341328
40
0.1708601
50
182.5278957
51
222.2564384
0
ARC
8
DEFAULT_255_2_778
10
15.4434556
20
4.4419069
40
0.1073283
50
179.997249
51
182.4083494
0
ARC
8
DEFAULT_255_2_778
10
15.4418613
20
4.4420836
40
0.1057341
50
140.4592293
51
180.0929699
0
ARC
8
DEFAULT_255_2_778
10
15.4177401
20
4.4715132
40
0.0687895
50
90.0805362
51
146.5837091
0
ARC
8
DEFAULT_255_2_778
10
15.417643
20
4.4712874
40
0.0690151
50
89.2701458
51
89.999664
0
ARC
8
DEFAULT_255_2_778
10
16.5311466
20
4.4664769
40
0.0738598
50
90.0063535
51
91.8810765
0
ARC
8
DEFAULT_255_2_778
10
16.5314227
20
4.4688052
40
0.071532
50
34.573412
51
90.2277277
0
ARC
8
DEFAULT_255_2_778
10
16.4840608
20
4.4398705
40
0.1269857
50
0.0060734
51
33.1965598
0
ARC
8
DEFAULT_255_2_778
10
16.484183
20
4.4398746
40
0.1268635
50
358.8808804
51
0.0042173
0
ARC
8
DEFAULT_255_2_778
10
16.4744693
20
4.4363517
40
0.1365568
50
359.9998168
51
0.4385216
0
ARC
8
DEFAULT_255_2_778
10
16.4724983
20
4.4364375
40
0.138528
50
354.0742066
51
359.9643504
0
ARC
8
DEFAULT_255_2_778
10
16.4914216
20
4.4321951
40
0.1192894
50
326.0043724
51
355.1626562
0
ARC
8
DEFAULT_255_2_778
10
16.5278619
20
4.404991
40
0.0738991
50
270.6669896
51
327.6944633
0
ARC
8
DEFAULT_255_2_778
10
16.0277481
20
2.6168028
40
0.0656788
50
0.0003436
51
0.6927119
0
ARC
8
DEFAULT_255_2_778
10
16.0279496
20
2.6170322
40
0.0654779
50
298.3301505
51
359.7996461
0
ARC
8
DEFAULT_255_2_778
10
15.9785084
20
2.6866941
40
0.1506222
50
269.9862224
51
302.3128038
0
ARC
8
DEFAULT_255_2_778
10
15.9784359
20
2.6866941
40
0.1506222
50
237.6871962
51
270.0137776
0
ARC
8
DEFAULT_255_2_778
10
15.9297249
20
2.6174608
40
0.066203
50
179.8822769
51
241.2896053
0
ARC
8
DEFAULT_255_2_778
10
15.417143
20
4.4001099
40
0.0690187
50
270.0003312
51
270.7298494
0
ARC
8
DEFAULT_255_2_778
10
15.4171684
20
4.3997475
40
0.0686562
50
213.3565945
51
269.9791154
0
ARC
8
DEFAULT_255_2_778
10
15.4593829
20
4.4411925
40
0.1272175
50
181.7097286
51
218.5005126
0
ARC
8
DEFAULT_255_2_778
10
17.4780081
20
4.4424105
40
0.0944189
50
185.5073702
51
191.3078213
0
ARC
8
DEFAULT_255_2_778
10
17.4785055
20
4.4424506
40
0.0949178
50
179.9949125
51
185.5026572
0
ARC
8
DEFAULT_255_2_778
10
17.4839181
20
4.4419187
40
0.100332
50
144.9092668
51
179.6914207
0
ARC
8
DEFAULT_255_2_778
10
17.4814751
20
4.4442598
40
0.0969886
50
98.0326742
51
145.2112712
0
ARC
8
DEFAULT_255_2_778
10
17.4944579
20
4.3573125
40
0.1831533
50
33.9160143
51
87.5390588
0
ARC
8
DEFAULT_255_2_778
10
17.3775736
20
4.2571772
40
0.3364989
50
24.4393589
51
36.961747
0
ARC
8
DEFAULT_255_2_778
10
18.8392929
20
4.2523135
40
0.32828
50
128.711248
51
153.9660279
0
ARC
8
DEFAULT_255_2_778
10
18.72726
20
4.387733
40
0.1525705
50
90.5399688
51
127.6862549
0
ARC
8
DEFAULT_255_2_778
10
18.7407246
20
4.4400489
40
0.1013496
50
90.0103481
51
98.4554217
0
ARC
8
DEFAULT_255_2_778
10
18.7412939
20
4.4420483
40
0.0993519
50
10.9948772
51
90.3388831
0
ARC
8
DEFAULT_255_2_778
10
18.8034866
20
4.4473328
40
0.0378855
50
359.9834474
51
21.1412014
0
ARC
8
DEFAULT_255_2_778
10
18.8029002
20
4.4473268
40
0.038472
50
357.3935832
51
359.9925916
0
ARC
8
DEFAULT_255_2_778
10
18.8021471
20
4.4474186
40
0.0392285
50
339.2133694
51
357.3096829
0
ARC
8
DEFAULT_255_2_778
10
18.7756901
20
2.6310723
40
0.0634787
50
0.0052056
51
5.9901858
0
ARC
8
DEFAULT_255_2_778
10
18.7748352
20
2.6313301
40
0.0643339
50
300.8468921
51
359.7755841
0
ARC
8
DEFAULT_255_2_778
10
18.7227784
20
2.7380265
40
0.1829034
50
279.7472791
51
297.7080026
0
ARC
8
DEFAULT_255_2_778
10
18.7263555
20
2.7202726
40
0.164801
50
270.0448924
51
279.5665748
0
ARC
8
DEFAULT_255_2_778
10
18.7260499
20
2.7092433
40
0.1537721
50
239.9820581
51
270.1619875
0
ARC
8
DEFAULT_255_2_778
10
18.6760656
20
2.63158
40
0.0616792
50
180.2339781
51
244.0981025
0
ARC
8
DEFAULT_255_2_778
10
18.6751185
20
2.631323
40
0.0607316
50
173.9756157
51
179.9951792
0
ARC
8
DEFAULT_255_2_778
10
18.1100664
20
3.3107956
40
0.0992004
50
270.3209981
51
339.8953311
0
ARC
8
DEFAULT_255_2_778
10
18.1123706
20
3.2947
40
0.0831215
50
192.5087296
51
268.7946902
0
ARC
8
DEFAULT_255_2_778
10
17.5442785
20
2.6190247
40
0.0587127
50
0.0022814
51
6.427073
0
ARC
8
DEFAULT_255_2_778
10
17.5445333
20
2.6190472
40
0.0584578
50
297.7167425
51
359.9802343
0
ARC
8
DEFAULT_255_2_778
10
17.4716732
20
2.7274109
40
0.1888023
50
276.4315772
51
301.9996531
0
ARC
8
DEFAULT_255_2_778
10
17.490496
20
2.6698537
40
0.1300776
50
270.0015441
51
271.0246755
0
ARC
8
DEFAULT_255_2_778
10
17.4903339
20
2.6591167
40
0.1193407
50
241.207268
51
270.0794937
0
ARC
8
DEFAULT_255_2_778
10
17.5135143
20
2.704581
40
0.1703561
50
234.2658722
51
241.7396736
0
ARC
8
DEFAULT_255_2_778
10
17.4464271
20
2.6145002
40
0.0580831
50
180.0179491
51
236.088788
0
ARC
8
DEFAULT_255_2_778
10
17.4460794
20
2.6144842
40
0.0577353
50
172.9979933
51
180.0022395
0
ARC
8
DEFAULT_255_2_778
10
17.4462929
20
2.6144578
40
0.0579504
50
166.5906653
51
172.9977276
0
ARC
8
DEFAULT_255_2_778
10
19.6665128
20
2.6522836
40
0.0446907
50
180.0311093
51
193.3074954
0
ARC
8
DEFAULT_255_2_778
10
19.6674803
20
2.6521976
40
0.0456581
50
166.8345932
51
179.9225241
0
ARC
8
DEFAULT_255_2_778
10
20.2894698
20
4.4207538
40
0.1175065
50
83.3736301
51
161.3674345
0
ARC
8
DEFAULT_255_2_778
10
20.3149666
20
4.2161269
40
0.32157
50
89.97228
51
92.1274046
0
ARC
8
DEFAULT_255_2_778
10
20.3272614
20
4.3815534
40
0.1566146
50
50.6345107
51
94.4454904
0
ARC
8
DEFAULT_255_2_778
10
20.361104
20
4.4352082
40
0.093998
50
14.2190442
51
45.8335426
0
ARC
8
DEFAULT_255_2_778
10
20.9388212
20
2.6640723
40
0.0792136
50
348.9556424
51
354.1487965
0
ARC
8
DEFAULT_255_2_778
10
20.9241701
20
2.6677324
40
0.0942977
50
301.3444692
51
348.4783015
0
ARC
8
DEFAULT_255_2_778
10
20.8707025
20
2.7643773
40
0.2047027
50
270.845231
51
300.0544206
0
ARC
8
DEFAULT_255_2_778
10
20.8628863
20
2.6337675
40
0.0748591
50
270.0099071
51
278.3228083
0
ARC
8
DEFAULT_255_2_778
10
20.86179
20
2.6286351
40
0.0697354
50
194.6509866
51
270.9113682
0
ARC
8
DEFAULT_255_2_778
10
19.7693916
20
2.6128378
40
0.0716084
50
271.5297924
51
344.5793398
0
ARC
8
DEFAULT_255_2_778
10
19.7712997
20
2.6029483
40
0.0616935
50
265.7131461
51
270.0033481
0
ARC
8
DEFAULT_255_2_778
10
19.7712215
20
2.6019358
40
0.0606779
50
258.4016122
51
265.715399
0
ARC
8
DEFAULT_255_2_778
10
19.7620239
20
2.7222581
40
0.1797863
50
237.8761195
51
269.0433283
0
ARC
8
DEFAULT_255_2_778
10
19.7004314
20
2.6407691
40
0.0785197
50
180.0392961
51
244.3336209
0
ARC
8
DEFAULT_255_2_778
10
19.7009852
20
2.6407144
40
0.0790735
50
179.0707326
51
179.9994
0
ARC
8
DEFAULT_255_2_778
10
21.8960418
20
4.4627454
40
0.0770255
50
83.695073
51
180.7056014
0
ARC
8
DEFAULT_255_2_778
10
21.9310991
20
4.2664483
40
0.27415
50
89.8070843
51
95.5676588
0
ARC
8
DEFAULT_255_2_778
10
21.934134
20
4.3919495
40
0.1486623
50
90.0057228
51
90.8139622
0
ARC
8
DEFAULT_255_2_778
10
21.9344705
20
4.3962533
40
0.1443589
50
49.6053259
51
90.1394234
0
ARC
8
DEFAULT_255_2_778
10
21.7941173
20
4.2544818
40
0.343616
50
24.4486561
51
47.1003825
0
ARC
8
DEFAULT_255_2_778
10
22.8604962
20
4.4622909
40
0.0656788
50
180.0003436
51
180.6927119
0
ARC
8
DEFAULT_255_2_778
10
22.8602947
20
4.4620615
40
0.0654779
50
118.3301505
51
179.7996461
0
ARC
8
DEFAULT_255_2_778
10
22.9142301
20
4.3578522
40
0.1828115
50
99.6296189
51
117.7104364
0
ARC
8
DEFAULT_255_2_778
10
22.9106961
20
4.3755013
40
0.1648207
50
90.0430981
51
99.4447289
0
ARC
8
DEFAULT_255_2_778
10
22.9109822
20
4.3861309
40
0.1541915
50
60.0239267
51
90.1523587
0
ARC
8
DEFAULT_255_2_778
10
22.9560207
20
4.4615156
40
0.0664015
50
359.9838575
51
61.1878622
0
ARC
8
DEFAULT_255_2_778
10
22.9514354
20
2.6273373
40
0.0709889
50
0.0216851
51
0.451632
0
ARC
8
DEFAULT_255_2_778
10
22.956565
20
2.6275581
40
0.0658596
50
298.5313671
51
359.8312466
0
ARC
8
DEFAULT_255_2_778
10
22.9001966
20
2.7010736
40
0.158029
50
273.2377965
51
303.7627642
0
ARC
8
DEFAULT_255_2_778
10
22.9180172
20
2.7112679
40
0.1682064
50
201.6916846
51
266.9686825
0
ARC
8
DEFAULT_255_2_778
10
21.995037
20
2.6185457
40
0.0579796
50
0.0045983
51
6.6866946
0
ARC
8
DEFAULT_255_2_778
10
21.9949998
20
2.6185928
40
0.0580167
50
297.4257311
51
359.9580463
0
ARC
8
DEFAULT_255_2_778
10
21.9412084
20
2.6943941
40
0.1506222
50
269.9862224
51
302.3128038
0
ARC
8
DEFAULT_255_2_778
10
21.9411359
20
2.6943941
40
0.1506222
50
237.6871962
51
270.0137776
0
ARC
8
DEFAULT_255_2_778
10
21.8738086
20
2.6199412
40
0.0544647
50
180.1188498
51
255.9889118
0
ARC
8
DEFAULT_255_2_778
10
21.8733441
20
2.6198225
40
0.0540001
50
174.1815311
51
179.9939235
0
LINE
8
DEFAULT_255_2_778
10
9.5037221
20
2.6278969
11
9.5037221
21
4.4614969
0
LINE
8
DEFAULT_255_2_778
10
9.5963221
20
4.5402969
11
10.1104221
21
4.5402969
0
LINE
8
DEFAULT_255_2_778
10
10.6896221
20
3.9648969
11
10.6896221
21
3.9383969
0
LINE
8
DEFAULT_255_2_778
10
10.1035221
20
3.3454969
11
9.7331221
21
3.3454969
0
LINE
8
DEFAULT_255_2_778
10
9.7331221
20
3.3454969
11
9.7331221
21
2.6257969
0
LINE
8
DEFAULT_255_2_778
10
9.5032221
20
2.6257969
11
9.5037221
21
2.6278969
0
LINE
8
DEFAULT_255_2_778
10
9.7334221
20
3.5256969
11
10.1038221
21
3.5256969
0
LINE
8
DEFAULT_255_2_778
10
10.4636221
20
3.9127969
11
10.4636221
21
3.9471969
0
LINE
8
DEFAULT_255_2_778
10
10.1038221
20
4.3310969
11
9.7334221
21
4.3310969
0
LINE
8
DEFAULT_255_2_778
10
9.7334221
20
4.3310969
11
9.7334221
21
3.5256969
0
LINE
8
DEFAULT_255_2_778
10
11.4876221
20
3.1247969
11
11.4876221
21
3.9471969
0
LINE
8
DEFAULT_255_2_778
10
12.6607221
20
3.9471969
11
12.6607221
21
3.1247969
0
LINE
8
DEFAULT_255_2_778
10
11.4852221
20
3.1247969
11
11.4876221
21
3.1247969
0
LINE
8
DEFAULT_255_2_778
10
12.4171221
20
3.1247969
11
12.4171221
21
3.9471969
0
LINE
8
DEFAULT_255_2_778
10
11.7172221
20
3.9473969
11
11.7172221
21
3.1247969
0
LINE
8
DEFAULT_255_2_778
10
13.6468221
20
2.9191969
11
13.7257221
21
2.8437969
0
LINE
8
DEFAULT_255_2_778
10
14.1165221
20
3.4570969
11
13.8286221
21
3.5629969
0
LINE
8
DEFAULT_255_2_778
10
14.0614221
20
3.7277969
11
14.3260221
21
3.6219969
0
LINE
8
DEFAULT_255_2_778
10
13.4828221
20
2.8265969
11
13.4857221
21
2.8268969
0
LINE
8
DEFAULT_255_2_778
10
15.4185221
20
4.5402969
11
16.5287221
21
4.5402969
0
LINE
8
DEFAULT_255_2_778
10
16.5287221
20
4.3310969
11
16.0934221
21
4.3310969
0
LINE
8
DEFAULT_255_2_778
10
16.0934221
20
4.3310969
11
16.0934221
21
2.6175969
0
LINE
8
DEFAULT_255_2_778
10
15.8635221
20
2.6175969
11
15.8635221
21
4.3310969
0
LINE
8
DEFAULT_255_2_778
10
15.8635221
20
4.3310969
11
15.4180221
21
4.3310969
0
LINE
8
DEFAULT_255_2_778
10
15.3322221
20
4.4373969
11
15.3362221
21
4.4373969
0
LINE
8
DEFAULT_255_2_778
10
17.3854221
20
2.6281969
11
17.3854221
21
4.4238969
0
LINE
8
DEFAULT_255_2_778
10
17.4679221
20
4.5402969
11
17.5023221
21
4.5402969
0
LINE
8
DEFAULT_255_2_778
10
17.6839221
20
4.3963969
11
18.1125221
21
3.5740969
0
LINE
8
DEFAULT_255_2_778
10
18.1125221
20
3.5740969
11
18.5443221
21
4.3963969
0
LINE
8
DEFAULT_255_2_778
10
18.8388221
20
4.4334969
11
18.8388221
21
2.6376969
0
LINE
8
DEFAULT_255_2_778
10
18.6147221
20
2.6376969
11
18.6147221
21
4.0632969
0
LINE
8
DEFAULT_255_2_778
10
18.6147221
20
4.0632969
11
18.2032221
21
3.2766969
0
LINE
8
DEFAULT_255_2_778
10
18.0312221
20
3.2766969
11
17.6026221
21
4.0717969
0
LINE
8
DEFAULT_255_2_778
10
17.6026221
20
4.0717969
11
17.6026221
21
2.6255969
0
LINE
8
DEFAULT_255_2_778
10
17.3899221
20
2.6278969
11
17.3854221
21
2.6281969
0
LINE
8
DEFAULT_255_2_778
10
19.6230221
20
2.6625969
11
20.1781221
21
4.4582969
0
LINE
8
DEFAULT_255_2_778
10
20.4522221
20
4.4582969
11
21.0176221
21
2.6559969
0
LINE
8
DEFAULT_255_2_778
10
20.7943221
20
2.6109969
11
20.6779221
21
2.9946969
0
LINE
8
DEFAULT_255_2_778
10
20.6779221
20
2.9946969
11
19.9582221
21
2.9946969
0
LINE
8
DEFAULT_255_2_778
10
19.9582221
20
2.9946969
11
19.8384221
21
2.5937969
0
LINE
8
DEFAULT_255_2_778
10
19.6219221
20
2.6419969
11
19.6230221
21
2.6419969
0
LINE
8
DEFAULT_255_2_778
10
20.0199221
20
3.1901969
11
20.6297221
21
3.1901969
0
LINE
8
DEFAULT_255_2_778
10
20.6297221
20
3.1901969
11
20.3212221
21
4.2180969
0
LINE
8
DEFAULT_255_2_778
10
20.3212221
20
4.2180969
11
20.0199221
21
3.1901969
0
LINE
8
DEFAULT_255_2_778
10
21.8190221
20
2.6281969
11
21.8190221
21
4.4617969
0
LINE
8
DEFAULT_255_2_778
10
22.1069221
20
4.3966969
11
22.7948221
21
3.0670969
0
LINE
8
DEFAULT_255_2_778
10
22.7948221
20
3.0670969
11
22.7948221
21
4.4614969
0
LINE
8
DEFAULT_255_2_778
10
23.0224221
20
4.4614969
11
23.0224221
21
2.6278969
0
LINE
8
DEFAULT_255_2_778
10
22.7617221
20
2.6490969
11
22.0526221
21
4.0195969
0
LINE
8
DEFAULT_255_2_778
10
22.0526221
20
4.0195969
11
22.0526221
21
2.6252969
0
LINE
8
DEFAULT_255_2_778
10
21.8196221
20
2.6252969
11
21.8190221
21
2.6281969
0
ARC
8
DEFAULT_255_2_778
10
4.2678123
20
3.8632379
40
4.1071195
50
37.6566772
51
54.8749189
0
ARC
8
DEFAULT_255_2_778
10
4.2636618
20
3.8553337
40
4.1159725
50
54.8909703
51
89.9839193
0
ARC
8
DEFAULT_255_2_778
10
4.2648138
20
3.8701037
40
4.1012023
50
89.9999564
51
96.1894252
0
ARC
8
DEFAULT_255_2_778
10
4.2660593
20
3.8599884
40
4.111393
50
96.1914824
51
102.7871342
0
ARC
8
DEFAULT_255_2_778
10
4.2705047
20
3.8395812
40
4.1322779
50
102.7846171
51
105.1842835
0
ARC
8
DEFAULT_255_2_778
10
4.2620279
20
3.86477
40
4.1057486
50
105.1621883
51
125.3910106
0
ARC
8
DEFAULT_255_2_778
10
4.2671453
20
3.8572444
40
4.1148472
50
125.3884115
51
165.4851842
0
ARC
8
DEFAULT_255_2_778
10
4.2716245
20
3.8583099
40
4.1189168
50
165.5151481
51
172.6927603
0
ARC
8
DEFAULT_255_2_778
10
4.2766559
20
3.856583
40
4.1241271
50
172.6778539
51
178.174266
0
ARC
8
DEFAULT_255_2_778
10
4.2613127
20
3.8572609
40
4.1087701
50
178.1768978
51
179.999934
0
ARC
8
DEFAULT_255_2_778
10
4.2608939
20
3.8579264
40
4.1083514
50
180.0092153
51
206.7455474
0
ARC
8
DEFAULT_255_2_778
10
4.2615701
20
3.8559844
40
4.1080819
50
206.7171156
51
233.0037214
0
ARC
8
DEFAULT_255_2_778
10
4.2682133
20
3.8663107
40
4.120327
50
233.016351
51
240.2038774
0
ARC
8
DEFAULT_255_2_778
10
4.2668196
20
3.8622525
40
4.1161129
50
240.1926428
51
251.9894734
0
ARC
8
DEFAULT_255_2_778
10
4.2640221
20
3.8564474
40
4.1097272
50
252.0015401
51
268.8975081
0
ARC
8
DEFAULT_255_2_778
10
4.264656
20
3.8652586
40
4.1185491
50
268.8910493
51
270.0000655
0
ARC
8
DEFAULT_255_2_778
10
4.2654006
20
3.8596959
40
4.1129864
50
269.9896933
51
295.7090116
0
ARC
8
DEFAULT_255_2_778
10
4.2639738
20
3.8591466
40
4.1131107
50
295.7302397
51
307.7054212
0
ARC
8
DEFAULT_255_2_778
10
4.2598943
20
3.8733766
40
4.1268676
50
307.6294009
51
318.6212091
0
ARC
8
DEFAULT_255_2_778
10
4.2996048
20
3.8366337
40
4.0727825
50
318.6397831
51
333.7802081
0
ARC
8
DEFAULT_255_2_778
10
4.2507305
20
3.8580727
40
4.1261008
50
333.8129837
51
0.0178248
0
ARC
8
DEFAULT_255_2_778
10
4.2438275
20
3.8593594
40
4.1330035
50
359.9999584
51
1.7552249
0
ARC
8
DEFAULT_255_2_778
10
4.2662837
20
3.8610756
40
4.1105055
50
1.740901
51
18.1302581
0
ARC
8
DEFAULT_255_2_778
10
4.2800006
20
3.8643268
40
4.0964581
50
18.1467431
51
29.3424896
0
ARC
8
DEFAULT_255_2_778
10
4.228986
20
3.8351931
40
4.1552042
50
29.3479698
51
37.6282667
0
LINE
8
DEFAULT_255_2_778
10
7.5198601
20
6.3720947
11
7.5193601
21
6.3723947
0
ARC
8
DEFAULT_255_2_778
10
27.1583291
20
-19.6151683
40
33.5538793
50
134.5235997
51
135.0098646
0
ARC
8
DEFAULT_255_2_778
10
22.0595626
20
-14.4308091
40
26.2823594
50
133.987667
51
134.5237371
0
ARC
8
DEFAULT_255_2_778
10
18.2383375
20
-10.4720972
40
20.7802543
50
133.4009973
51
133.987691
0
ARC
8
DEFAULT_255_2_778
10
14.7294596
20
-6.7556115
40
15.6690444
50
132.4233594
51
133.4162749
0
ARC
8
DEFAULT_255_2_778
10
11.5930375
20
-3.320602
40
11.0175469
50
131.1136369
51
132.4338844
0
ARC
8
DEFAULT_255_2_778
10
9.2965408
20
-0.6868986
40
7.5232251
50
129.406704
51
131.1258778
0
ARC
8
DEFAULT_255_2_778
10
7.6534783
20
1.3170484
40
4.931807
50
126.972425
51
129.4371417
0
ARC
8
DEFAULT_255_2_778
10
6.5511155
20
2.7842192
40
3.0966531
50
123.6501097
51
127.0038078
0
ARC
8
DEFAULT_255_2_778
10
5.8698848
20
3.8119534
40
1.8636473
50
118.7239016
51
123.7240855
0
ARC
8
DEFAULT_255_2_778
10
5.4836213
20
4.5224823
40
1.0549213
50
110.8669718
51
118.8727465
0
ARC
8
DEFAULT_255_2_778
10
5.3141422
20
4.9747996
40
0.5719098
50
97.2768326
51
111.1426968
0
ARC
8
DEFAULT_255_2_778
10
5.288274
20
5.1443757
40
0.4004446
50
90.079976
51
96.6786449
0
ARC
8
DEFAULT_255_2_778
10
5.2888263
20
5.200262
40
0.3445598
50
69.8503487
51
90.1847857
0
ARC
8
DEFAULT_255_2_778
10
5.2215407
20
5.0458761
40
0.512772
50
51.4075334
51
68.7345064
0
ARC
8
DEFAULT_255_2_778
10
4.9609176
20
4.6844552
40
0.9580767
50
52.0570739
51
52.7079037
0
ARC
8
DEFAULT_255_2_778
10
4.6630557
20
4.3097081
40
1.4367663
50
49.1948275
51
51.8785026
0
ARC
8
DEFAULT_255_2_778
10
2.3143556
20
1.5860269
40
5.0332688
50
48.4107414
51
49.2185015
0
LINE
8
DEFAULT_255_2_778
10
5.6518689
20
5.350722
11
3.9180689
21
3.603222
0
LINE
8
DEFAULT_255_2_778
10
3.9180689
20
3.603222
11
3.4280689
21
4.106922
0
LINE
8
DEFAULT_255_2_778
10
5.6553689
20
5.350522
11
5.6518689
21
5.350722
0
ARC
8
DEFAULT_255_2_778
10
3.919367
20
3.6166107
40
0.061328
50
225.9879375
51
268.4943477
0
ARC
8
DEFAULT_255_2_778
10
3.433819
20
4.1113517
40
0.0679121
50
186.0490613
51
222.0064329
0
ARC
8
DEFAULT_255_2_778
10
3.4258731
20
4.1097094
40
0.0598426
50
180.0052402
51
185.2871134
0
ARC
8
DEFAULT_255_2_778
10
3.4262793
20
4.1094246
40
0.0602493
50
135.4332989
51
179.7343618
0
ARC
8
DEFAULT_255_2_778
10
27.4791854
20
-19.9357711
40
34.0707421
50
134.5334619
51
135.0099348
0
ARC
8
DEFAULT_255_2_778
10
22.1540314
20
-14.5230918
40
26.4776951
50
134.0026916
51
134.5335984
0
ARC
8
DEFAULT_255_2_778
10
18.2221652
20
-10.4518325
40
20.8177724
50
133.4168827
51
134.0028359
0
ARC
8
DEFAULT_255_2_778
10
14.6595033
20
-6.6804398
40
15.6297152
50
132.4330252
51
133.4325198
0
ARC
8
DEFAULT_255_2_778
10
11.5105718
20
-3.2328395
40
10.960485
50
131.1049457
51
132.4438521
0
ARC
8
DEFAULT_255_2_778
10
9.2282074
20
-0.6145236
40
7.4870486
50
129.36468
51
131.1172632
0
ARC
8
DEFAULT_255_2_778
10
7.6068537
20
1.3659401
40
4.9275537
50
126.8752509
51
129.3950111
0
ARC
8
DEFAULT_255_2_778
10
6.5238617
20
2.8124281
40
3.1205688
50
123.4776981
51
126.905877
0
ARC
8
DEFAULT_255_2_778
10
5.8559486
20
3.826676
40
1.9061564
50
118.4589043
51
123.5487847
0
ARC
8
DEFAULT_255_2_778
10
5.4769018
20
4.5315822
40
1.1058084
50
110.5281746
51
118.5970017
0
ARC
8
DEFAULT_255_2_778
10
5.3092766
20
4.9874673
40
0.620098
50
96.7257767
51
110.7945866
0
ARC
8
DEFAULT_255_2_778
10
5.2848219
20
5.1561442
40
0.4497406
50
90.0605349
51
96.14848
0
ARC
8
DEFAULT_255_2_778
10
5.2806493
20
5.1779974
40
0.4279031
50
56.7063825
51
89.5049209
0
ARC
8
DEFAULT_255_2_778
10
5.1026428
20
4.8713967
40
0.7821374
50
52.879782
51
58.1359039
0
ARC
8
DEFAULT_255_2_778
10
4.8068835
20
4.4798913
40
1.2728001
50
49.5142519
51
52.8995651
0
ARC
8
DEFAULT_255_2_778
10
3.9834891
20
3.5138745
40
2.5421173
50
47.736867
51
49.5356175
0
ARC
8
DEFAULT_255_2_778
10
5.6584237
20
5.3521113
40
0.0553469
50
359.984984
51
51.1317561
0
ARC
8
DEFAULT_255_2_778
10
5.6572192
20
5.3521064
40
0.0565514
50
358.6802334
51
359.9902451
0
ARC
8
DEFAULT_255_2_778
10
5.6659333
20
5.3434363
40
0.0483866
50
0.009683
51
8.7582643
0
ARC
8
DEFAULT_255_2_778
10
5.6667405
20
5.3433827
40
0.0475792
50
308.8028758
51
0.0744315
0
ARC
8
DEFAULT_255_2_778
10
3.918356
20
3.621209
40
0.0659053
50
269.9996118
51
312.3522715
0
ARC
8
DEFAULT_255_2_778
10
5.2734382
20
5.1132873
40
0.3700311
50
38.5924177
51
90.0514243
0
ARC
8
DEFAULT_255_2_778
10
5.2731025
20
5.1127304
40
0.3705878
50
89.9994504
51
92.4846576
0
ARC
8
DEFAULT_255_2_778
10
5.2729834
20
5.1144911
40
0.3688235
50
92.478035
51
122.2533489
0
ARC
8
DEFAULT_255_2_778
10
5.6899714
20
4.1231509
40
1.4405687
50
115.2198443
51
122.9603819
0
ARC
8
DEFAULT_255_2_778
10
6.4857596
20
2.8755451
40
2.9203453
50
122.7432441
51
127.1685842
0
ARC
8
DEFAULT_255_2_778
10
7.895907
20
1.0030009
40
5.2644667
50
127.0855577
51
129.9345914
0
ARC
8
DEFAULT_255_2_778
10
10.0561717
20
-1.5894274
40
8.6389877
50
129.8837245
51
131.7167
0
ARC
8
DEFAULT_255_2_778
10
12.7123866
20
-4.5810361
40
12.639632
50
131.6802382
51
132.7468073
0
ARC
8
DEFAULT_255_2_778
10
16.5574066
20
-8.7336739
40
18.2990102
50
132.7624204
51
133.9324268
0
ARC
8
DEFAULT_255_2_778
10
22.9483457
20
-15.373639
40
27.5149325
50
133.9233031
51
134.8030017
0
ARC
8
DEFAULT_255_2_778
10
27.7248531
20
-20.2065173
40
34.3098952
50
134.7754517
51
134.8835419
0
LINE
8
DEFAULT_255_2_778
10
3.8767556
20
3.5725039
11
3.3833556
21
4.0659039
0
LINE
8
DEFAULT_255_2_778
10
5.6965556
20
5.3063039
11
3.9627556
21
3.5725039
0
LINE
8
DEFAULT_255_2_778
10
3.9183556
20
3.5553039
11
3.9177556
21
3.5553039
0
LINE
8
DEFAULT_255_2_778
10
3.5134556
20
4.1035039
11
3.9177556
21
3.6992039
0
LINE
8
DEFAULT_255_2_778
10
3.9177556
20
3.6992039
11
5.5626556
21
5.3441039
0
LINE
8
DEFAULT_255_2_778
10
3.5134556
20
4.1035039
11
3.5134556
21
4.1035039
0
ARC
8
DEFAULT_255_2_778
10
5.3002372
20
4.9255001
40
0.5397259
50
33.7948832
51
45.8737242
0
ARC
8
DEFAULT_255_2_778
10
5.3763918
20
4.9773155
40
0.4476186
50
359.3786427
51
33.7050838
0
ARC
8
DEFAULT_255_2_778
10
5.1308945
20
4.984543
40
0.6931948
50
339.82453
51
359.0013416
0
ARC
8
DEFAULT_255_2_778
10
4.5514827
20
5.1867448
40
1.3068314
50
330.0688484
51
340.2648152
0
ARC
8
DEFAULT_255_2_778
10
3.622845
20
5.7147311
40
2.3750634
50
323.5589002
51
330.2084249
0
ARC
8
DEFAULT_255_2_778
10
2.1507218
20
6.793645
40
4.2002148
50
319.2581394
51
323.647346
0
ARC
8
DEFAULT_255_2_778
10
-0.1826667
20
8.7950761
40
7.2743659
50
316.3969261
51
319.3092676
0
ARC
8
DEFAULT_255_2_778
10
-4.237985
20
12.6503414
40
12.8697804
50
314.4789421
51
316.4194187
0
ARC
8
DEFAULT_255_2_778
10
-13.0184553
20
21.5829207
40
25.3952588
50
313.3525313
51
314.4932693
0
LINE
8
DEFAULT_255_2_778
10
4.4147171
20
3.1200192
11
3.9422171
21
3.5995192
0
LINE
8
DEFAULT_255_2_778
10
3.9422171
20
3.5995192
11
5.6760171
21
5.3129192
0
LINE
8
DEFAULT_255_2_778
10
4.4150171
20
3.1169192
11
4.4147171
21
3.1200192
0
ARC
8
DEFAULT_255_2_778
10
4.4205691
20
3.129973
40
0.0717635
50
229.2062981
51
265.3755422
0
ARC
8
DEFAULT_255_2_778
10
3.9604417
20
3.5757531
40
0.0717585
50
179.9879819
51
202.3696987
0
ARC
8
DEFAULT_255_2_778
10
3.9602567
20
3.5757681
40
0.0715735
50
178.8830614
51
179.9999511
0
ARC
8
DEFAULT_255_2_778
10
3.9616137
20
3.5756995
40
0.0729317
50
157.8109776
51
178.8500201
0
ARC
8
DEFAULT_255_2_778
10
3.9541352
20
3.6254509
40
0.0640268
50
180.5866091
51
200.2948392
0
ARC
8
DEFAULT_255_2_778
10
3.9553244
20
3.6254997
40
0.0652164
50
180.0167321
51
180.6187695
0
ARC
8
DEFAULT_255_2_778
10
3.9535396
20
3.6255415
40
0.0634314
50
159.6084749
51
180.0550002
0
ARC
8
DEFAULT_255_2_778
10
5.6730042
20
5.3400398
40
0.061306
50
90.5336143
51
137.3914029
0
ARC
8
DEFAULT_255_2_778
10
5.6718623
20
5.3400398
40
0.061306
50
42.6085971
51
89.4663857
0
ARC
8
DEFAULT_255_2_778
10
5.356863
20
4.9901405
40
0.531867
50
0.0121198
51
47.3835782
0
ARC
8
DEFAULT_255_2_778
10
5.356269
20
4.9902531
40
0.5324611
50
358.2554458
51
359.999994
0
ARC
8
DEFAULT_255_2_778
10
5.1001741
20
4.9884403
40
0.7884406
50
337.7356148
51
358.9537039
0
ARC
8
DEFAULT_255_2_778
10
4.4211322
20
5.2510361
40
1.5164164
50
327.9242551
51
338.2743418
0
ARC
8
DEFAULT_255_2_778
10
3.3090998
20
5.9373943
40
2.8231914
50
321.8372654
51
328.1058964
0
ARC
8
DEFAULT_255_2_778
10
1.5975709
20
7.2683286
40
4.991289
50
318.2904949
51
321.9645671
0
ARC
8
DEFAULT_255_2_778
10
-1.2062534
20
9.7636272
40
8.7446797
50
315.6688726
51
318.308359
0
ARC
8
DEFAULT_255_2_778
10
-5.9699466
20
14.396682
40
15.3898167
50
314.271697
51
315.7239821
0
ARC
8
DEFAULT_255_2_778
10
-14.3285279
20
22.960853
40
27.3568916
50
313.3851065
51
314.2858122
0
ARC
8
DEFAULT_255_2_778
10
4.4119674
20
3.1303866
40
0.0722379
50
275.1750731
51
314.816252
0
ARC
8
DEFAULT_255_2_778
10
-15.9250547
20
24.7268465
40
29.6045982
50
313.4068945
51
313.7460682
0
ARC
8
DEFAULT_255_2_778
10
-5.7147732
20
14.1227088
40
14.8840753
50
313.5780392
51
316.0667089
0
ARC
8
DEFAULT_255_2_778
10
0.0235095
20
8.5942993
40
6.9159388
50
316.0661796
51
319.9830834
0
ARC
8
DEFAULT_255_2_778
10
2.5840273
20
6.4486699
40
3.5752865
50
319.9316743
51
325.7229609
0
ARC
8
DEFAULT_255_2_778
10
4.0351567
20
5.4650702
40
1.8222306
50
325.5815727
51
334.6145196
0
ARC
8
DEFAULT_255_2_778
10
4.8975655
20
5.0623944
40
0.8704832
50
334.2245325
51
350.3320165
0
ARC
8
DEFAULT_255_2_778
10
5.2263477
20
4.9973799
40
0.5355258
50
351.2816876
51
358.9475031
0
ARC
8
DEFAULT_255_2_778
10
5.370879
20
5.0026033
40
0.3911942
50
357.793678
51
359.9997217
0
ARC
8
DEFAULT_255_2_778
10
5.3719111
20
5.0027012
40
0.3901623
50
359.9853469
51
39.5891663
0
LINE
8
DEFAULT_255_2_778
10
4.3736832
20
3.0756431
11
3.8940832
21
3.5484431
0
LINE
8
DEFAULT_255_2_778
10
3.8940832
20
3.6476431
11
5.6278832
21
5.3815431
0
LINE
8
DEFAULT_255_2_778
10
4.4184832
20
3.0584431
11
4.4147832
21
3.0584431
0
LINE
8
DEFAULT_255_2_778
10
4.0310832
20
3.6066431
11
4.4184832
21
3.2193431
0
LINE
8
DEFAULT_255_2_778
10
5.6725832
20
5.2513431
11
4.0310832
21
3.6066431
0
ARC
8
DEFAULT_255_2_778
10
3.7707335
20
3.7390044
40
0.0203529
50
359.6431787
51
48.6269185
0
ARC
8
DEFAULT_255_2_778
10
3.7705593
20
3.7389289
40
0.0205267
50
311.59412
51
359.8569973
0
ARC
8
DEFAULT_255_2_778
10
3.0513992
20
3.6369772
40
0.0689718
50
279.624074
51
281.0222006
0
ARC
8
DEFAULT_255_2_778
10
3.0513416
20
3.6371872
40
0.0691886
50
270.0053824
51
279.6420275
0
ARC
8
DEFAULT_255_2_778
10
3.0513145
20
3.6368652
40
0.0688666
50
207.9591348
51
270.0279463
0
ARC
8
DEFAULT_255_2_778
10
3.0513478
20
3.6367635
40
0.0688485
50
182.5862949
51
207.8714312
0
ARC
8
DEFAULT_255_2_778
10
3.0515971
20
3.6367708
40
0.0690977
50
180.0046776
51
182.5829805
0
ARC
8
DEFAULT_255_2_778
10
3.0516036
20
3.6367678
40
0.0691042
50
134.8287239
51
180.0021618
0
ARC
8
DEFAULT_255_2_778
10
3.423404
20
4.0602254
40
0.0435633
50
72.4570407
51
88.7085194
0
ARC
8
DEFAULT_255_2_778
10
3.4304618
20
4.0815037
40
0.0211495
50
46.628269
51
73.3126978
0
LINE
8
DEFAULT_255_2_778
10
3.4415859
20
4.0968776
11
3.7841859
21
3.7542776
0
LINE
8
DEFAULT_255_2_778
10
3.7841859
20
3.7235776
11
3.0645859
21
3.5692776
0
LINE
8
DEFAULT_255_2_778
10
3.0028859
20
3.6857776
11
3.4243859
21
4.1037776
0
LINE
8
DEFAULT_255_2_778
10
3.4449859
20
4.0968776
11
3.4415859
21
4.0968776
0
ARC
8
DEFAULT_255_2_778
10
3.0456069
20
3.6334823
40
0.1331978
50
210.743234
51
269.363738
0
ARC
8
DEFAULT_255_2_778
10
3.0449484
20
3.6263881
40
0.1291339
50
182.3143076
51
208.1864732
0
ARC
8
DEFAULT_255_2_778
10
3.0458922
20
3.6264486
40
0.1300793
50
180.0028912
51
182.3241265
0
ARC
8
DEFAULT_255_2_778
10
3.045716
20
3.6264903
40
0.129903
50
134.1534691
51
180.0213121
0
ARC
8
DEFAULT_255_2_778
10
3.4279599
20
4.0805294
40
0.0815633
50
89.943481
51
132.0525344
0
LINE
8
DEFAULT_255_2_778
10
3.4280403
20
4.1620927
11
3.4282234
21
4.1620925
0
ARC
8
DEFAULT_255_2_778
10
3.428089
20
4.0802509
40
0.0818417
50
48.0225619
51
89.9059116
0
ARC
8
DEFAULT_255_2_778
10
3.7735084
20
3.7437331
40
0.0754601
50
359.9404142
51
46.5250737
0
ARC
8
DEFAULT_255_2_778
10
3.7732112
20
3.7436523
40
0.0757573
50
355.3551713
51
0.0017436
0
ARC
8
DEFAULT_255_2_778
10
3.7730597
20
3.7436674
40
0.0759095
50
344.2736468
51
355.3530493
0
ARC
8
DEFAULT_255_2_778
10
3.7697476
20
3.7459063
40
0.0797145
50
283.1832653
51
343.3698756
0
LINE
8
DEFAULT_255_2_778
10
2.9552278
20
3.7196927
11
3.3733278
21
4.1410927
0
LINE
8
DEFAULT_255_2_778
10
3.4828278
20
4.1410927
11
3.8254278
21
3.7984927
0
LINE
8
DEFAULT_255_2_778
10
3.7879278
20
3.6682927
11
3.0682278
21
3.5140927
0
LINE
8
DEFAULT_255_2_778
10
3.0682278
20
3.5140927
11
3.0441278
21
3.5002927
0
LINE
8
DEFAULT_255_2_778
10
3.4278278
20
4.0214927
11
3.0404278
21
3.6341927
0
LINE
8
DEFAULT_255_2_778
10
3.0404278
20
3.6341927
11
3.6812278
21
3.7712927
0
LINE
8
DEFAULT_255_2_778
10
3.6812278
20
3.7712927
11
3.4278278
21
4.0214927
0
LINE
8
DEFAULT_255_2_778
10
3.4622278
20
4.0558927
11
3.4622278
21
4.0558927
0
ARC
8
DEFAULT_255_2_778
10
6.1137396
20
5.8364454
40
0.662843
50
46.0437922
51
83.3590353
0
ARC
8
DEFAULT_255_2_778
10
6.1123762
20
5.8293602
40
0.6700386
50
83.3132958
51
90.0010374
0
ARC
8
DEFAULT_255_2_778
10
6.1123644
20
5.8275627
40
0.6718359
50
90.0000287
51
90.7606298
0
ARC
8
DEFAULT_255_2_778
10
6.1122023
20
5.8299923
40
0.6694042
50
90.7495218
51
127.5935316
0
ARC
8
DEFAULT_255_2_778
10
6.1205952
20
5.8180902
40
0.6839554
50
127.542369
51
130.7402931
0
ARC
8
DEFAULT_255_2_778
10
6.1016921
20
5.8375847
40
0.6568501
50
130.6007503
51
168.0048151
0
ARC
8
DEFAULT_255_2_778
10
6.10882
20
5.8358144
40
0.6641902
50
167.983231
51
180.0043934
0
ARC
8
DEFAULT_255_2_778
10
6.1106662
20
5.8357738
40
0.6660365
50
180.0008876
51
181.799872
0
ARC
8
DEFAULT_255_2_778
10
6.110858
20
5.8359075
40
0.6662324
50
181.8108493
51
213.7384647
0
ARC
8
DEFAULT_255_2_778
10
6.1235905
20
5.8434919
40
0.6810335
50
213.6741306
51
215.8424958
0
ARC
8
DEFAULT_255_2_778
10
6.1085553
20
5.8327156
40
0.6625354
50
215.8484154
51
260.9234772
0
ARC
8
DEFAULT_255_2_778
10
6.1098829
20
5.8362282
40
0.6662141
50
260.8583838
51
269.9967469
0
ARC
8
DEFAULT_255_2_778
10
6.1098527
20
5.833977
40
0.663963
50
269.9993406
51
273.0332257
0
ARC
8
DEFAULT_255_2_778
10
6.110017
20
5.8314152
40
0.661396
50
273.0307629
51
299.695574
0
ARC
8
DEFAULT_255_2_778
10
6.1043621
20
5.8425555
40
0.6738748
50
299.6439943
51
300.9792826
0
LINE
8
DEFAULT_255_2_778
10
6.4512245
20
5.2648065
11
5.9856245
21
5.7304065
0
LINE
8
DEFAULT_255_2_778
10
5.9856245
20
5.7304065
11
6.5738245
21
6.3136065
0
ARC
8
DEFAULT_255_2_778
10
6.1203642
20
5.8337106
40
0.7261691
50
202.279372
51
269.25373
0
ARC
8
DEFAULT_255_2_778
10
6.1213421
20
5.8336398
40
0.7270474
50
183.3590647
51
202.2449947
0
ARC
8
DEFAULT_255_2_778
10
6.1214588
20
5.8335833
40
0.7271606
50
180.0000086
51
183.3540791
0
ARC
8
DEFAULT_255_2_778
10
6.1218852
20
5.8337416
40
0.7275869
50
135.3796173
51
180.0124736
0
ARC
8
DEFAULT_255_2_778
10
6.1164078
20
5.8253714
40
0.7296332
50
103.7427053
51
134.609636
0
ARC
8
DEFAULT_255_2_778
10
6.1178827
20
5.8191992
40
0.7359791
50
89.994277
51
103.7400922
0
ARC
8
DEFAULT_255_2_778
10
6.1188204
20
5.8244067
40
0.7307719
50
50.8628565
51
90.067756
0
ARC
8
DEFAULT_255_2_778
10
6.1119039
20
5.8162301
40
0.7414796
50
45.4683026
51
50.8471051
0
ARC
8
DEFAULT_255_2_778
10
6.5944641
20
6.300191
40
0.0582422
50
0.0118926
51
49.9938324
0
ARC
8
DEFAULT_255_2_778
10
6.5944643
20
6.3002151
40
0.0582419
50
310.0060163
51
359.9881612
0
ARC
8
DEFAULT_255_2_778
10
6.4576301
20
5.2779164
40
0.0586026
50
359.9910098
51
46.0443591
0
ARC
8
DEFAULT_255_2_778
10
6.4575946
20
5.2779069
40
0.0586381
50
353.6761718
51
0.0002889
0
ARC
8
DEFAULT_255_2_778
10
6.4573709
20
5.2779281
40
0.0588628
50
350.9833943
51
353.6796458
0
ARC
8
DEFAULT_255_2_778
10
6.4552308
20
5.2753196
40
0.0606375
50
302.7186672
51
353.7356764
0
ARC
8
DEFAULT_255_2_778
10
6.0937512
20
5.8542754
40
0.7431704
50
271.3227099
51
302.0395321
0
ARC
8
DEFAULT_255_2_778
10
6.1144333
20
5.8339749
40
0.6031385
50
90.3350581
51
157.5496411
0
ARC
8
DEFAULT_255_2_778
10
6.1136159
20
5.8338987
40
0.6024122
50
157.5132586
51
176.7088023
0
ARC
8
DEFAULT_255_2_778
10
6.114005
20
5.8339222
40
0.6027993
50
176.713151
51
179.9999644
0
ARC
8
DEFAULT_255_2_778
10
6.1141984
20
5.8337638
40
0.6029928
50
179.9849139
51
224.756009
0
ARC
8
DEFAULT_255_2_778
10
6.1115334
20
5.8329475
40
0.600527
50
224.8797295
51
270.0165812
0
ARC
8
DEFAULT_255_2_778
10
6.1117071
20
5.832573
40
0.6001525
50
270.0000075
51
273.130175
0
ARC
8
DEFAULT_255_2_778
10
6.1117228
20
5.8318931
40
0.599473
50
273.1322274
51
293.5150287
0
ARC
8
DEFAULT_255_2_778
10
5.9810946
20
5.7294599
40
0.0550884
50
180.0590471
51
231.2403308
0
ARC
8
DEFAULT_255_2_778
10
5.9820238
20
5.728799
40
0.0560208
50
129.2142565
51
179.3820888
0
ARC
8
DEFAULT_255_2_778
10
6.1072648
20
5.8224615
40
0.6144524
50
52.5250879
51
89.6604444
0
LINE
8
DEFAULT_255_2_778
10
6.6319063
20
6.2556031
11
6.0768063
21
5.7312031
0
LINE
8
DEFAULT_255_2_778
10
6.0768063
20
5.7312031
11
6.4983063
21
5.3201031
0
LINE
8
DEFAULT_255_2_778
10
6.1109063
20
5.1113031
11
6.1109063
21
5.1076031
0
LINE
8
DEFAULT_255_2_778
10
6.3509063
20
5.2822031
11
5.9466063
21
5.6865031
0
LINE
8
DEFAULT_255_2_778
10
5.9466063
20
5.7722031
11
6.4811063
21
6.3101031
0
LINE
8
DEFAULT_255_2_778
10
6.1109063
20
6.4369031
11
6.1109063
21
6.4371031
0
ARC
8
DEFAULT_255_2_778
10
6.1051963
20
5.8819108
40
0.7236041
50
300.0088014
51
312.8379756
0
ARC
8
DEFAULT_255_2_778
10
6.1021752
20
5.8211576
40
0.6824984
50
316.4942189
51
348.6388368
0
ARC
8
DEFAULT_255_2_778
10
6.0967336
20
5.8223276
40
0.6880639
50
348.6325832
51
359.841105
0
ARC
8
DEFAULT_255_2_778
10
6.1032404
20
5.8223034
40
0.6815571
50
359.8416273
51
0.0058655
0
ARC
8
DEFAULT_255_2_778
10
6.1015634
20
5.82317
40
0.6832347
50
359.9331767
51
40.3541645
0
ARC
8
DEFAULT_255_2_778
10
6.0934825
20
5.8162385
40
0.6938811
50
40.3582701
51
44.6763027
0
LINE
8
DEFAULT_255_2_778
10
6.5839946
20
6.3036068
11
6.0013946
21
5.7210068
0
LINE
8
DEFAULT_255_2_778
10
6.0013946
20
5.7210068
11
6.4670946
21
5.2553068
0
LINE
8
DEFAULT_255_2_778
10
6.5868946
20
6.3041068
11
6.5839946
21
6.3036068
0
ARC
8
DEFAULT_255_2_778
10
6.450646
20
5.2544603
40
0.0511654
50
270.0052875
51
273.2992365
0
ARC
8
DEFAULT_255_2_778
10
6.4506039
20
5.2537372
40
0.0504423
50
221.0969038
51
270.0531854
0
ARC
8
DEFAULT_255_2_778
10
5.9810343
20
5.7290708
40
0.0547437
50
179.9907342
51
231.4131572
0
ARC
8
DEFAULT_255_2_778
10
5.9825107
20
5.7284793
40
0.0562233
50
129.3121973
51
179.3881825
0
ARC
8
DEFAULT_255_2_778
10
6.58079
20
6.3101821
40
0.0615977
50
89.9064281
51
146.38888
0
ARC
8
DEFAULT_255_2_778
10
6.5803702
20
6.30921
40
0.0625719
50
34.0883686
51
89.5234237
0
ARC
8
DEFAULT_255_2_778
10
6.1283293
20
5.8302952
40
0.7197614
50
359.9987694
51
45.5698254
0
ARC
8
DEFAULT_255_2_778
10
6.128558
20
5.8302682
40
0.7195326
50
314.4225183
51
0.000912
0
ARC
8
DEFAULT_255_2_778
10
6.1721058
20
5.7510604
40
0.6329498
50
300.6933561
51
316.6263042
0
ARC
8
DEFAULT_255_2_778
10
6.4698848
20
5.2574656
40
0.056652
50
270.3835849
51
296.5314392
0
LINE
8
DEFAULT_255_2_778
10
6.4702641
20
5.200815
11
6.4701401
21
5.2008148
0
ARC
8
DEFAULT_255_2_778
10
6.4700126
20
5.2515111
40
0.0506965
50
251.6957563
51
270.1441357
0
ARC
8
DEFAULT_255_2_778
10
6.0956707
20
5.8715362
40
0.643434
50
304.9088853
51
313.5871247
0
ARC
8
DEFAULT_255_2_778
10
6.1113215
20
5.8346218
40
0.6060697
50
314.9215877
51
359.9298427
0
ARC
8
DEFAULT_255_2_778
10
6.506396
20
5.8341879
40
0.2109948
50
359.9163154
51
0.0278943
0
ARC
8
DEFAULT_255_2_778
10
6.1277363
20
5.8343752
40
0.5896545
50
359.9917824
51
41.407643
0
LINE
8
DEFAULT_255_2_778
10
6.4125906
20
5.2205797
11
5.9468906
21
5.6862797
0
LINE
8
DEFAULT_255_2_778
10
5.9468906
20
5.7719797
11
6.5294906
21
6.3442797
0
LINE
8
DEFAULT_255_2_778
10
6.4540906
20
5.2033797
11
6.4535906
21
5.2033797
0
LINE
8
DEFAULT_255_2_778
10
6.0765906
20
5.7311797
11
6.4638906
21
5.3438797
0
LINE
8
DEFAULT_255_2_778
10
6.5699906
20
6.2243797
11
6.0765906
21
5.7311797
0
ARC
8
DEFAULT_255_2_778
10
5.5528719
20
5.0968795
40
0.2495415
50
46.719051
51
90.044831
0
LINE
8
DEFAULT_255_2_778
10
5.5526767
20
5.3464209
11
5.5523296
21
5.3464207
0
ARC
8
DEFAULT_255_2_778
10
5.552544
20
5.0963426
40
0.2500782
50
90.0491138
51
133.2320579
0
ARC
8
DEFAULT_255_2_778
10
5.5543725
20
5.0922903
40
0.2544884
50
313.8114605
51
0.0159594
0
ARC
8
DEFAULT_255_2_778
10
5.5493436
20
5.092337
40
0.2595174
50
0.0053422
51
0.487687
0
ARC
8
DEFAULT_255_2_778
10
5.5546891
20
5.0920411
40
0.254175
50
0.5646399
51
47.3026355
0
LINE
8
DEFAULT_255_2_778
10
5.3812517
20
5.2785459
11
3.8289517
21
3.7297459
0
LINE
8
DEFAULT_255_2_778
10
3.8289517
20
3.7297459
11
4.0855517
21
3.4693459
0
LINE
8
DEFAULT_255_2_778
10
4.0855517
20
3.4693459
11
5.7305517
21
4.9086459
0
LINE
8
DEFAULT_255_2_778
10
5.7270517
20
5.2788459
11
5.7239517
21
5.2785459
0
ARC
8
DEFAULT_255_2_778
10
4.076077
20
3.4692354
40
0.061328
50
225.988294
51
268.4948472
0
ARC
8
DEFAULT_255_2_778
10
3.8236296
20
3.7308763
40
0.0679121
50
186.0490613
51
222.0064329
0
ARC
8
DEFAULT_255_2_778
10
3.8156836
20
3.729234
40
0.0598426
50
180.0052402
51
185.2871134
0
ARC
8
DEFAULT_255_2_778
10
3.8160898
20
3.7289492
40
0.0602493
50
135.4332989
51
179.7343618
0
ARC
8
DEFAULT_255_2_778
10
5.5486013
20
5.0912963
40
0.3147113
50
89.9777918
51
135.1548496
0
ARC
8
DEFAULT_255_2_778
10
5.5487208
20
5.091193
40
0.3148144
50
86.852827
51
89.9995553
0
ARC
8
DEFAULT_255_2_778
10
5.5487335
20
5.0916562
40
0.3143513
50
66.542661
51
86.8504979
0
ARC
8
DEFAULT_255_2_778
10
5.5487367
20
5.0911429
40
0.314821
50
0.0004924
51
66.5803853
0
ARC
8
DEFAULT_255_2_778
10
5.5465235
20
5.091149
40
0.3170343
50
358.0079435
51
359.9993958
0
ARC
8
DEFAULT_255_2_778
10
5.5399774
20
5.0935339
40
0.3236665
50
312.2179934
51
357.6262931
0
ARC
8
DEFAULT_255_2_778
10
4.0787414
20
3.4623933
40
0.0586101
50
270.0246177
51
305.2478213
0
ARC
8
DEFAULT_255_2_778
10
4.0787679
20
3.462215
40
0.0584319
50
264.4532043
51
269.9987224
0
ARC
8
DEFAULT_255_2_778
10
4.0787024
20
3.4616582
40
0.0578714
50
262.9166462
51
264.4644455
0
ARC
8
DEFAULT_255_2_778
10
5.5520272
20
5.1031104
40
0.1881131
50
310.8088069
51
358.3910493
0
ARC
8
DEFAULT_255_2_778
10
5.5606972
20
5.1049471
40
0.1795101
50
357.7273259
51
0.0012937
0
ARC
8
DEFAULT_255_2_778
10
5.5591091
20
5.1048847
40
0.1810983
50
0.0210119
51
47.3243183
0
ARC
8
DEFAULT_255_2_778
10
5.5467171
20
5.1027754
40
0.1912032
50
45.0220812
51
90.0602355
0
ARC
8
DEFAULT_255_2_778
10
5.5463145
20
5.1027769
40
0.1912017
50
89.9395814
51
134.978121
0
LINE
8
DEFAULT_255_2_778
10
4.0334661
20
3.4251286
11
3.7731661
21
3.6854286
0
LINE
8
DEFAULT_255_2_778
10
3.7731661
20
3.7712286
11
5.3254661
21
5.3132286
0
LINE
8
DEFAULT_255_2_778
10
5.7574661
20
4.8538286
11
4.1125661
21
3.4145286
0
LINE
8
DEFAULT_255_2_778
10
4.0715661
20
3.4042286
11
4.0744661
21
3.4079286
0
LINE
8
DEFAULT_255_2_778
10
3.8929661
20
3.7299286
11
4.0644661
21
3.5584286
0
LINE
8
DEFAULT_255_2_778
10
4.0644661
20
3.5584286
11
5.6749661
21
4.9607286
0
LINE
8
DEFAULT_255_2_778
10
5.4111661
20
5.2380286
11
3.8929661
21
3.7299286
0
ARC
8
DEFAULT_255_2_778
10
2.6538382
20
1.9446667
40
0.0344824
50
143.5380085
51
180.0124111
0
ARC
8
DEFAULT_255_2_778
10
2.6538384
20
1.9446519
40
0.0344827
50
179.9878289
51
216.4620061
0
ARC
8
DEFAULT_255_2_778
10
2.6047084
20
1.61121
40
0.0913952
50
8.9102209
51
9.28691
0
ARC
8
DEFAULT_255_2_778
10
2.6102909
20
1.6120862
40
0.0857445
50
0.0025586
51
8.9095703
0
ARC
8
DEFAULT_255_2_778
10
2.6100138
20
1.6120963
40
0.0860216
50
299.678395
51
359.9958289
0
ARC
8
DEFAULT_255_2_778
10
2.6107373
20
1.6114553
40
0.085107
50
271.2265082
51
299.4688818
0
ARC
8
DEFAULT_255_2_778
10
2.610665
20
1.6117609
40
0.0854141
50
269.9940524
51
271.2706026
0
ARC
8
DEFAULT_255_2_778
10
2.6105479
20
1.6116683
40
0.0853217
50
229.1189825
51
270.0726862
0
ARC
8
DEFAULT_255_2_778
10
-0.7211623
20
8.9821217
40
7.7768246
50
295.4980308
51
311.1701971
0
LINE
8
DEFAULT_255_2_778
10
2.6261057
20
1.9241592
11
2.6949057
21
1.6259592
0
LINE
8
DEFAULT_255_2_778
10
2.5547057
20
1.5471592
11
2.0853057
21
1.9969592
0
LINE
8
DEFAULT_255_2_778
10
2.0853057
20
1.9969592
11
3.5484057
21
3.4706592
0
LINE
8
DEFAULT_255_2_778
10
3.5484057
20
3.4706592
11
4.0557057
21
3.4706592
0
LINE
8
DEFAULT_255_2_778
10
4.0557057
20
3.4706592
11
4.3983057
21
3.1280592
0
LINE
8
DEFAULT_255_2_778
10
2.6266057
20
1.9627592
11
2.6261057
21
1.9651592
0
ARC
8
DEFAULT_255_2_778
10
2.5978462
20
1.6221566
40
0.16053
50
226.2950919
51
268.1732513
0
ARC
8
DEFAULT_255_2_778
10
2.0756699
20
1.9945941
40
0.0549409
50
179.9853257
51
231.3139675
0
ARC
8
DEFAULT_255_2_778
10
2.076747
20
1.9940035
40
0.0560214
50
129.2143541
51
179.3815421
0
ARC
8
DEFAULT_255_2_778
10
3.5568639
20
3.472487
40
0.056863
50
100.9845732
51
137.2190526
0
ARC
8
DEFAULT_255_2_778
10
4.0806881
20
3.4714062
40
0.0605022
50
90.8090168
51
109.8652664
0
ARC
8
DEFAULT_255_2_778
10
4.0806526
20
3.4741527
40
0.0577555
50
89.9862526
51
90.8121928
0
ARC
8
DEFAULT_255_2_778
10
4.0806832
20
3.4720495
40
0.0598587
50
70.0277152
51
90.0161028
0
ARC
8
DEFAULT_255_2_778
10
4.4063928
20
3.1453637
40
0.0550376
50
0.0707087
51
47.1413422
0
ARC
8
DEFAULT_255_2_778
10
4.4075735
20
3.1454325
40
0.0538567
50
357.4245353
51
359.9990676
0
ARC
8
DEFAULT_255_2_778
10
4.4079789
20
3.1454089
40
0.0534509
50
352.1496006
51
357.4303439
0
ARC
8
DEFAULT_255_2_778
10
4.407379
20
3.1362337
40
0.0535827
50
0.0015118
51
2.0047912
0
ARC
8
DEFAULT_255_2_778
10
4.406558
20
3.136261
40
0.0544035
50
308.370801
51
359.9726895
0
ARC
8
DEFAULT_255_2_778
10
-0.9658288
20
9.5196851
40
8.4002629
50
295.5328862
51
309.8139215
0
ARC
8
DEFAULT_255_2_778
10
2.5830315
20
1.6313485
40
0.1448322
50
4.0222851
51
13.723589
0
ARC
8
DEFAULT_255_2_778
10
2.5822198
20
1.6312878
40
0.1456463
50
0.0003062
51
4.0237111
0
ARC
8
DEFAULT_255_2_778
10
2.5797794
20
1.6315044
40
0.1480869
50
322.4772912
51
359.9164971
0
ARC
8
DEFAULT_255_2_778
10
2.5811874
20
1.6306227
40
0.1464333
50
270.9162038
51
322.4153442
0
ARC
8
DEFAULT_255_2_778
10
2.5927518
20
1.6040154
40
0.0207823
50
228.6759561
51
269.97136
0
ARC
8
DEFAULT_255_2_778
10
2.5927917
20
1.5958252
40
0.0125921
50
269.7710617
51
270.6850268
0
ARC
8
DEFAULT_255_2_778
10
2.5926966
20
1.6043052
40
0.0210725
50
270.6680453
51
311.0271824
0
ARC
8
DEFAULT_255_2_778
10
2.5898987
20
1.6005761
40
0.0206064
50
323.8079705
51
0.6105205
0
ARC
8
DEFAULT_255_2_778
10
2.5827802
20
1.6004425
40
0.0277259
50
0.7297892
51
24.5300878
0
ARC
8
DEFAULT_255_2_778
10
2.5756591
20
1.5976572
40
0.0353631
50
23.8454564
51
29.1977716
0
ARC
8
DEFAULT_255_2_778
10
2.6305254
20
1.9364742
40
0.0956931
50
189.1954704
51
194.1331565
0
ARC
8
DEFAULT_255_2_778
10
2.6298119
20
1.9363619
40
0.0949708
50
180.0013936
51
189.1974179
0
ARC
8
DEFAULT_255_2_778
10
2.6307524
20
1.9362474
40
0.0959115
50
115.7865853
51
179.9329881
0
ARC
8
DEFAULT_255_2_778
10
-1.0832995
20
9.6082257
40
8.4277867
50
295.8324254
51
309.7214706
0
LINE
8
DEFAULT_255_2_778
10
2.4869289
20
1.5061082
11
2.0413289
21
1.9517082
0
LINE
8
DEFAULT_255_2_778
10
2.0413289
20
2.0374082
11
3.5151289
21
3.5111082
0
LINE
8
DEFAULT_255_2_778
10
3.5460289
20
3.5283082
11
4.0601289
21
3.5283082
0
LINE
8
DEFAULT_255_2_778
10
4.1011289
20
3.5283082
11
4.4438289
21
3.1857082
0
LINE
8
DEFAULT_255_2_778
10
4.4403289
20
3.0936082
11
4.4128289
21
3.0672082
0
LINE
8
DEFAULT_255_2_778
10
2.6549289
20
1.9398082
11
2.7237289
21
1.6657082
0
LINE
8
DEFAULT_255_2_778
10
2.5835289
20
1.4842082
11
2.5927289
21
1.4617082
0
LINE
8
DEFAULT_255_2_778
10
2.1747289
20
1.9996082
11
2.5790289
21
1.5884082
0
LINE
8
DEFAULT_255_2_778
10
2.6065289
20
1.6149082
11
2.5377289
21
1.9131082
0
LINE
8
DEFAULT_255_2_778
10
4.3025289
20
3.1259082
11
4.0215289
21
3.4045082
0
LINE
8
DEFAULT_255_2_778
10
4.0215289
20
3.4045082
11
3.5622289
21
3.4045082
0
LINE
8
DEFAULT_255_2_778
10
3.5622289
20
3.4045082
11
2.1747289
21
1.9996082
0
LINE
8
DEFAULT_255_2_778
10
2.6681289
20
1.9379082
11
2.6681289
21
1.9379082
0
ARC
8
DEFAULT_255_2_778
10
1.768247
20
1.5883754
40
0.0686857
50
193.6886162
51
265.2943061
0
ARC
8
DEFAULT_255_2_778
10
1.7685882
20
1.5884882
40
0.0690439
50
187.5966054
51
193.7126246
0
ARC
8
DEFAULT_255_2_778
10
1.7681813
20
1.5884327
40
0.0686332
50
179.9998952
51
187.5955219
0
ARC
8
DEFAULT_255_2_778
10
1.7684027
20
1.5884196
40
0.0688545
50
122.2978635
51
179.989047
0
LINE
8
DEFAULT_255_2_778
10
1.7316122
20
1.6469212
11
2.0742122
21
1.9895212
0
LINE
8
DEFAULT_255_2_778
10
2.0742122
20
1.9895212
11
2.6021122
21
1.4617212
0
LINE
8
DEFAULT_255_2_778
10
2.6021122
20
1.4617212
11
1.7626122
21
1.5199212
0
LINE
8
DEFAULT_255_2_778
10
1.7316122
20
1.6466212
11
1.7316122
21
1.6469212
0
ARC
8
DEFAULT_255_2_778
10
1.7870245
20
1.5973584
40
0.1294466
50
200.5323574
51
265.2481056
0
ARC
8
DEFAULT_255_2_778
10
1.7870456
20
1.5974942
40
0.1295142
50
183.6170876
51
200.5853816
0
ARC
8
DEFAULT_255_2_778
10
1.7869871
20
1.5974798
40
0.1294548
50
179.9998666
51
183.6123259
0
ARC
8
DEFAULT_255_2_778
10
1.7872403
20
1.597487
40
0.129708
50
135.9588445
51
180.003049
0
ARC
8
DEFAULT_255_2_778
10
2.0820723
20
1.9797545
40
0.0679567
50
96.2425032
51
131.9993652
0
ARC
8
DEFAULT_255_2_778
10
2.0803991
20
1.9876888
40
0.0598929
50
90.0101857
51
95.476648
0
ARC
8
DEFAULT_255_2_778
10
2.0801312
20
1.9875998
40
0.0599824
50
45.3290337
51
89.7542857
0
ARC
8
DEFAULT_255_2_778
10
2.5998834
20
1.4716331
40
0.0579926
50
359.9739173
51
36.1667852
0
ARC
8
DEFAULT_255_2_778
10
2.5998834
20
1.4715803
40
0.0579925
50
323.8332148
51
0.0260827
0
ARC
8
DEFAULT_255_2_778
10
2.5903452
20
1.4725866
40
0.0664613
50
289.290258
51
327.9890957
0
LINE
8
DEFAULT_255_2_778
10
2.612301
20
1.4101567
11
1.776301
21
1.4683567
0
LINE
8
DEFAULT_255_2_778
10
1.694001
20
1.6876567
11
2.036601
21
2.0302567
0
LINE
8
DEFAULT_255_2_778
10
2.122301
20
2.0302567
11
2.646701
21
1.5058567
0
LINE
8
DEFAULT_255_2_778
10
2.612301
20
1.4098567
11
2.612301
21
1.4101567
0
LINE
8
DEFAULT_255_2_778
10
1.776301
20
1.6019567
11
2.464201
21
1.5574567
0
LINE
8
DEFAULT_255_2_778
10
2.464201
20
1.5574567
11
2.087201
21
1.9104567
0
LINE
8
DEFAULT_255_2_778
10
2.087201
20
1.9104567
11
1.776301
21
1.6019567
0
LINE
8
DEFAULT_255_2_778
10
4.1030254
20
3.431704
11
3.4109254
21
3.325904
0
LINE
8
DEFAULT_255_2_778
10
3.4109254
20
3.325904
11
3.8117254
21
3.723304
0
LINE
8
DEFAULT_255_2_778
10
3.8117254
20
3.723304
11
4.1030254
21
3.431704
0
ARC
8
DEFAULT_255_2_778
10
3.4091765
20
3.3185847
40
0.0577932
50
269.9953088
51
271.7121394
0
ARC
8
DEFAULT_255_2_778
10
3.4092326
20
3.3188473
40
0.0580559
50
204.0178873
51
269.9399645
0
ARC
8
DEFAULT_255_2_778
10
3.4030208
20
3.3294409
40
0.0579926
50
179.9739173
51
216.1667852
0
ARC
8
DEFAULT_255_2_778
10
3.4030208
20
3.3294937
40
0.0579925
50
143.8332148
51
180.0260827
0
ARC
8
DEFAULT_255_2_778
10
3.7987242
20
3.723114
40
0.061306
50
90.5336143
51
137.3914029
0
ARC
8
DEFAULT_255_2_778
10
3.7975823
20
3.723114
40
0.061306
50
42.6085971
51
89.4663857
0
ARC
8
DEFAULT_255_2_778
10
4.0843114
20
3.4427669
40
0.0582669
50
359.9512518
51
31.8536326
0
ARC
8
DEFAULT_255_2_778
10
4.0843113
20
3.4426678
40
0.0582671
50
328.1463954
51
0.048667
0
ARC
8
DEFAULT_255_2_778
10
4.0770158
20
3.4250138
40
0.0582781
50
278.7719161
51
347.013357
0
LINE
8
DEFAULT_255_2_778
10
3.3562033
20
3.3637173
11
3.7536033
21
3.7646173
0
LINE
8
DEFAULT_255_2_778
10
3.8427033
20
3.7646173
11
4.1338033
21
3.4735173
0
LINE
8
DEFAULT_255_2_778
10
4.0859033
20
3.3674173
11
3.3980033
21
3.2616173
0
LINE
8
DEFAULT_255_2_778
10
3.3980033
20
3.2616173
11
3.4109033
21
3.2608173
0
LINE
8
DEFAULT_255_2_778
10
3.8118033
20
3.6378173
11
3.5890033
21
3.4150173
0
LINE
8
DEFAULT_255_2_778
10
3.5890033
20
3.4150173
11
3.9726033
21
3.4733173
0
LINE
8
DEFAULT_255_2_778
10
3.9726033
20
3.4733173
11
3.8118033
21
3.6378173
0
ARC
8
DEFAULT_255_2_778
10
3.6096056
20
3.4293191
40
0.0607568
50
277.4691518
51
283.0114538
0
ARC
8
DEFAULT_255_2_778
10
3.6096164
20
3.4292632
40
0.0607001
50
269.9977889
51
277.4658655
0
ARC
8
DEFAULT_255_2_778
10
3.6097849
20
3.4307616
40
0.0621987
50
209.9362945
51
269.8426407
0
ARC
8
DEFAULT_255_2_778
10
3.6090425
20
3.430119
40
0.0612349
50
181.6022185
51
209.7619458
0
ARC
8
DEFAULT_255_2_778
10
3.6095714
20
3.430185
40
0.0617654
50
180.0001622
51
181.6497038
0
ARC
8
DEFAULT_255_2_778
10
3.609369
20
3.4302644
40
0.061563
50
136.2679341
51
180.0740116
0
LINE
8
DEFAULT_255_2_778
10
4.1029847
20
3.4318222
11
3.6232847
21
3.3701222
0
LINE
8
DEFAULT_255_2_778
10
3.5648847
20
3.4728222
11
3.8148847
21
3.7228222
0
LINE
8
DEFAULT_255_2_778
10
3.8148847
20
3.7228222
11
4.1029847
21
3.4318222
0
ARC
8
DEFAULT_255_2_778
10
3.6076809
20
3.432157
40
0.1271728
50
209.2110745
51
269.3241857
0
ARC
8
DEFAULT_255_2_778
10
3.6020995
20
3.4297091
40
0.1211081
50
181.6884529
51
209.4888615
0
ARC
8
DEFAULT_255_2_778
10
3.599344
20
3.4294111
40
0.1183452
50
179.9932301
51
181.5835818
0
ARC
8
DEFAULT_255_2_778
10
3.6094755
20
3.4280033
40
0.1284846
50
135.8529278
51
179.3659493
0
ARC
8
DEFAULT_255_2_778
10
3.812543
20
3.7259069
40
0.061466
50
90.7450654
51
137.4236229
0
LINE
8
DEFAULT_255_2_778
10
3.8117437
20
3.7873678
11
3.8119184
21
3.7873681
0
ARC
8
DEFAULT_255_2_778
10
3.8113345
20
3.726164
40
0.0612069
50
42.4724613
51
89.4534569
0
ARC
8
DEFAULT_255_2_778
10
4.1056639
20
3.4303372
40
0.062349
50
1.6115442
51
47.7554897
0
ARC
8
DEFAULT_255_2_778
10
4.117308
20
3.4320803
40
0.0506801
50
354.5918357
51
0.0116643
0
ARC
8
DEFAULT_255_2_778
10
4.1181649
20
3.4320121
40
0.0498206
50
335.1725651
51
354.5770959
0
ARC
8
DEFAULT_255_2_778
10
4.1057417
20
3.4313365
40
0.0610907
50
273.9790486
51
340.6482417
0
ARC
8
DEFAULT_255_2_778
10
6.543647
20
5.8838429
40
0.0508377
50
30.4320615
51
90.1557129
0
ARC
8
DEFAULT_255_2_778
10
6.5435105
20
5.8832339
40
0.0514467
50
90.0018244
51
95.3937918
0
ARC
8
DEFAULT_255_2_778
10
6.5435608
20
5.8829654
40
0.0517186
50
95.4213218
51
114.0534579
0
ARC
8
DEFAULT_255_2_778
10
6.5521144
20
5.8758872
40
0.061865
50
118.6203187
51
155.1423501
0
ARC
8
DEFAULT_255_2_778
10
6.5220612
20
5.8883408
40
0.0293913
50
152.5418985
51
175.5424319
0
ARC
8
DEFAULT_255_2_778
10
6.5243574
20
5.8881295
40
0.0316969
50
175.4842222
51
180.0149353
0
ARC
8
DEFAULT_255_2_778
10
6.544293
20
5.8904731
40
0.0516861
50
182.6079969
51
209.6639141
0
ARC
8
DEFAULT_255_2_778
10
6.3658223
20
5.8017411
40
0.1477365
50
1.9238688
51
25.3067093
0
ARC
8
DEFAULT_255_2_778
10
6.3655227
20
5.8017384
40
0.1480361
50
0.0004282
51
1.9210173
0
ARC
8
DEFAULT_255_2_778
10
6.365453
20
5.801752
40
0.1481058
50
322.011849
51
359.9951544
0
ARC
8
DEFAULT_255_2_778
10
6.5124117
20
5.6783052
40
0.0442313
50
133.1154715
51
180.2747475
0
ARC
8
DEFAULT_255_2_778
10
6.5156403
20
5.6781603
40
0.0474594
50
180.0811597
51
187.4183706
0
ARC
8
DEFAULT_255_2_778
10
6.5076902
20
5.6753237
40
0.0392504
50
184.8096918
51
229.4648601
0
ARC
8
DEFAULT_255_2_778
10
6.4958765
20
5.6809968
40
0.0380537
50
248.9056804
51
270.0441424
0
ARC
8
DEFAULT_255_2_778
10
6.4959104
20
5.6814361
40
0.038493
50
269.9933128
51
272.3144015
0
ARC
8
DEFAULT_255_2_778
10
6.4958423
20
5.6822807
40
0.0393396
50
272.3637052
51
290.7512621
0
ARC
8
DEFAULT_255_2_778
10
6.520645
20
5.6864816
40
0.0424039
50
255.1549787
51
268.9646778
0
ARC
8
DEFAULT_255_2_778
10
6.5207066
20
5.6880125
40
0.0439357
50
268.92033
51
269.9859327
0
ARC
8
DEFAULT_255_2_778
10
6.5205895
20
5.6887629
40
0.0446861
50
270.1363843
51
318.73947
0
ARC
8
DEFAULT_255_2_778
10
6.3718442
20
5.8087054
40
0.2357344
50
320.6677549
51
0.0341696
0
ARC
8
DEFAULT_255_2_778
10
6.3711949
20
5.8088498
40
0.2363837
50
359.9990696
51
1.9902491
0
ARC
8
DEFAULT_255_2_778
10
6.3712
20
5.8088595
40
0.2363783
50
1.9879417
51
25.1433794
0
ARC
8
DEFAULT_255_2_778
10
23.5333303
20
3.1913935
40
0.9696706
50
153.8273667
51
156.8079127
0
ARC
8
DEFAULT_255_2_778
10
47.8889924
20
-7.4946871
40
27.5664509
50
156.3279673
51
156.3349679
0
ARC
8
DEFAULT_255_2_778
10
22.3857487
20
3.6539395
40
0.2683263
50
314.1568224
51
341.8106983
0
ARC
8
DEFAULT_255_2_778
10
22.5310736
20
3.5170253
40
0.0694329
50
269.7584239
51
306.8060786
0
ARC
8
DEFAULT_255_2_778
10
22.5384707
20
3.574611
40
0.1272505
50
189.0669289
51
266.5354875
0
ARC
8
DEFAULT_255_2_778
10
23.6230122
20
4.0174709
40
1.295715
50
200.0628718
51
200.9322972
0
ARC
8
DEFAULT_255_2_778
10
19.0673839
20
2.3596607
40
3.552181
50
19.9724749
51
20.4551954
0
ARC
8
DEFAULT_255_2_778
10
21.7782429
20
3.3711781
40
0.6587531
50
20.4238844
51
23.2761467
0
ARC
8
DEFAULT_255_2_778
10
22.2048891
20
4.4464627
40
0.1776483
50
196.7260049
51
210.7272175
0
ARC
8
DEFAULT_255_2_778
10
27.927463
20
6.4211904
40
6.2312176
50
198.9230141
51
198.972462
0
ARC
8
DEFAULT_255_2_778
10
21.9570602
20
4.3890145
40
0.0768023
50
8.5423493
51
57.7249444
0
ARC
8
DEFAULT_255_2_778
10
21.9888528
20
4.4250557
40
0.0303295
50
72.3051577
51
90.3887546
0
ARC
8
DEFAULT_255_2_778
10
21.9890042
20
4.4127233
40
0.0426627
50
90.4797921
51
104.1416793
0
ARC
8
DEFAULT_255_2_778
10
21.999015
20
4.3849369
40
0.0721119
50
106.4612809
51
192.4714319
0
ARC
8
DEFAULT_255_2_778
10
22.2758978
20
4.3672558
40
0.3472994
50
179.6521564
51
179.999993
0
ARC
8
DEFAULT_255_2_778
10
22.5980632
20
4.3707837
40
0.6694741
50
180.3019303
51
182.3241061
0
ARC
8
DEFAULT_255_2_778
10
21.2915269
20
4.3169028
40
0.6381729
50
0.4390574
51
2.4007482
0
ARC
8
DEFAULT_255_2_778
10
19.3236515
20
2.818326
40
2.6060941
50
357.9751068
51
0.4038087
0
ARC
8
DEFAULT_255_2_778
10
21.0493602
20
2.7574977
40
0.8793138
50
350.7261376
51
357.9630312
0
ARC
8
DEFAULT_255_2_778
10
21.7841087
20
2.6264924
40
0.1335016
50
270.331384
51
355.4031848
0
ARC
8
DEFAULT_255_2_778
10
21.8050507
20
2.622046
40
0.1306195
50
182.7438501
51
261.1170516
0
ARC
8
DEFAULT_255_2_778
10
20.3124022
20
4.9138252
40
1.362213
50
0.4066437
51
2.4098357
0
ARC
8
DEFAULT_255_2_778
10
23.5090083
20
5.0423935
40
1.8369817
50
181.0581885
51
182.2241409
0
ARC
8
DEFAULT_255_2_778
10
22.4834105
20
5.0211955
40
0.8111704
50
180.0197795
51
180.8989905
0
ARC
8
DEFAULT_255_2_778
10
21.8608167
20
5.0439941
40
0.1899835
50
138.3156675
51
186.9773763
0
ARC
8
DEFAULT_255_2_778
10
21.7973609
20
5.078288
40
0.1209301
50
107.8558577
51
130.431328
0
ARC
8
DEFAULT_255_2_778
10
21.8127812
20
5.024014
40
0.177329
50
91.5305778
51
107.221225
0
ARC
8
DEFAULT_255_2_778
10
21.8110471
20
5.0490163
40
0.1522929
50
90.0022224
51
91.1296455
0
ARC
8
DEFAULT_255_2_778
10
21.7909041
20
5.0000876
40
0.2022266
50
22.4682396
51
84.2851802
0
ARC
8
DEFAULT_255_2_778
10
21.4276516
20
4.7669994
40
0.6316432
50
23.7997134
51
29.4309809
0
ARC
8
DEFAULT_255_2_778
10
21.9587641
20
3.985902
40
0.4691895
50
17.9463762
51
25.4052983
0
ARC
8
DEFAULT_255_2_778
10
27.5810494
20
5.8976753
40
5.4692959
50
198.8513221
51
199.1834154
0
ARC
8
DEFAULT_255_2_778
10
22.6094643
20
4.1414215
40
0.1982774
50
191.9101414
51
237.5977169
0
ARC
8
DEFAULT_255_2_778
10
22.5458679
20
4.0702682
40
0.1052806
50
246.1005504
51
261.3208034
0
ARC
8
DEFAULT_255_2_778
10
22.517393
20
4.0980712
40
0.1324775
50
275.4524243
51
348.9501996
0
ARC
8
DEFAULT_255_2_778
10
21.9957652
20
4.3260049
40
0.6991567
50
338.7567126
51
340.8885986
0
ARC
8
DEFAULT_255_2_778
10
17.6875643
20
5.8012363
40
5.2529315
50
341.0697517
51
341.5160729
0
ARC
8
DEFAULT_255_2_778
10
23.0659818
20
4.0089889
40
0.4162739
50
154.6533548
51
162.2560313
0
LINE
8
DEFAULT_255_2_778
10
23.0667809
20
4.9972931
11
23.0671065
21
4.9980257
0
ARC
8
DEFAULT_255_2_778
10
23.4128537
20
4.88289
40
0.3644137
50
125.976991
51
161.5819682
0
ARC
8
DEFAULT_255_2_778
10
23.2738493
20
5.0412225
40
0.1558449
50
89.4405141
51
118.7980467
0
ARC
8
DEFAULT_255_2_778
10
23.2745788
20
4.9925785
40
0.2044829
50
79.4321791
51
89.7780213
0
ARC
8
DEFAULT_255_2_778
10
23.2842273
20
5.0698095
40
0.1268787
50
32.3440797
51
77.3186344
0
ARC
8
DEFAULT_255_2_778
10
23.202149
20
5.04077
40
0.2126436
50
356.3986133
51
27.1154787
0
ARC
8
DEFAULT_255_2_778
10
22.3850648
20
5.0340267
40
1.0293292
50
356.8652023
51
359.6318513
0
ARC
8
DEFAULT_255_2_778
10
15.1595774
20
5.3810754
40
8.263126
50
357.1421671
51
357.2021798
0
ARC
8
DEFAULT_255_2_778
10
24.5882045
20
4.9005745
40
1.1777724
50
176.6648497
51
179.4785584
0
ARC
8
DEFAULT_255_2_778
10
24.6340151
20
2.7877883
40
1.223598
50
180.5851083
51
183.2176744
0
ARC
8
DEFAULT_255_2_778
10
21.5617577
20
2.6253756
40
1.8529606
50
1.6685585
51
2.8995692
0
ARC
8
DEFAULT_255_2_778
10
22.6366273
20
2.6585045
40
0.7775842
50
0.0517078
51
1.5346632
0
ARC
8
DEFAULT_255_2_778
10
23.2135175
20
2.6404391
40
0.2015693
50
326.5328574
51
5.3422914
0
ARC
8
DEFAULT_255_2_778
10
23.3007695
20
2.6024891
40
0.109104
50
269.9276434
51
317.8568991
0
ARC
8
DEFAULT_255_2_778
10
23.2879606
20
2.6978343
40
0.2048413
50
269.9497227
51
273.5464696
0
ARC
8
DEFAULT_255_2_778
10
23.2807556
20
2.6405126
40
0.1476867
50
239.9035799
51
272.7265136
0
ARC
8
DEFAULT_255_2_778
10
23.3001189
20
2.6282285
40
0.1485464
50
175.1584251
51
231.0304696
0
ARC
8
DEFAULT_255_2_778
10
23.6918797
20
2.6635425
40
0.5402575
50
179.919888
51
182.4162287
0
ARC
8
DEFAULT_255_2_778
10
24.1316093
20
2.6614082
40
0.9799909
50
177.6260495
51
179.8310519
0
ARC
8
DEFAULT_255_2_778
10
26.4599921
20
2.5703935
40
3.31015
50
177.2872354
51
177.7213938
0
ARC
8
DEFAULT_255_2_778
10
21.8117475
20
2.800075
40
1.3437894
50
356.8852707
51
359.4763219
0
ARC
8
DEFAULT_255_2_778
10
23.9366663
20
4.2867581
40
0.7860334
50
181.3590057
51
186.3667498
0
ARC
8
DEFAULT_255_2_778
10
22.4699317
20
4.2551942
40
0.6810449
50
1.0871475
51
7.7423006
0
ARC
8
DEFAULT_255_2_778
10
22.8975562
20
4.3131157
40
0.2495159
50
7.7916991
51
36.6397386
0
ARC
8
DEFAULT_255_2_778
10
22.8608086
20
4.2847837
40
0.2959114
50
36.7953095
51
45.0735434
0
ARC
8
DEFAULT_255_2_778
10
28.4783673
20
4.2939071
40
0.1979359
50
136.8835172
51
184.4409382
0
ARC
8
DEFAULT_255_2_778
10
28.8967243
20
4.2794722
40
0.6156993
50
180.0829681
51
182.0613995
0
ARC
8
DEFAULT_255_2_778
10
29.885142
20
4.3180915
40
1.6048694
50
182.1699503
51
183.3429276
0
ARC
8
DEFAULT_255_2_778
10
27.3118913
20
4.1617391
40
0.9731384
50
0.5742999
51
3.6982564
0
ARC
8
DEFAULT_255_2_778
10
29.3896237
20
2.7196484
40
1.1046767
50
180.448924
51
182.4826989
0
ARC
8
DEFAULT_255_2_778
10
26.9875414
20
2.6187774
40
1.2995243
50
0.714345
51
2.3382417
0
ARC
8
DEFAULT_255_2_778
10
27.6469587
20
2.629696
40
0.640028
50
0.0066759
51
0.4729473
0
ARC
8
DEFAULT_255_2_778
10
28.1335965
20
2.6104315
40
0.1546045
50
319.8177241
51
7.1857832
0
ARC
8
DEFAULT_255_2_778
10
28.1921748
20
2.5857034
40
0.0957796
50
266.5918294
51
308.4346707
0
ARC
8
DEFAULT_255_2_778
10
28.1697834
20
2.664854
40
0.1755568
50
270.0992865
51
275.4577472
0
ARC
8
DEFAULT_255_2_778
10
28.1703461
20
2.5998048
40
0.1105076
50
178.4858336
51
269.8659591
0
ARC
8
DEFAULT_255_2_778
10
28.4940555
20
2.668587
40
0.4391454
50
182.5714817
51
188.6256387
0
ARC
8
DEFAULT_255_2_778
10
29.2845861
20
2.7011528
40
1.2303446
50
179.5417436
51
182.4348154
0
ARC
8
DEFAULT_255_2_778
10
26.1473673
20
4.9651069
40
1.9069201
50
0.1498169
51
0.9532604
0
ARC
8
DEFAULT_255_2_778
10
29.9995608
20
5.0287802
40
1.9457996
50
180.1285759
51
180.940788
0
ARC
8
DEFAULT_255_2_778
10
28.9653576
20
5.0244745
40
0.9115915
50
179.6320008
51
180.0038229
0
ARC
8
DEFAULT_255_2_778
10
28.2189095
20
5.0543918
40
0.1668686
50
133.6955326
51
188.2909456
0
ARC
8
DEFAULT_255_2_778
10
28.1653677
20
5.0837552
40
0.1102017
50
103.3186799
51
124.069888
0
ARC
8
DEFAULT_255_2_778
10
28.1924512
20
5.0397828
40
0.1600552
50
92.5327938
51
109.136912
0
ARC
8
DEFAULT_255_2_778
10
28.1899472
20
5.0685919
40
0.1311695
50
90.0023674
51
91.9961648
0
ARC
8
DEFAULT_255_2_778
10
28.1717262
20
5.0254467
40
0.1752638
50
23.6528161
51
84.0343638
0
ARC
8
DEFAULT_255_2_778
10
27.7057616
20
4.7181938
40
0.7314819
50
26.4136995
51
31.0755573
0
ARC
8
DEFAULT_255_2_778
10
30.8038836
20
4.4217796
40
1.9760339
50
201.256117
51
205.7212864
0
LINE
8
DEFAULT_255_2_778
10
29.0236434
20
3.5641931
11
29.0239194
21
3.5636011
0
ARC
8
DEFAULT_255_2_778
10
27.2300154
20
2.6996836
40
1.9910914
50
21.3013308
51
25.7147748
0
ARC
8
DEFAULT_255_2_778
10
28.8495231
20
3.3100756
40
0.2612238
50
18.1052669
51
25.6113033
0
ARC
8
DEFAULT_255_2_778
10
25.479566
20
2.1421969
40
3.8277741
50
18.9236016
51
19.0452217
0
ARC
8
DEFAULT_255_2_778
10
29.1740261
20
3.3905847
40
0.0739038
50
185.4455792
51
252.520064
0
ARC
8
DEFAULT_255_2_778
10
29.1572538
20
3.372335
40
0.0525223
50
264.069972
51
270.0818237
0
ARC
8
DEFAULT_255_2_778
10
29.1559448
20
3.3997164
40
0.0799159
50
270.9923043
51
287.3665232
0
ARC
8
DEFAULT_255_2_778
10
29.1451187
20
3.4410085
40
0.1225733
50
286.4351469
51
288.2385142
0
ARC
8
DEFAULT_255_2_778
10
29.144863
20
3.4051481
40
0.0893333
50
295.6129337
51
7.7258146
0
ARC
8
DEFAULT_255_2_778
10
28.8958072
20
3.4244164
40
0.3376562
50
358.768144
51
0.0270335
0
ARC
8
DEFAULT_255_2_778
10
28.5090592
20
3.420943
40
0.7244133
50
0.2873239
51
2.2338467
0
ARC
8
DEFAULT_255_2_778
10
29.9235539
20
3.4769821
40
0.6911911
50
180.413565
51
182.3053198
0
ARC
8
DEFAULT_255_2_778
10
30.7175539
20
4.926993
40
1.485256
50
177.2274656
51
180.6056586
0
ARC
8
DEFAULT_255_2_778
10
29.8144476
20
4.9665455
40
0.5813088
50
168.4644601
51
176.8156637
0
ARC
8
DEFAULT_255_2_778
10
29.3696782
20
5.0809072
40
0.1248116
50
86.5537506
51
179.1342506
0
ARC
8
DEFAULT_255_2_778
10
29.3500587
20
5.080858
40
0.127552
50
349.7646808
51
77.7231293
0
ARC
8
DEFAULT_255_2_778
10
30.4005383
20
2.7993309
40
0.925037
50
180.7518262
51
184.3771148
0
ARC
8
DEFAULT_255_2_778
10
27.3927359
20
2.5893196
40
2.0901179
50
3.0982052
51
3.824492
0
ARC
8
DEFAULT_255_2_778
10
28.8201095
20
2.6655318
40
0.6607124
50
0.2100613
51
3.1888475
0
ARC
8
DEFAULT_255_2_778
10
29.3465408
20
2.6457971
40
0.1360926
50
294.3738069
51
9.369964
0
ARC
8
DEFAULT_255_2_778
10
29.3429191
20
2.6737324
40
0.1632404
50
286.7193978
51
291.4840376
0
ARC
8
DEFAULT_255_2_778
10
29.3314507
20
2.6709172
40
0.1642673
50
276.8276037
51
290.83645
0
ARC
8
DEFAULT_255_2_778
10
29.3369494
20
2.6330408
40
0.1260094
50
270.0588316
51
276.3925372
0
ARC
8
DEFAULT_255_2_778
10
29.3533864
20
2.6619873
40
0.1558116
50
201.2466886
51
263.99228
0
ARC
8
DEFAULT_255_2_778
10
29.9360687
20
3.0058828
40
0.8307411
50
203.5046605
51
208.8115423
0
ARC
8
DEFAULT_255_2_778
10
41.690433
20
8.2237603
40
13.6911748
50
203.7316763
51
203.9106769
0
ARC
8
DEFAULT_255_2_778
10
29.0204835
20
4.5062801
40
0.6137238
50
201.4793766
51
206.150523
0
ARC
8
DEFAULT_255_2_778
10
33.325494
20
6.2488198
40
5.2580022
50
201.8173721
51
201.9715895
0
ARC
8
DEFAULT_255_2_778
10
28.2342339
20
4.2419663
40
0.2163922
50
14.1011093
51
61.5320487
0
ARC
8
DEFAULT_255_2_778
10
18.7264965
20
3.6690967
40
4.3287024
50
177.5717933
51
180.2089016
0
ARC
8
DEFAULT_255_2_778
10
30.9739798
20
3.669944
40
16.5761652
50
180.0574813
51
180.4072581
0
ARC
8
DEFAULT_255_2_778
10
-2.5668087
20
3.4322611
40
16.9654654
50
0.0720424
51
0.4047967
0
ARC
8
DEFAULT_255_2_778
10
7.3439756
20
3.4518113
40
7.054668
50
359.9951763
51
0.0144711
0
ARC
8
DEFAULT_255_2_778
10
11.5155299
20
3.4091528
40
2.8834206
50
352.9387532
51
0.8358858
0
ARC
8
DEFAULT_255_2_778
10
13.490675
20
3.1857838
40
0.896047
50
334.7901726
51
351.587494
0
ARC
8
DEFAULT_255_2_778
10
13.8170875
20
3.0333774
40
0.5358099
50
275.6954431
51
334.6682647
0
ARC
8
DEFAULT_255_2_778
10
13.7304459
20
3.4601665
40
0.9700824
50
269.7540027
51
278.286768
0
ARC
8
DEFAULT_255_2_778
10
13.7125114
20
3.520364
40
1.030363
50
255.9532736
51
270.7657073
0
ARC
8
DEFAULT_255_2_778
10
13.5767459
20
3.0326994
40
0.5244982
50
196.7656494
51
257.4110329
0
ARC
8
DEFAULT_255_2_778
10
13.8895137
20
3.1462501
40
0.8569254
50
186.9477345
51
198.0029371
0
ARC
8
DEFAULT_255_2_778
10
21.0044745
20
3.9478273
40
8.0168654
50
181.0824164
51
186.4834506
0
ARC
8
DEFAULT_255_2_778
10
19.9374641
20
3.9139193
40
6.9494185
50
180.0030179
51
180.9690896
0
ARC
8
DEFAULT_255_2_778
10
18.9891595
20
3.9297686
40
6.0011358
50
172.5354449
51
180.1548156
0
ARC
8
DEFAULT_255_2_778
10
13.7014061
20
4.6301729
40
0.6672447
50
150.0245575
51
173.1813392
0
ARC
8
DEFAULT_255_2_778
10
13.5935967
20
4.6727411
40
0.5528489
50
99.3528346
51
148.2634404
0
ARC
8
DEFAULT_255_2_778
10
13.6953119
20
4.2658153
40
0.9714985
50
89.6243766
51
101.3721435
0
ARC
8
DEFAULT_255_2_778
10
13.7140043
20
4.4005603
40
0.8368236
50
71.5091637
51
90.8437946
0
ARC
8
DEFAULT_255_2_778
10
13.795992
20
4.659248
40
0.5655043
50
13.1126799
51
71.0746557
0
ARC
8
DEFAULT_255_2_778
10
13.5197792
20
4.5599233
40
0.8577257
50
10.03577
51
15.3892315
0
ARC
8
DEFAULT_255_2_778
10
12.3103316
20
4.315686
40
2.0914406
50
358.8916413
51
10.8504911
0
ARC
8
DEFAULT_255_2_778
10
4.5767102
20
4.2984244
40
9.8246981
50
359.0399512
51
359.864738
0
ARC
8
DEFAULT_255_2_778
10
24.1928717
20
3.9693773
40
9.7942232
50
179.0380346
51
179.8615506
0
ARC
8
DEFAULT_255_2_778
10
17.8340982
20
3.9873004
40
3.4354261
50
179.9042075
51
181.8538959
0
ARC
8
DEFAULT_255_2_778
10
16.9324275
20
3.9621247
40
2.533416
50
181.9445287
51
182.5300086
0
ARC
8
DEFAULT_255_2_778
10
13.4645825
20
4.462075
40
0.6920791
50
1.3096586
51
21.2093657
0
ARC
8
DEFAULT_255_2_778
10
13.7387336
20
4.5737601
40
0.3961235
50
20.4950315
51
92.2436813
0
ARC
8
DEFAULT_255_2_778
10
13.7177118
20
4.3938208
40
0.5757856
50
89.4513265
51
90.0007499
0
ARC
8
DEFAULT_255_2_778
10
13.7178532
20
4.3719008
40
0.5977057
50
90.0142792
51
92.5960323
0
ARC
8
DEFAULT_255_2_778
10
13.6773918
20
4.5206386
40
0.4485543
50
88.2895078
51
121.0227644
0
ARC
8
DEFAULT_255_2_778
10
13.6732616
20
4.5638106
40
0.4098563
50
123.6392892
51
164.1355089
0
ARC
8
DEFAULT_255_2_778
10
14.0126606
20
4.4489704
40
0.7679247
50
162.8157564
51
177.8415315
0
ARC
8
DEFAULT_255_2_778
10
13.9679352
20
3.226173
40
0.7228354
50
181.2826129
51
199.7048802
0
ARC
8
DEFAULT_255_2_778
10
13.6753757
20
3.1193674
40
0.4113998
50
199.4392289
51
268.2957418
0
ARC
8
DEFAULT_255_2_778
10
13.7210922
20
3.3643075
40
0.6587122
50
264.9527448
51
267.3625398
0
ARC
8
DEFAULT_255_2_778
10
13.7043312
20
3.19847
40
0.4923634
50
268.4229657
51
298.3766663
0
ARC
8
DEFAULT_255_2_778
10
13.7288339
20
3.1180964
40
0.4103396
50
300.7007953
51
344.4000051
0
ARC
8
DEFAULT_255_2_778
10
13.4012874
20
3.2273414
40
0.7553925
50
343.1000709
51
358.6840346
0
ARC
8
DEFAULT_255_2_778
10
10.7095046
20
3.4053833
40
3.4525097
50
356.7556879
51
0.2052694
0
ARC
8
DEFAULT_255_2_778
10
3.0434266
20
3.379936
40
11.1186297
50
0.1948731
51
1.2904427
0
ARC
8
DEFAULT_255_2_778
10
25.4690555
20
3.8822868
40
11.3126252
50
180.1711574
51
181.2761878
0
ARC
8
DEFAULT_255_2_778
10
26.295337
20
2.642475
40
0.2325477
50
334.2851821
51
4.7651416
0
ARC
8
DEFAULT_255_2_778
10
26.4313439
20
2.5887976
40
0.0873715
50
276.5305024
51
327.2831793
0
ARC
8
DEFAULT_255_2_778
10
26.4011284
20
2.6913703
40
0.193587
50
270.6545675
51
281.9707922
0
ARC
8
DEFAULT_255_2_778
10
26.3995566
20
2.5882535
40
0.0905367
50
191.8610598
51
272.3949888
0
ARC
8
DEFAULT_255_2_778
10
26.4963154
20
2.6312482
40
0.1953311
50
196.5544843
51
198.3837661
0
ARC
8
DEFAULT_255_2_778
10
7.3751466
20
-2.7769725
40
19.6729997
50
16.2721146
51
16.471691
0
ARC
8
DEFAULT_255_2_778
10
21.933012
20
1.5301319
40
4.4913476
50
16.438771
51
17.2956498
0
ARC
8
DEFAULT_255_2_778
10
24.6413386
20
2.3762055
40
1.6539448
50
17.2047124
51
19.5606348
0
ARC
8
DEFAULT_255_2_778
10
25.3548951
20
2.6271072
40
0.8975695
50
19.7189554
51
21.2054917
0
ARC
8
DEFAULT_255_2_778
10
25.8659855
20
2.8372766
40
0.3452417
50
19.3679991
51
36.4703904
0
ARC
8
DEFAULT_255_2_778
10
26.0075275
20
2.9285601
40
0.1774835
50
39.9352945
51
87.6125862
0
ARC
8
DEFAULT_255_2_778
10
25.9048094
20
2.1252269
40
0.9868252
50
83.5935125
51
90.1103643
0
ARC
8
DEFAULT_255_2_778
10
25.8311386
20
-3.9960664
40
7.1084789
50
89.4215098
51
90.1342646
0
ARC
8
DEFAULT_255_2_778
10
25.6796052
20
-3.4353965
40
6.5478464
50
89.7613285
51
90.9861367
0
ARC
8
DEFAULT_255_2_778
10
25.5758314
20
2.0961111
40
1.0154084
50
90.5032056
51
97.3809572
0
ARC
8
DEFAULT_255_2_778
10
25.4589726
20
2.8840945
40
0.2194321
50
93.5498726
51
152.0826754
0
ARC
8
DEFAULT_255_2_778
10
25.7392331
20
2.711723
40
0.548187
50
149.8773573
51
156.2373924
0
ARC
8
DEFAULT_255_2_778
10
26.3089233
20
2.4585741
40
1.1715883
50
156.1331252
51
159.6359813
0
ARC
8
DEFAULT_255_2_778
10
27.7029491
20
1.9353774
40
2.6605578
50
159.5197029
51
161.0218935
0
ARC
8
DEFAULT_255_2_778
10
31.2546921
20
0.7082621
40
6.4183069
50
160.9740294
51
161.5668439
0
ARC
8
DEFAULT_255_2_778
10
49.496206
20
-5.37698
40
25.6480493
50
161.5554597
51
161.7221653
0
ARC
8
DEFAULT_255_2_778
10
26.1299441
20
2.3873809
40
1.0265492
50
164.1998198
51
165.7278414
0
ARC
8
DEFAULT_255_2_778
10
20.6723697
20
3.7818687
40
4.606365
50
345.3658785
51
345.6531827
0
ARC
8
DEFAULT_255_2_778
10
24.9362283
20
2.6455021
40
0.1950068
50
313.1682838
51
351.9194161
0
ARC
8
DEFAULT_255_2_778
10
25.0238986
20
2.5718383
40
0.0824219
50
268.6005021
51
303.7091918
0
ARC
8
DEFAULT_255_2_778
10
25.0231016
20
2.6275946
40
0.1381592
50
256.8998633
51
269.4957091
0
ARC
8
DEFAULT_255_2_778
10
25.0334955
20
2.6790402
40
0.1906279
50
254.4464951
51
257.3618146
0
ARC
8
DEFAULT_255_2_778
10
25.0271198
20
2.6216721
40
0.13397
50
214.0583627
51
250.4914435
0
ARC
8
DEFAULT_255_2_778
10
25.038666
20
2.6196473
40
0.1426342
50
177.8656534
51
210.7852376
0
ARC
8
DEFAULT_255_2_778
10
25.2436679
20
2.6196822
40
0.3475773
50
168.4186278
51
179.1300575
0
ARC
8
DEFAULT_255_2_778
10
25.9146115
20
2.4890094
40
1.0311163
50
165.747429
51
168.7901451
0
ARC
8
DEFAULT_255_2_778
10
13.6103039
20
5.5513829
40
11.6485702
50
346.0482958
51
346.1619284
0
ARC
8
DEFAULT_255_2_778
10
24.5474016
20
5.3055091
40
1.0254053
50
341.9207624
51
344.9174394
0
ARC
8
DEFAULT_255_2_778
10
31.3652739
20
3.4324838
40
6.0450831
50
164.3233722
51
164.5911997
0
ARC
8
DEFAULT_255_2_778
10
25.8144479
20
5.0207618
40
0.2731498
50
132.5283127
51
170.485665
0
ARC
8
DEFAULT_255_2_778
10
25.707028
20
5.1078495
40
0.137862
50
88.1948359
51
124.0628543
0
ARC
8
DEFAULT_255_2_778
10
25.7111464
20
5.032504
40
0.2131391
50
85.5237815
51
89.9396775
0
ARC
8
DEFAULT_255_2_778
10
25.6981416
20
5.0545534
40
0.1927324
50
7.4689207
51
81.1536914
0
ARC
8
DEFAULT_255_2_778
10
25.1433887
20
4.8607842
40
0.7772872
50
13.637076
51
16.3509593
0
ARC
8
DEFAULT_255_2_778
10
23.7148672
20
4.520984
40
2.2456615
50
11.9846069
51
13.4691133
0
ARC
8
DEFAULT_255_2_778
10
25.5588939
20
2.5746682
40
0.9657312
50
11.4236704
51
18.2058305
0
ARC
8
DEFAULT_255_2_778
10
24.0399605
20
2.2694839
40
2.5150197
50
8.8287431
51
11.384826
0
ARC
8
DEFAULT_255_2_778
10
25.8438574
20
5.4202048
40
2.0710764
50
269.5469417
51
272.5090812
0
ARC
8
DEFAULT_255_2_778
10
25.9260702
20
3.6895552
40
0.3385468
50
271.4309572
51
284.9736068
0
ARC
8
DEFAULT_255_2_778
10
25.9973109
20
3.4352258
40
0.0745113
50
282.5817916
51
7.8450193
0
ARC
8
DEFAULT_255_2_778
10
25.7433693
20
3.4394913
40
0.3278088
50
1.032117
51
10.8632466
0
ARC
8
DEFAULT_255_2_778
10
25.0777467
20
3.3196864
40
1.0041127
50
10.4187969
51
14.3915508
0
ARC
8
DEFAULT_255_2_778
10
23.1054937
20
2.824031
40
3.0376865
50
14.201123
51
15.5988565
0
ARC
8
DEFAULT_255_2_778
10
18.8961108
20
1.6639904
40
7.403979
50
15.4859388
51
15.7022721
0
ARC
8
DEFAULT_255_2_778
10
26.2420148
20
4.6215475
40
0.4584729
50
184.9375955
51
190.335375
0
LINE
8
DEFAULT_255_2_778
10
25.7852431
20
4.5820865
11
25.7851394
21
4.5831004
0
ARC
8
DEFAULT_255_2_778
10
25.6576314
20
4.5914209
40
0.1277791
50
356.2664607
51
42.0492175
0
ARC
8
DEFAULT_255_2_778
10
25.7199012
20
4.6272863
40
0.0594603
50
56.7345976
51
92.4293633
0
ARC
8
DEFAULT_255_2_778
10
25.7287712
20
4.5896985
40
0.0976611
50
96.697724
51
179.4217174
0
ARC
8
DEFAULT_255_2_778
10
26.2663373
20
4.4423935
40
0.6523017
50
166.8598092
51
170.1729259
0
ARC
8
DEFAULT_255_2_778
10
29.1039686
20
3.9405187
40
3.5339698
50
170.0075885
51
170.4194116
0
ARC
8
DEFAULT_255_2_778
10
23.560671
20
4.8800917
40
2.0883938
50
350.2630794
51
350.3132024
0
ARC
8
DEFAULT_255_2_778
10
34.6582869
20
1.231595
40
9.5834138
50
164.5164894
51
165.1344046
0
ARC
8
DEFAULT_255_2_778
10
28.1632873
20
2.9527981
40
2.8642222
50
165.080129
51
166.837131
0
ARC
8
DEFAULT_255_2_778
10
26.4100601
20
3.3600104
40
1.0643311
50
166.690107
51
170.8110601
0
ARC
8
DEFAULT_255_2_778
10
25.7553673
20
3.4638899
40
0.4014564
50
170.5253515
51
179.2299298
0
ARC
8
DEFAULT_255_2_778
10
25.4640848
20
3.4600225
40
0.1105265
50
175.1925605
51
219.2592498
0
ARC
8
DEFAULT_255_2_778
10
25.4683521
20
3.4861154
40
0.1315129
50
226.9073995
51
262.8602177
0
ARC
8
DEFAULT_255_2_778
10
25.5581023
20
3.9503716
40
0.6041384
50
259.8855319
51
268.3828953
0
ARC
8
DEFAULT_255_2_778
10
25.6480857
20
6.2555401
40
2.9110346
50
267.8928883
51
270.2044477
0
ARC
8
DEFAULT_255_2_778
10
25.6967486
20
26.0272066
40
22.6827149
50
269.9033171
51
270.0207943
0
ARC
8
DEFAULT_255_2_778
10
10.5196122
20
5.0020085
40
0.438707
50
164.4200896
51
181.6216918
0
ARC
8
DEFAULT_255_2_778
10
10.2539214
20
5.0724817
40
0.1638876
50
82.0385851
51
163.2047686
0
ARC
8
DEFAULT_255_2_778
10
10.2866037
20
4.7529676
40
0.4819255
50
89.9908303
51
91.1869462
0
ARC
8
DEFAULT_255_2_778
10
10.68838
20
3.9015377
40
1.3334455
50
78.4635483
51
89.3339413
0
ARC
8
DEFAULT_255_2_778
10
10.8281968
20
4.5530743
40
0.6671428
50
56.114137
51
79.0381486
0
ARC
8
DEFAULT_255_2_778
10
10.8804971
20
4.6619841
40
0.5478452
50
17.7106698
51
54.3040691
0
ARC
8
DEFAULT_255_2_778
10
10.3877607
20
4.4848384
40
1.071284
50
5.8370493
51
18.7191125
0
ARC
8
DEFAULT_255_2_778
10
9.4760002
20
4.3787379
40
1.9891489
50
359.7125818
51
6.2064579
0
ARC
8
DEFAULT_255_2_778
10
8.6891909
20
4.3691991
40
2.7759333
50
359.0075429
51
359.9909266
0
ARC
8
DEFAULT_255_2_778
10
8.5141176
20
4.3717693
40
2.951025
50
358.8820544
51
359.0165246
0
ARC
8
DEFAULT_255_2_778
10
10.3911376
20
4.3321334
40
1.0735931
50
343.9316113
51
359.0425123
0
ARC
8
DEFAULT_255_2_778
10
10.8155475
20
4.2031249
40
0.6300899
50
313.8758371
51
344.5225311
0
ARC
8
DEFAULT_255_2_778
10
10.8474298
20
4.1976239
40
0.6043311
50
277.4551064
51
312.0581065
0
ARC
8
DEFAULT_255_2_778
10
10.7947634
20
4.4468369
40
0.8585012
50
273.5606658
51
278.7824051
0
ARC
8
DEFAULT_255_2_778
10
10.8631396
20
0.9482541
40
2.6417819
50
90.326601
51
92.6374959
0
ARC
8
DEFAULT_255_2_778
10
10.4530791
20
10.6631066
40
7.0817478
50
272.015779
51
272.3347461
0
ARC
8
DEFAULT_255_2_778
10
10.6332747
20
5.4620784
40
1.877602
50
270.1387503
51
272.1030733
0
ARC
8
DEFAULT_255_2_778
10
10.6335372
20
4.5660216
40
0.9815489
50
263.9203746
51
270.2500938
0
ARC
8
DEFAULT_255_2_778
10
10.4977751
20
3.1592101
40
0.4319555
50
85.7773784
51
89.9088392
0
ARC
8
DEFAULT_255_2_778
10
10.4876169
20
3.382218
40
0.2092284
50
87.0287
51
121.141241
0
ARC
8
DEFAULT_255_2_778
10
10.4827706
20
3.4235885
40
0.1721793
50
126.8900667
51
176.670483
0
ARC
8
DEFAULT_255_2_778
10
10.7408023
20
3.3767769
40
0.4336578
50
172.4723039
51
180.3162971
0
ARC
8
DEFAULT_255_2_778
10
10.960827
20
3.3755192
40
0.653677
50
180.0995989
51
183.7916012
0
ARC
8
DEFAULT_255_2_778
10
6.9665042
20
3.1458463
40
3.3472734
50
1.3300734
51
3.1930895
0
ARC
8
DEFAULT_255_2_778
10
5.6211353
20
3.1147036
40
4.6930028
50
359.9546086
51
1.3289198
0
ARC
8
DEFAULT_255_2_778
10
-0.9854614
20
3.1451561
40
11.2996495
50
358.7177684
51
359.8267362
0
ARC
8
DEFAULT_255_2_778
10
21.3454492
20
2.6415017
40
11.0369405
50
178.6979229
51
179.7929125
0
ARC
8
DEFAULT_255_2_778
10
9.6494557
20
2.6801281
40
0.6591264
50
357.5579263
51
0.1099624
0
ARC
8
DEFAULT_255_2_778
10
10.1730395
20
2.630068
40
0.1367215
50
288.4257542
51
9.2492357
0
ARC
8
DEFAULT_255_2_778
10
10.1868609
20
2.6496594
40
0.1521695
50
269.6309973
51
281.1372277
0
ARC
8
DEFAULT_255_2_778
10
10.1815915
20
2.6022631
40
0.1048578
50
172.3499754
51
272.3444186
0
ARC
8
DEFAULT_255_2_778
10
10.9603544
20
2.6797252
40
0.8849687
50
179.1597567
51
184.1149445
0
LINE
8
DEFAULT_255_2_778
10
10.0754809
20
2.6927028
11
10.0754809
21
2.6938931
0
ARC
8
DEFAULT_255_2_778
10
10.6716302
20
5.1977727
40
1.3829479
50
269.4303542
51
277.3630423
0
ARC
8
DEFAULT_255_2_778
10
10.7890679
20
4.3500504
40
0.5272238
50
276.5122338
51
296.4899916
0
ARC
8
DEFAULT_255_2_778
10
10.8540004
20
4.184121
40
0.3501133
50
299.0922567
51
345.6299102
0
ARC
8
DEFAULT_255_2_778
10
10.4430621
20
4.3389939
40
0.788097
50
342.1352364
51
346.7822123
0
ARC
8
DEFAULT_255_2_778
10
9.9847216
20
4.4649177
40
1.2632133
50
345.9754255
51
357.344967
0
ARC
8
DEFAULT_255_2_778
10
10.3765262
20
4.4360512
40
0.8705579
50
358.0482948
51
359.9883135
0
ARC
8
DEFAULT_255_2_778
10
10.6560037
20
4.4545061
40
0.5913741
50
358.1944796
51
40.8221448
0
ARC
8
DEFAULT_255_2_778
10
10.626273
20
4.4248082
40
0.6332938
50
41.0970288
51
43.2453732
0
ARC
8
DEFAULT_255_2_778
10
10.7933504
20
4.5690769
40
0.4128548
50
44.5471821
51
68.0363294
0
ARC
8
DEFAULT_255_2_778
10
10.7597234
20
4.4524875
40
0.533704
50
69.3698235
51
91.3721739
0
ARC
8
DEFAULT_255_2_778
10
10.7617001
20
3.5993455
40
1.3867716
50
90.6097178
51
96.5867095
0
ARC
8
DEFAULT_255_2_778
10
11.2773151
20
-1.3563698
40
6.3691691
50
96.0807594
51
96.5739087
0
ARC
8
DEFAULT_255_2_778
10
10.2507703
20
7.3541842
40
2.401743
50
273.5666287
51
277.112332
0
ARC
8
DEFAULT_255_2_778
10
10.4082723
20
4.8674247
40
0.0900327
50
95.1562305
51
185.7289002
0
ARC
8
DEFAULT_255_2_778
10
10.8050939
20
4.7971459
40
0.4902511
50
172.8180464
51
178.6197243
0
ARC
8
DEFAULT_255_2_778
10
11.873505
20
4.7685556
40
1.5590434
50
178.5151266
51
180.285277
0
ARC
8
DEFAULT_255_2_778
10
15.8881511
20
4.176538
40
5.5737607
50
179.6735699
51
181.2852466
0
ARC
8
DEFAULT_255_2_778
10
11.0008172
20
4.0564836
40
0.6850425
50
180.4152282
51
190.3608918
0
ARC
8
DEFAULT_255_2_778
10
10.4531537
20
3.9489337
40
0.127176
50
187.07017
51
272.6537148
0
ARC
8
DEFAULT_255_2_778
10
10.574341
20
4.9173428
40
1.1014999
50
263.9915763
51
270.4850419
0
ARC
8
DEFAULT_255_2_778
10
10.6445891
20
13.1219301
40
9.3062472
50
269.6249106
51
270.0849121
0
ARC
8
DEFAULT_255_2_778
10
16.557879
20
3.5484028
40
1.0840793
50
253.8475994
51
271.4959809
0
ARC
8
DEFAULT_255_2_778
10
16.4383876
20
3.0906727
40
0.6113053
50
218.5159394
51
252.6700355
0
ARC
8
DEFAULT_255_2_778
10
16.7790046
20
3.3618293
40
1.0466741
50
217.393826
51
218.5186313
0
ARC
8
DEFAULT_255_2_778
10
16.12015
20
2.8811656
40
0.2320425
50
185.6351585
51
221.9018538
0
ARC
8
DEFAULT_255_2_778
10
16.0104921
20
2.8576811
40
0.1212652
50
144.4512785
51
179.6694963
0
ARC
8
DEFAULT_255_2_778
10
16.0476277
20
2.8350897
40
0.1646455
50
141.0346706
51
145.5682973
0
ARC
8
DEFAULT_255_2_778
10
16.0599774
20
2.8252594
40
0.1804295
50
139.3519978
51
141.0736806
0
ARC
8
DEFAULT_255_2_778
10
16.0070161
20
2.8766308
40
0.1068765
50
114.4712194
51
141.7529316
0
ARC
8
DEFAULT_255_2_778
10
15.991459
20
2.9063719
40
0.0733857
50
95.8820141
51
113.0346422
0
ARC
8
DEFAULT_255_2_778
10
15.99137
20
2.9062353
40
0.0735126
50
89.9833414
51
95.8021256
0
ARC
8
DEFAULT_255_2_778
10
15.9730952
20
2.8306641
40
0.1502023
50
38.347009
51
83.00342
0
ARC
8
DEFAULT_255_2_778
10
15.8123055
20
2.6595079
40
0.3840442
50
39.8883632
51
43.4972338
0
ARC
8
DEFAULT_255_2_778
10
16.5632846
20
3.3123974
40
0.6111793
50
221.703679
51
244.3153632
0
ARC
8
DEFAULT_255_2_778
10
16.5490299
20
3.3227557
40
0.6145803
50
245.931742
51
271.3621699
0
ARC
8
DEFAULT_255_2_778
10
16.5629292
20
3.7051282
40
0.9967794
50
270.0408443
51
272.7458614
0
ARC
8
DEFAULT_255_2_778
10
16.6073852
20
3.1111215
40
0.4016419
50
270.4701477
51
334.406668
0
ARC
8
DEFAULT_255_2_778
10
16.3970023
20
3.2296607
40
0.6427893
50
332.9779223
51
340.6228644
0
ARC
8
DEFAULT_255_2_778
10
16.5115872
20
3.2050722
40
0.5267455
50
339.010431
51
356.6582899
0
ARC
8
DEFAULT_255_2_778
10
16.5115393
20
3.2050521
40
0.5267922
50
356.6607814
51
0.0008586
0
ARC
8
DEFAULT_255_2_778
10
16.510344
20
3.2050855
40
0.5279875
50
359.9972306
51
43.5396642
0
ARC
8
DEFAULT_255_2_778
10
16.158541
20
2.8403348
40
1.0345048
50
44.7618248
51
67.8806698
0
ARC
8
DEFAULT_255_2_778
10
20.0839278
20
11.2012674
40
8.2036738
50
243.8823416
51
244.4683862
0
ARC
8
DEFAULT_255_2_778
10
17.5186738
20
5.9626889
40
2.3707323
50
242.3033592
51
243.8150403
0
ARC
8
DEFAULT_255_2_778
10
16.6546216
20
4.5237042
40
0.7016516
50
202.197875
51
250.1856988
0
ARC
8
DEFAULT_255_2_778
10
16.7234986
20
4.5130148
40
0.7622319
50
183.6121078
51
199.4968736
0
ARC
8
DEFAULT_255_2_778
10
17.231107
20
4.5716617
40
1.2728038
50
181.4621357
51
184.8073714
0
ARC
8
DEFAULT_255_2_778
10
17.0903252
20
4.5672915
40
1.1319565
50
180.0072934
51
181.4228255
0
ARC
8
DEFAULT_255_2_778
10
16.7663735
20
4.579171
40
0.8080943
50
162.8092186
51
180.8525385
0
ARC
8
DEFAULT_255_2_778
10
16.5325185
20
4.6421872
40
0.5661321
50
111.2593714
51
161.9068382
0
ARC
8
DEFAULT_255_2_778
10
16.7563637
20
4.1639444
40
1.0935607
50
100.7557317
51
113.1042636
0
ARC
8
DEFAULT_255_2_778
10
16.6809959
20
4.5967734
40
0.654305
50
89.9021661
51
101.3452348
0
ARC
8
DEFAULT_255_2_778
10
16.6430437
20
4.1718831
40
1.0799015
50
66.8450872
51
87.9266572
0
ARC
8
DEFAULT_255_2_778
10
17.0353492
20
5.0026998
40
0.1652864
50
3.9513716
51
78.7196419
0
ARC
8
DEFAULT_255_2_778
10
17.0333154
20
5.0155193
40
0.1669333
50
340.9419264
51
359.5092969
0
ARC
8
DEFAULT_255_2_778
10
16.9928175
20
5.0273997
40
0.2091002
50
340.9622715
51
341.4884354
0
ARC
8
DEFAULT_255_2_778
10
17.0461578
20
4.9976933
40
0.14937
50
322.5984265
51
345.0633674
0
ARC
8
DEFAULT_255_2_778
10
17.1114608
20
4.9484148
40
0.067564
50
268.7143621
51
322.1590228
0
ARC
8
DEFAULT_255_2_778
10
17.1213538
20
5.0614678
40
0.18096
50
242.9492977
51
266.3852991
0
ARC
8
DEFAULT_255_2_778
10
17.3889202
20
5.6665945
40
0.8423808
50
243.231268
51
245.4601126
0
ARC
8
DEFAULT_255_2_778
10
13.4234083
20
-2.2537726
40
8.0152471
50
63.4222876
51
63.5456252
0
ARC
8
DEFAULT_255_2_778
10
16.6955598
20
4.358642
40
0.637734
50
62.089191
51
85.2309346
0
ARC
8
DEFAULT_255_2_778
10
16.673504
20
4.175315
40
0.8222876
50
84.7614634
51
90.0754253
0
ARC
8
DEFAULT_255_2_778
10
16.6799321
20
3.8602618
40
1.1373649
50
90.3783508
51
98.9453348
0
ARC
8
DEFAULT_255_2_778
10
16.5477215
20
4.6564108
40
0.3304118
50
97.7647496
51
162.3375695
0
ARC
8
DEFAULT_255_2_778
10
16.5892551
20
4.6495582
40
0.3721161
50
163.2725513
51
171.9772554
0
ARC
8
DEFAULT_255_2_778
10
17.0056661
20
4.5850689
40
0.793473
50
171.5626842
51
179.6852467
0
ARC
8
DEFAULT_255_2_778
10
16.6154841
20
4.5701546
40
0.4037392
50
177.2638465
51
227.6459357
0
ARC
8
DEFAULT_255_2_778
10
17.1553809
20
5.3228551
40
1.3281239
50
232.3154645
51
248.9767586
0
ARC
8
DEFAULT_255_2_778
10
27.2571211
20
28.5819873
40
26.6850509
50
246.6461076
51
246.7018597
0
ARC
8
DEFAULT_255_2_778
10
15.5639112
20
1.3602103
40
2.9420121
50
63.8856132
51
67.2258137
0
ARC
8
DEFAULT_255_2_778
10
16.5676777
20
3.3639455
40
0.7012677
50
8.8273081
51
65.4647808
0
ARC
8
DEFAULT_255_2_778
10
16.2347749
20
3.2922545
40
1.0414162
50
359.7435422
51
9.9142764
0
ARC
8
DEFAULT_255_2_778
10
16.042405
20
3.2634092
40
1.2340128
50
345.8653401
51
1.1229387
0
ARC
8
DEFAULT_255_2_778
10
16.6263914
20
3.1175587
40
0.6320912
50
302.3846222
51
345.7587757
0
ARC
8
DEFAULT_255_2_778
10
16.5184315
20
3.2648873
40
0.8144216
50
300.532591
51
303.247152
0
ARC
8
DEFAULT_255_2_778
10
16.7078915
20
2.8852476
40
0.3922959
50
292.3523179
51
304.871311
0
ARC
8
DEFAULT_255_2_778
10
16.6275868
20
3.1195206
40
0.639678
50
276.1500785
51
291.0244749
0
ARC
8
DEFAULT_255_2_778
10
15.0085953
20
14.8564826
40
12.4875071
50
277.6402958
51
277.7665328
0
ARC
8
DEFAULT_255_2_778
10
16.7409365
20
1.8568001
40
0.6271921
50
96.5996443
51
103.6663785
0
ARC
8
DEFAULT_255_2_778
10
16.6599078
20
2.2158597
40
0.2592256
50
105.0146886
51
106.0401658
0
ARC
8
DEFAULT_255_2_778
10
18.470437
20
4.7428137
40
0.8055421
50
356.874508
51
359.5306206
0
ARC
8
DEFAULT_255_2_778
10
18.5814078
20
4.7412976
40
0.6945628
50
359.5806885
51
0.0010369
0
ARC
8
DEFAULT_255_2_778
10
18.859673
20
4.7509816
40
0.41641
50
358.6691489
51
15.7741604
0
ARC
8
DEFAULT_255_2_778
10
19.0996788
20
4.8203444
40
0.1665933
50
15.2562181
51
97.0405222
0
ARC
8
DEFAULT_255_2_778
10
19.0810659
20
4.5360525
40
0.4496327
50
90.2302165
51
96.5997806
0
ARC
8
DEFAULT_255_2_778
10
19.0941573
20
4.4048894
40
0.5814349
50
96.3957588
51
97.6176891
0
ARC
8
DEFAULT_255_2_778
10
18.945519
20
5.4368579
40
0.46125
50
269.3493168
51
278.9253641
0
ARC
8
DEFAULT_255_2_778
10
18.9423105
20
5.9747942
40
0.9991587
50
267.7329043
51
269.8836149
0
ARC
8
DEFAULT_255_2_778
10
19.0140212
20
7.7606405
40
2.7864442
50
266.8467449
51
267.7121333
0
ARC
8
DEFAULT_255_2_778
10
18.7687051
20
3.4985601
40
1.4827149
50
86.4409648
51
89.3981033
0
ARC
8
DEFAULT_255_2_778
10
18.7726724
20
5.0921867
40
0.111599
50
174.100563
51
275.9706544
0
ARC
8
DEFAULT_255_2_778
10
18.9205536
20
5.1134041
40
0.2590726
50
179.9803263
51
182.1561215
0
ARC
8
DEFAULT_255_2_778
10
18.7744024
20
5.1229078
40
0.1133133
50
91.2750746
51
184.7659558
0
ARC
8
DEFAULT_255_2_778
10
20.0316489
20
5.1336611
40
0.1028258
50
355.6674393
51
94.3325864
0
ARC
8
DEFAULT_255_2_778
10
20.0176476
20
5.1109173
40
0.1174916
50
266.9425063
51
7.3230038
0
ARC
8
DEFAULT_255_2_778
10
20.0288181
20
2.9946337
40
1.9990354
50
90.499788
51
93.0499909
0
ARC
8
DEFAULT_255_2_778
10
19.7416071
20
8.8185046
40
3.831937
50
271.9934802
51
272.7050722
0
ARC
8
DEFAULT_255_2_778
10
19.8282759
20
6.3355731
40
1.3474932
50
270.1033636
51
271.9830385
0
ARC
8
DEFAULT_255_2_778
10
19.8248199
20
5.6162996
40
0.6282452
50
262.3862368
51
270.5368898
0
ARC
8
DEFAULT_255_2_778
10
19.7098388
20
4.5645776
40
0.4301882
50
85.7685049
51
89.8992566
0
ARC
8
DEFAULT_255_2_778
10
19.6988244
20
4.8015677
40
0.1935557
50
86.5134901
51
123.6184895
0
ARC
8
DEFAULT_255_2_778
10
19.7105175
20
4.8230179
40
0.1834448
50
130.3847962
51
175.1890115
0
ARC
8
DEFAULT_255_2_778
10
20.1521928
20
4.743415
40
0.6316568
50
171.3510822
51
180.6823118
0
ARC
8
DEFAULT_255_2_778
10
18.574462
20
2.7243811
40
0.9461192
50
358.7071039
51
0.0431154
0
ARC
8
DEFAULT_255_2_778
10
19.2928541
20
2.6842742
40
0.2282583
50
323.4363891
51
4.7141479
0
ARC
8
DEFAULT_255_2_778
10
19.4035664
20
2.6248872
40
0.1055473
50
266.9121431
51
313.4774671
0
ARC
8
DEFAULT_255_2_778
10
19.3888808
20
2.6268022
40
0.1076858
50
220.6223633
51
274.7941852
0
ARC
8
DEFAULT_255_2_778
10
19.500049
20
2.6733008
40
0.2254098
50
175.639963
51
211.1528502
0
ARC
8
DEFAULT_255_2_778
10
21.1874124
20
2.7193966
40
1.9123401
50
179.8293268
51
180.8676853
0
LINE
8
DEFAULT_255_2_778
10
3.5172809
20
3.5174931
11
3.7672809
21
3.7674931
0
LINE
8
DEFAULT_255_2_778
10
3.8564809
20
3.7674931
11
4.1475809
21
3.4764931
0
LINE
8
DEFAULT_255_2_778
10
4.1099809
20
3.3703931
11
3.6302809
21
3.3086931
0
LINE
8
DEFAULT_255_2_778
10
3.6302809
20
3.3086931
11
3.6061809
21
3.3049931
0
LINE
8
DEFAULT_255_2_778
10
3.6061809
20
3.4319931
11
3.9694809
21
3.4764931
0
LINE
8
DEFAULT_255_2_778
10
3.9694809
20
3.4764931
11
3.8106809
21
3.6351931
0
LINE
8
DEFAULT_255_2_778
10
3.8106809
20
3.6351931
11
3.6051809
21
3.4296931
0
LINE
8
DEFAULT_255_2_778
10
3.6051809
20
3.4296931
11
3.6061809
21
3.4319931
0
LINE
8
DEFAULT_255_2_778
10
6.5851809
20
5.9092931
11
6.5874809
21
5.9095931
0
LINE
8
DEFAULT_255_2_778
10
23.0678809
20
4.4908931
11
22.6630809
21
3.6190931
0
LINE
8
DEFAULT_255_2_778
10
22.3833809
20
3.6314931
11
22.0521809
21
4.3556931
0
LINE
8
DEFAULT_255_2_778
10
21.9296809
20
4.3217931
11
21.9296809
21
2.8366931
0
LINE
8
DEFAULT_255_2_778
10
21.6745809
20
2.6157931
11
21.6745809
21
4.9234931
0
LINE
8
DEFAULT_255_2_778
10
22.0055809
20
5.0218931
11
22.3825809
21
4.1871931
0
LINE
8
DEFAULT_255_2_778
10
22.6897809
20
4.1871931
11
23.0667809
21
4.9972931
0
LINE
8
DEFAULT_255_2_778
10
23.4104809
20
4.9112931
11
23.4104809
21
2.7752931
0
LINE
8
DEFAULT_255_2_778
10
23.1554809
20
2.7877931
11
23.1554809
21
4.1995931
0
LINE
8
DEFAULT_255_2_778
10
23.0697809
20
4.4942931
11
23.0678809
21
4.4908931
0
LINE
8
DEFAULT_255_2_778
10
28.2849809
20
4.1714931
11
28.2849809
21
2.7109931
0
LINE
8
DEFAULT_255_2_778
10
28.0542809
20
2.7109931
11
28.0542809
21
4.9700931
0
LINE
8
DEFAULT_255_2_778
10
28.3608809
20
5.0435931
11
28.9622809
21
3.7053931
0
LINE
8
DEFAULT_255_2_778
10
29.2323809
20
3.4719931
11
29.2323809
21
4.9112931
0
LINE
8
DEFAULT_255_2_778
10
29.4755809
20
5.0581931
11
29.4755809
21
2.7871931
0
LINE
8
DEFAULT_255_2_778
10
29.1569809
20
2.7136931
11
28.4695809
21
4.2357931
0
LINE
8
DEFAULT_255_2_778
10
28.3373809
20
4.4321931
11
28.3338809
21
4.4291931
0
LINE
8
DEFAULT_255_2_778
10
14.4014809
20
3.8502931
11
14.4016809
21
3.8524931
0
LINE
8
DEFAULT_255_2_778
10
14.1564809
20
3.8524931
11
14.1564809
21
4.4778931
0
LINE
8
DEFAULT_255_2_778
10
13.2452809
20
4.4778931
11
13.2452809
21
3.2099931
0
LINE
8
DEFAULT_255_2_778
10
14.1564809
20
3.8484931
11
14.1564809
21
3.8524931
0
LINE
8
DEFAULT_255_2_778
10
26.3090809
20
2.5755931
11
26.2600809
21
2.7353931
0
LINE
8
DEFAULT_255_2_778
10
25.8144809
20
3.1123931
11
25.7068809
21
3.1123931
0
LINE
8
DEFAULT_255_2_778
10
24.9207809
20
2.7652931
11
25.5221809
21
4.9872931
0
LINE
8
DEFAULT_255_2_778
10
25.9115809
20
4.9872931
11
26.4762809
21
2.8763931
0
LINE
8
DEFAULT_255_2_778
10
26.5251809
20
2.6554931
11
26.5270809
21
2.6617931
0
LINE
8
DEFAULT_255_2_778
10
25.7047809
20
3.3491931
11
25.8274809
21
3.3491931
0
LINE
8
DEFAULT_255_2_778
10
26.0237809
20
3.6677931
11
25.7909809
21
4.5392931
0
LINE
8
DEFAULT_255_2_778
10
25.6189809
20
4.5268931
11
25.4226809
21
3.7899931
0
LINE
8
DEFAULT_255_2_778
10
25.7049809
20
3.3444931
11
25.7047809
21
3.3491931
0
LINE
8
DEFAULT_255_2_778
10
10.0810809
20
3.8518931
11
10.0810809
21
4.9895931
0
LINE
8
DEFAULT_255_2_778
10
10.2866809
20
5.2348931
11
10.7038809
21
5.2348931
0
LINE
8
DEFAULT_255_2_778
10
10.0754809
20
2.6938931
11
10.0754809
21
3.8481931
0
LINE
8
DEFAULT_255_2_778
10
10.0754809
20
3.8481931
11
10.0810809
21
3.8518931
0
LINE
8
DEFAULT_255_2_778
10
10.3144809
20
4.7607931
11
10.3144809
21
4.2082931
0
LINE
8
DEFAULT_255_2_778
10
10.6583809
20
3.8156931
11
10.6578809
21
3.8148931
0
LINE
8
DEFAULT_255_2_778
10
16.5882809
20
2.4649931
11
16.5861809
21
2.4646931
0
LINE
8
DEFAULT_255_2_778
10
19.2747809
20
3.7537931
11
19.2747809
21
4.6988931
0
LINE
8
DEFAULT_255_2_778
10
18.7718809
20
5.2361931
11
20.0238809
21
5.2361931
0
LINE
8
DEFAULT_255_2_778
10
19.5205809
20
4.7358931
11
19.5205809
21
2.7250931
0
LINE
8
DEFAULT_255_2_778
10
19.2750809
20
2.7250931
11
19.2750809
21
3.7529931
0
LINE
8
DEFAULT_255_2_778
10
19.2750809
20
3.7529931
11
19.2747809
21
3.7537931
0
ENDSEC
0
EOF