0
SECTION
2
HEADER
9
$MEASUREMENT
70
1
0
ENDSEC
0
SECTION
2
TABLES
0
TABLE
2
LTYPE
0
LTYPE
72
65
70
64
2
CONTINUOUS
3
______
73
0
40
0
0
ENDTAB
0
TABLE
2
LAYER
0
LAYER
2
DEFAULT_255_2_778
70
0
62
255
6
CONTINUOUS
0
ENDTAB
0
ENDSEC
0
SECTION
2
ENTITIES
0
ARC
8
DEFAULT_255_2_778
10
21.6402012
20
2.4152435
40
0.8042825
50
311.9552188
51
0.1279936
0
ARC
8
DEFAULT_255_2_778
10
21.6482677
20
2.4038828
40
0.7904428
50
269.950279
51
312.0709415
0
ARC
8
DEFAULT_255_2_778
10
21.6515372
20
2.416681
40
0.8032505
50
181.4503902
51
269.7178563
0
ARC
8
DEFAULT_255_2_778
10
21.6643244
20
2.4170424
40
0.8160427
50
180.0001495
51
181.4530273
0
ARC
8
DEFAULT_255_2_778
10
21.6533751
20
2.4180096
40
0.8050939
50
127.7331118
51
180.0689826
0
ARC
8
DEFAULT_255_2_778
10
21.6444316
20
2.4319194
40
0.7886211
50
89.9455021
51
127.8376979
0
ARC
8
DEFAULT_255_2_778
10
21.6416474
20
2.4202443
40
0.8003037
50
2.7264285
51
89.7469683
0
ARC
8
DEFAULT_255_2_778
10
21.6209623
20
2.41707
40
0.8211194
50
359.997926
51
2.879019
0
LINE
8
DEFAULT_255_2_778
10
22.4420817
20
2.4170402
11
22.4444817
21
2.4170402
0
ARC
8
DEFAULT_255_2_778
10
21.6382102
20
0.5924336
40
0.8062704
50
311.3356937
51
0.1123118
0
ARC
8
DEFAULT_255_2_778
10
21.6480653
20
0.5785606
40
0.7893468
50
269.9647043
51
311.4636571
0
ARC
8
DEFAULT_255_2_778
10
21.651064
20
0.5919849
40
0.8027784
50
181.4929168
51
269.7512719
0
ARC
8
DEFAULT_255_2_778
10
21.6641979
20
0.5923977
40
0.8159187
50
179.9988533
51
181.4978662
0
ARC
8
DEFAULT_255_2_778
10
21.6532895
20
0.5936035
40
0.8050113
50
128.7557073
51
180.0846575
0
ARC
8
DEFAULT_255_2_778
10
21.6444183
20
0.6070093
40
0.789005
50
89.944754
51
128.8627562
0
ARC
8
DEFAULT_255_2_778
10
21.6416272
20
0.5957043
40
0.8003175
50
2.7208486
51
89.7457172
0
ARC
8
DEFAULT_255_2_778
10
21.6205951
20
0.5924438
40
0.821484
50
359.9979256
51
2.8783735
0
ARC
8
DEFAULT_255_2_778
10
23.5321226
20
2.417903
40
0.8041585
50
311.7758925
51
0.1290344
0
ARC
8
DEFAULT_255_2_778
10
23.5398519
20
2.4069725
40
0.790859
50
269.9440093
51
311.8858642
0
ARC
8
DEFAULT_255_2_778
10
23.5428322
20
2.4166331
40
0.8005279
50
182.7351388
51
269.7313727
0
ARC
8
DEFAULT_255_2_778
10
23.5630282
20
2.4196842
40
0.8208491
50
179.9979204
51
182.8805981
0
ARC
8
DEFAULT_255_2_778
10
23.5471496
20
2.4206306
40
0.8049711
50
128.3894986
51
180.0652407
0
ARC
8
DEFAULT_255_2_778
10
23.538522
20
2.4343597
40
0.7888545
50
89.959543
51
128.5175795
0
ARC
8
DEFAULT_255_2_778
10
23.535118
20
2.4224617
40
0.8007621
50
2.3900611
51
89.7165812
0
ARC
8
DEFAULT_255_2_778
10
23.5158958
20
2.4197405
40
0.8200832
50
359.9981491
51
2.52401
0
ARC
8
DEFAULT_255_2_778
10
23.5301336
20
0.5924202
40
0.806147
50
311.1564244
51
0.1132789
0
ARC
8
DEFAULT_255_2_778
10
23.5396524
20
0.5789754
40
0.7897617
50
269.9584054
51
311.2784054
0
ARC
8
DEFAULT_255_2_778
10
23.5426174
20
0.5895148
40
0.8003086
50
182.7286529
51
269.7466822
0
ARC
8
DEFAULT_255_2_778
10
23.563684
20
0.5926835
40
0.8215049
50
179.99787
51
182.8794531
0
ARC
8
DEFAULT_255_2_778
10
23.5471233
20
0.5937925
40
0.804945
50
129.0721667
51
180.0767633
0
ARC
8
DEFAULT_255_2_778
10
23.5385183
20
0.6071997
40
0.7891145
50
89.9592885
51
129.2006895
0
ARC
8
DEFAULT_255_2_778
10
23.5350343
20
0.5954792
40
0.800845
50
2.3885746
51
89.7106207
0
ARC
8
DEFAULT_255_2_778
10
23.5158772
20
0.5927403
40
0.8201018
50
359.9981615
51
2.5239805
0
ARC
8
DEFAULT_255_2_778
10
25.4231627
20
2.4177176
40
0.8043188
50
312.1502346
51
0.1422182
0
ARC
8
DEFAULT_255_2_778
10
25.4315071
20
2.4065668
40
0.7904533
50
269.9327323
51
312.2442173
0
ARC
8
DEFAULT_255_2_778
10
25.4341309
20
2.4164237
40
0.8003175
50
182.7208486
51
269.7457172
0
ARC
8
DEFAULT_255_2_778
10
25.455163
20
2.4196843
40
0.821484
50
179.9979256
51
182.8783735
0
ARC
8
DEFAULT_255_2_778
10
25.438586
20
2.4208623
40
0.8049078
50
128.4317197
51
180.0817354
0
ARC
8
DEFAULT_255_2_778
10
25.4298047
20
2.4342538
40
0.7889605
50
89.9437636
51
128.5366624
0
ARC
8
DEFAULT_255_2_778
10
25.4270447
20
2.4229181
40
0.8003037
50
2.7264285
51
89.7469683
0
ARC
8
DEFAULT_255_2_778
10
25.4063596
20
2.4197437
40
0.8211194
50
359.997926
51
2.879019
0
LINE
8
DEFAULT_255_2_778
10
22.442079
20
0.592414
11
22.444479
21
0.594014
0
LINE
8
DEFAULT_255_2_778
10
24.335979
20
2.419714
11
24.336279
21
2.419714
0
LINE
8
DEFAULT_255_2_778
10
24.335979
20
0.592714
11
24.336279
21
0.594014
0
LINE
8
DEFAULT_255_2_778
10
26.227479
20
2.419714
11
26.227479
21
2.419714
0
ARC
8
DEFAULT_255_2_778
10
25.4191249
20
0.592272
40
0.8064538
50
311.5351836
51
0.1256272
0
ARC
8
DEFAULT_255_2_778
10
25.4293772
20
0.5784521
40
0.7893122
50
269.9491584
51
311.6433008
0
ARC
8
DEFAULT_255_2_778
10
25.4321611
20
0.5893781
40
0.8002455
50
182.7631704
51
269.7505304
0
ARC
8
DEFAULT_255_2_778
10
25.4534904
20
0.5927049
40
0.8217136
50
179.9975334
51
182.9231683
0
ARC
8
DEFAULT_255_2_778
10
25.4365673
20
0.5939697
40
0.8047914
50
129.086163
51
180.0875309
0
ARC
8
DEFAULT_255_2_778
10
25.4279329
20
0.6070248
40
0.7892157
50
89.9459939
51
129.1971706
0
ARC
8
DEFAULT_255_2_778
10
25.4251424
20
0.5959443
40
0.8003037
50
2.7264285
51
89.7469683
0
ARC
8
DEFAULT_255_2_778
10
25.4044573
20
0.59277
40
0.8211194
50
359.997926
51
2.879019
0
LINE
8
DEFAULT_255_2_778
10
26.2255768
20
0.5927402
11
26.2255768
21
0.5940402
0
ARC
8
DEFAULT_255_2_778
10
1.0842294
20
0.8293914
40
2.3406209
50
81.8720019
51
90.3127232
0
ARC
8
DEFAULT_255_2_778
10
1.2148615
20
1.7128757
40
1.447549
50
69.0799058
51
82.0464927
0
ARC
8
DEFAULT_255_2_778
10
1.4009901
20
2.1953995
40
0.9303746
50
49.4162018
51
69.1763622
0
ARC
8
DEFAULT_255_2_778
10
1.3254344
20
2.1296619
40
1.0295567
50
8.3161723
51
48.6028358
0
ARC
8
DEFAULT_255_2_778
10
0.853144
20
2.033533
40
1.5110223
50
359.7703829
51
9.3327527
0
ARC
8
DEFAULT_255_2_778
10
0.9420122
20
2.0161983
40
1.4221868
50
344.1422129
51
0.4544086
0
ARC
8
DEFAULT_255_2_778
10
1.1560138
20
1.9624768
40
1.2016693
50
331.6294641
51
343.8180321
0
ARC
8
DEFAULT_255_2_778
10
1.4293191
20
1.822619
40
0.8947592
50
280.5926892
51
331.1935735
0
ARC
8
DEFAULT_255_2_778
10
1.3384817
20
2.1133409
40
1.1977618
50
281.9825849
51
282.3077212
0
ARC
8
DEFAULT_255_2_778
10
1.3025202
20
2.4089315
40
1.4946072
50
272.42897
51
280.9785028
0
ARC
8
DEFAULT_255_2_778
10
1.2411065
20
3.431045
40
2.5184697
50
269.9260098
51
272.8393993
0
ARC
8
DEFAULT_255_2_778
10
1.2459397
20
3.9417932
40
3.0292265
50
268.8260853
51
269.847068
0
ARC
8
DEFAULT_255_2_778
10
1.3590411
20
9.9313528
40
9.0198512
50
268.3641734
51
268.8872695
0
ARC
8
DEFAULT_255_2_778
10
1.1485219
20
2.0145638
40
0.3506497
50
268.910443
51
270.0012946
0
ARC
8
DEFAULT_255_2_778
10
1.1484277
20
2.0155562
40
0.3516423
50
270.0166442
51
307.1231047
0
ARC
8
DEFAULT_255_2_778
10
1.1661993
20
1.9859824
40
0.3173576
50
307.7872582
51
355.0161188
0
ARC
8
DEFAULT_255_2_778
10
0.8982405
20
2.0372851
40
0.5894177
50
352.3098678
51
0.2131216
0
ARC
8
DEFAULT_255_2_778
10
1.0306459
20
2.0539158
40
0.4572363
50
358.1904468
51
30.3615145
0
ARC
8
DEFAULT_255_2_778
10
1.1141753
20
2.0920891
40
0.3659856
50
31.8148331
51
41.4120482
0
ARC
8
DEFAULT_255_2_778
10
1.1710248
20
2.1491575
40
0.2856483
50
40.3698703
51
89.999419
0
ARC
8
DEFAULT_255_2_778
10
1.1710216
20
2.1489157
40
0.2858902
50
89.998787
51
91.7172614
0
ARC
8
DEFAULT_255_2_778
10
3.8332519
20
2.2095832
40
1.0181614
50
90.0001771
51
90.6582866
0
ARC
8
DEFAULT_255_2_778
10
3.8332518
20
2.2119171
40
1.0158276
50
48.4702611
51
90.000169
0
ARC
8
DEFAULT_255_2_778
10
3.6335556
20
1.9745704
40
1.3259317
50
23.6602642
51
48.8102557
0
ARC
8
DEFAULT_255_2_778
10
3.0991538
20
1.7300883
40
1.9135494
50
11.414654
51
23.9437866
0
ARC
8
DEFAULT_255_2_778
10
2.2126845
20
1.5450694
40
2.8191077
50
3.0492609
51
11.5349723
0
ARC
8
DEFAULT_255_2_778
10
1.2935465
20
1.4822939
40
3.7403091
50
359.9507303
51
3.2605572
0
ARC
8
DEFAULT_255_2_778
10
2.0205898
20
1.4660722
40
3.0132926
50
351.6489182
51
0.2472886
0
ARC
8
DEFAULT_255_2_778
10
2.9051434
20
1.3329267
40
2.1187828
50
339.5380019
51
351.7371441
0
ARC
8
DEFAULT_255_2_778
10
3.405693
20
1.1463438
40
1.584589
50
322.7216468
51
339.5316811
0
ARC
8
DEFAULT_255_2_778
10
3.7678254
20
0.8601441
40
1.1231231
50
297.8357178
51
323.149694
0
ARC
8
DEFAULT_255_2_778
10
3.8309663
20
0.7537705
40
0.9995942
50
270.0471062
51
297.4823426
0
ARC
8
DEFAULT_255_2_778
10
3.8314798
20
0.3886978
40
0.6345212
50
269.9164282
51
270.0278444
0
ARC
8
DEFAULT_255_2_778
10
3.8341204
20
0.8167556
40
1.0625841
50
232.233842
51
269.8077075
0
ARC
8
DEFAULT_255_2_778
10
3.9792663
20
1.0440447
40
1.3313777
50
232.5151473
51
233.2865637
0
ARC
8
DEFAULT_255_2_778
10
3.9508281
20
0.998922
40
1.2782755
50
204.4928176
51
232.2958162
0
ARC
8
DEFAULT_255_2_778
10
4.4698636
20
1.2478906
40
1.8538569
50
192.1486401
51
204.8446379
0
ARC
8
DEFAULT_255_2_778
10
5.317126
20
1.4368034
40
2.7219087
50
183.8722529
51
192.2828726
0
ARC
8
DEFAULT_255_2_778
10
6.2724165
20
1.5127642
40
3.6801655
50
179.923506
51
184.0477858
0
ARC
8
DEFAULT_255_2_778
10
5.5989139
20
1.5306192
40
3.0066876
50
172.0134886
51
180.24662
0
ARC
8
DEFAULT_255_2_778
10
4.6680273
20
1.6652075
40
2.0661339
50
160.1129876
51
172.1229023
0
ARC
8
DEFAULT_255_2_778
10
4.1073074
20
1.8713322
40
1.468739
50
140.6559186
51
160.2337003
0
ARC
8
DEFAULT_255_2_778
10
3.9909003
20
1.9680445
40
1.3174023
50
123.7996117
51
140.6991236
0
ARC
8
DEFAULT_255_2_778
10
3.8140912
20
2.2207799
40
1.0090447
50
89.4456223
51
123.4400545
0
ARC
8
DEFAULT_255_2_778
10
3.8303931
20
2.1767574
40
0.2083227
50
91.7987099
51
148.1131044
0
ARC
8
DEFAULT_255_2_778
10
4.0564951
20
1.9974563
40
0.4961047
50
144.3215094
51
155.5012912
0
ARC
8
DEFAULT_255_2_778
10
4.4695568
20
1.803967
40
0.9522256
50
155.213426
51
168.4090155
0
ARC
8
DEFAULT_255_2_778
10
5.3698974
20
1.6085796
40
1.8734928
50
168.0878076
51
175.8573429
0
ARC
8
DEFAULT_255_2_778
10
6.6887728
20
1.5021216
40
3.1966314
50
175.6618964
51
180.1621052
0
ARC
8
DEFAULT_255_2_778
10
6.9476426
20
1.4810301
40
3.4555094
50
179.8002411
51
184.4967912
0
ARC
8
DEFAULT_255_2_778
10
5.3991814
20
1.3545467
40
1.9019038
50
184.3555148
51
191.5983429
0
ARC
8
DEFAULT_255_2_778
10
4.439048
20
1.1518935
40
0.9206484
50
191.2572458
51
203.7720148
0
ARC
8
DEFAULT_255_2_778
10
4.1111681
20
1.0165928
40
0.566109
50
204.6168018
51
208.2000097
0
ARC
8
DEFAULT_255_2_778
10
3.888795
20
0.88048
40
0.3061722
50
205.4154275
51
234.6152339
0
ARC
8
DEFAULT_255_2_778
10
3.809119
20
0.7795021
40
0.1778275
50
236.7053789
51
270.3335476
0
ARC
8
DEFAULT_255_2_778
10
3.8021407
20
0.805754
40
0.2042338
50
272.2487102
51
325.0486723
0
ARC
8
DEFAULT_255_2_778
10
3.5981409
20
0.9868987
40
0.476264
50
321.2436147
51
331.0654642
0
ARC
8
DEFAULT_255_2_778
10
3.3912097
20
1.096622
40
0.7104615
50
331.3951869
51
346.569179
0
ARC
8
DEFAULT_255_2_778
10
2.5824304
20
1.302422
40
1.544972
50
346.1124503
51
354.4606512
0
ARC
8
DEFAULT_255_2_778
10
1.1853692
20
1.4470223
40
2.9494812
50
354.2845056
51
359.5533472
0
ARC
8
DEFAULT_255_2_778
10
0.0309536
20
1.4730879
40
4.1041006
50
359.3151006
51
0.0054389
0
ARC
8
DEFAULT_255_2_778
10
0.0442554
20
1.4860179
40
4.090818
50
359.8243599
51
3.8373973
0
ARC
8
DEFAULT_255_2_778
10
1.9153165
20
1.6161138
40
2.2152498
50
3.7188564
51
9.8643487
0
ARC
8
DEFAULT_255_2_778
10
3.0613319
20
1.8207604
40
1.0511312
50
9.5759853
51
20.0716969
0
ARC
8
DEFAULT_255_2_778
10
3.6541265
20
2.044442
40
0.4176272
50
19.1591171
51
41.2762382
0
ARC
8
DEFAULT_255_2_778
10
3.824695
20
2.1937108
40
0.1909676
50
41.3785986
51
90.162235
0
ARC
8
DEFAULT_255_2_778
10
11.8900509
20
0.8964988
40
2.273513
50
81.9478252
51
90.3149352
0
ARC
8
DEFAULT_255_2_778
10
12.0181211
20
1.7707946
40
1.3899044
50
69.2834367
51
82.1267627
0
ARC
8
DEFAULT_255_2_778
10
12.198373
20
2.2449379
40
0.8826555
50
50.8236938
51
69.3399908
0
ARC
8
DEFAULT_255_2_778
10
12.1569972
20
2.2090546
40
0.9366571
50
21.40384
51
50.2482505
0
ARC
8
DEFAULT_255_2_778
10
11.8518769
20
2.0636434
40
1.2740265
50
359.9965464
51
22.484681
0
ARC
8
DEFAULT_255_2_778
10
11.8532599
20
2.0635451
40
1.2726434
50
359.4972151
51
0.0009673
0
ARC
8
DEFAULT_255_2_778
10
11.9721216
20
2.039152
40
1.1538085
50
344.360225
51
0.6567677
0
ARC
8
DEFAULT_255_2_778
10
12.3195956
20
1.9446301
40
0.7937219
50
292.9393761
51
344.1687324
0
ARC
8
DEFAULT_255_2_778
10
11.9255077
20
1.9164993
40
0.297695
50
268.0454412
51
270.0003087
0
ARC
8
DEFAULT_255_2_778
10
11.9255584
20
1.915538
40
0.2967338
50
269.9905182
51
323.0044167
0
ARC
8
DEFAULT_255_2_778
10
11.7892642
20
2.0302551
40
0.4747181
50
321.8448366
51
1.3304606
0
ARC
8
DEFAULT_255_2_778
10
11.7962068
20
2.0540905
40
0.467823
50
358.4305573
51
22.5073628
0
ARC
8
DEFAULT_255_2_778
10
11.9600884
20
2.1137689
40
0.2936776
50
23.9905536
51
73.2440797
0
ARC
8
DEFAULT_255_2_778
10
11.9084057
20
1.953032
40
0.4625006
50
72.8540162
51
87.5405324
0
ARC
8
DEFAULT_255_2_778
10
11.8593503
20
1.3248544
40
1.0924272
50
86.3837905
51
90.1571371
0
ARC
8
DEFAULT_255_2_778
10
14.323302
20
1.3576419
40
1.8123833
50
77.61365
51
90.4156498
0
ARC
8
DEFAULT_255_2_778
10
14.452998
20
1.9147776
40
1.2404163
50
51.0404161
51
77.9448423
0
ARC
8
DEFAULT_255_2_778
10
14.4738512
20
1.956536
40
1.1948756
50
40.2251135
51
50.5589197
0
ARC
8
DEFAULT_255_2_778
10
14.1774011
20
1.7117284
40
1.5793203
50
14.887395
51
40.060717
0
ARC
8
DEFAULT_255_2_778
10
13.5801298
20
1.5423101
40
2.2000938
50
3.0667529
51
15.1551216
0
ARC
8
DEFAULT_255_2_778
10
12.96986
20
1.4943835
40
2.8120949
50
359.963202
51
3.3766313
0
ARC
8
DEFAULT_255_2_778
10
12.8625309
20
1.4796927
40
2.9194518
50
351.820108
51
0.2528718
0
ARC
8
DEFAULT_255_2_778
10
13.764695
20
1.3460162
40
2.0074502
50
339.5584012
51
351.9329956
0
ARC
8
DEFAULT_255_2_778
10
14.2984975
20
1.1438921
40
1.4366727
50
319.0965053
51
339.676619
0
ARC
8
DEFAULT_255_2_778
10
14.5660777
20
0.9198692
40
1.0877608
50
284.9805507
51
318.7863348
0
ARC
8
DEFAULT_255_2_778
10
14.4799645
20
1.2843502
40
1.4621555
50
274.8146638
51
284.5483844
0
ARC
8
DEFAULT_255_2_778
10
14.3799467
20
2.3305139
40
2.5130505
50
269.808657
51
275.0850026
0
ARC
8
DEFAULT_255_2_778
10
14.4174847
20
1.0353229
40
0.4075773
50
271.4578727
51
337.9332701
0
ARC
8
DEFAULT_255_2_778
10
13.9750242
20
1.2599265
40
0.9029805
50
335.2721307
51
349.5330334
0
ARC
8
DEFAULT_255_2_778
10
13.1820085
20
1.4155056
40
1.7110874
50
349.2342046
51
357.8327437
0
ARC
8
DEFAULT_255_2_778
10
12.3334165
20
1.4635432
40
2.5609386
50
357.4767378
51
0.0455132
0
ARC
8
DEFAULT_255_2_778
10
12.8017156
20
1.4780419
40
2.0926757
50
359.6587327
51
7.7474826
0
ARC
8
DEFAULT_255_2_778
10
13.6911083
20
1.6036303
40
1.1944801
50
7.5294547
51
20.3734309
0
ARC
8
DEFAULT_255_2_778
10
14.1722783
20
1.7864486
40
0.6797756
50
20.0473624
51
42.6005943
0
ARC
8
DEFAULT_255_2_778
10
14.4679369
20
2.0310177
40
0.2972797
50
46.4777971
51
82.5973878
0
ARC
8
DEFAULT_255_2_778
10
14.4220052
20
1.8070273
40
0.5255861
50
80.7776794
51
89.3296554
0
ARC
8
DEFAULT_255_2_778
10
19.7927489
20
1.6394422
40
1.2152019
50
214.4237596
51
226.8061452
0
ARC
8
DEFAULT_255_2_778
10
19.4104793
20
1.2235657
40
0.6503861
50
226.2807457
51
249.8727145
0
ARC
8
DEFAULT_255_2_778
10
19.343515
20
1.0633889
40
0.4770115
50
250.8044655
51
269.9686774
0
ARC
8
DEFAULT_255_2_778
10
19.3530188
20
0.8608985
40
0.2746946
50
267.9628702
51
310.6470343
0
ARC
8
DEFAULT_255_2_778
10
19.4018669
20
0.7987914
40
0.1957818
50
311.640221
51
359.9995743
0
ARC
8
DEFAULT_255_2_778
10
19.4009917
20
0.7987848
40
0.196657
50
0.0014973
51
1.7753731
0
ARC
8
DEFAULT_255_2_778
10
19.3054107
20
0.7967772
40
0.2922558
50
1.5882372
51
47.8729694
0
ARC
8
DEFAULT_255_2_778
10
19.1184273
20
0.638267
40
0.5362173
50
44.4138858
51
45.875241
0
ARC
8
DEFAULT_255_2_778
10
21.0435307
20
3.2994431
40
2.7422839
50
224.7461227
51
230.6036461
0
ARC
8
DEFAULT_255_2_778
10
20.0485339
20
2.3094541
40
1.3386877
50
217.7504774
51
224.6314914
0
ARC
8
DEFAULT_255_2_778
10
19.8226608
20
2.1201559
40
1.0442627
50
179.4062413
51
217.1255155
0
ARC
8
DEFAULT_255_2_778
10
20.0033902
20
2.129984
40
1.2249364
50
150.3867573
51
179.953532
0
ARC
8
DEFAULT_255_2_778
10
19.8823344
20
2.2221508
40
1.074341
50
132.4272447
51
151.4699301
0
ARC
8
DEFAULT_255_2_778
10
19.7260924
20
2.3738671
40
0.8570431
50
90.243646
51
131.5600177
0
ARC
8
DEFAULT_255_2_778
10
19.7554329
20
2.0863701
40
1.1450075
50
89.9939276
51
91.6507858
0
ARC
8
DEFAULT_255_2_778
10
19.7449879
20
2.0038687
40
1.2275543
50
66.1328827
51
89.5068149
0
ARC
8
DEFAULT_255_2_778
10
19.6057227
20
1.6462205
40
1.6110613
50
61.3015384
51
66.7500829
0
ARC
8
DEFAULT_255_2_778
10
19.5894321
20
1.5705151
40
0.9152396
50
30.3361708
51
48.3103151
0
ARC
8
DEFAULT_255_2_778
10
19.7442003
20
1.759653
40
0.6711415
50
47.4377491
51
65.6120895
0
ARC
8
DEFAULT_255_2_778
10
19.8668186
20
2.0244524
40
0.3793466
50
65.9652561
51
89.3904485
0
ARC
8
DEFAULT_255_2_778
10
19.8611776
20
2.178141
40
0.2258439
50
87.5443289
51
89.99808
0
ARC
8
DEFAULT_255_2_778
10
19.8612009
20
2.1787952
40
0.2251896
50
90.0039813
51
143.4257955
0
ARC
8
DEFAULT_255_2_778
10
19.8183607
20
2.2002188
40
0.1782143
50
140.7493381
51
179.4667193
0
ARC
8
DEFAULT_255_2_778
10
19.8848354
20
2.2131941
40
0.2449427
50
182.6480743
51
220.1736642
0
ARC
8
DEFAULT_255_2_778
10
20.1772253
20
2.4233371
40
0.6045715
50
217.5140071
51
226.6680927
0
ARC
8
DEFAULT_255_2_778
10
20.0813835
20
2.3004128
40
0.4496268
50
224.8023124
51
231.4308103
0
ARC
8
DEFAULT_255_2_778
10
21.2740302
20
3.738827
40
2.3181007
50
230.5487553
51
232.5487324
0
ARC
8
DEFAULT_255_2_778
10
23.0686376
20
6.0703998
40
5.2603493
50
232.4737012
51
233.7434073
0
ARC
8
DEFAULT_255_2_778
10
19.0009375
20
0.5190244
40
1.6218003
50
39.4112885
51
53.8493548
0
ARC
8
DEFAULT_255_2_778
10
19.542121
20
0.9593703
40
0.9241155
50
6.3584825
51
39.6204249
0
ARC
8
DEFAULT_255_2_778
10
19.1789222
20
0.8980654
40
1.2920354
50
359.8675018
51
7.2766477
0
ARC
8
DEFAULT_255_2_778
10
19.0818887
20
0.8815596
40
1.3891313
50
343.7572538
51
0.5575659
0
ARC
8
DEFAULT_255_2_778
10
19.3911647
20
0.7959471
40
1.0682621
50
317.5463867
51
343.5260069
0
ARC
8
DEFAULT_255_2_778
10
19.4701182
20
0.7022242
40
0.9468789
50
268.7313616
51
318.5059946
0
ARC
8
DEFAULT_255_2_778
10
19.4606561
20
1.3474432
40
1.5919073
50
249.440748
51
269.5860222
0
ARC
8
DEFAULT_255_2_778
10
19.5837858
20
1.7265965
40
1.9902326
50
246.5618868
51
249.9549748
0
LINE
8
DEFAULT_255_2_778
10
1.0997542
20
-0.1828225
11
0.2308542
21
-0.1828225
0
LINE
8
DEFAULT_255_2_778
10
0.2308542
20
-0.1828225
11
0.2308542
21
3.1699775
0
LINE
8
DEFAULT_255_2_778
10
0.2308542
20
3.1699775
11
1.0714542
21
3.1699775
0
LINE
8
DEFAULT_255_2_778
10
1.1015542
20
0.9151775
11
1.1015542
21
-0.1854225
0
LINE
8
DEFAULT_255_2_778
10
1.1015542
20
1.6666775
11
1.1418542
21
1.6639775
0
LINE
8
DEFAULT_255_2_778
10
1.1624542
20
2.4346775
11
1.1015542
21
2.4320775
0
LINE
8
DEFAULT_255_2_778
10
1.1015542
20
2.4320775
11
1.1015542
21
1.6658775
0
LINE
8
DEFAULT_255_2_778
10
8.1244542
20
-0.1828225
11
7.2857542
21
-0.1828225
0
LINE
8
DEFAULT_255_2_778
10
7.2857542
20
-0.1828225
11
6.9576542
21
1.8494775
0
LINE
8
DEFAULT_255_2_778
10
6.9576542
20
1.8494775
11
6.7009542
21
-0.1793225
0
LINE
8
DEFAULT_255_2_778
10
6.7009542
20
-0.1793225
11
5.8556542
21
-0.1793225
0
LINE
8
DEFAULT_255_2_778
10
5.8556542
20
-0.1793225
11
5.1380542
21
3.1702775
0
LINE
8
DEFAULT_255_2_778
10
5.1380542
20
3.1702775
11
5.9953542
21
3.1702775
0
LINE
8
DEFAULT_255_2_778
10
5.9953542
20
3.1702775
11
6.2802542
21
1.1408775
0
LINE
8
DEFAULT_255_2_778
10
6.2802542
20
1.1408775
11
6.5819542
21
3.1702775
0
LINE
8
DEFAULT_255_2_778
10
6.5819542
20
3.1702775
11
7.3280542
21
3.1702775
0
LINE
8
DEFAULT_255_2_778
10
7.3280542
20
3.1702775
11
7.6553542
21
1.1170775
0
LINE
8
DEFAULT_255_2_778
10
7.6553542
20
1.1170775
11
7.9238542
21
3.1702775
0
LINE
8
DEFAULT_255_2_778
10
7.9238542
20
3.1702775
11
8.7715542
21
3.1702775
0
LINE
8
DEFAULT_255_2_778
10
8.7715542
20
3.1702775
11
8.1217542
21
-0.1828225
0
LINE
8
DEFAULT_255_2_778
10
9.0023542
20
-0.1825225
11
9.0023542
21
3.1699775
0
LINE
8
DEFAULT_255_2_778
10
9.0023542
20
3.1699775
11
10.6152542
21
3.1699775
0
LINE
8
DEFAULT_255_2_778
10
10.6152542
20
3.1699775
11
10.6152542
21
2.3815775
0
LINE
8
DEFAULT_255_2_778
10
10.6152542
20
2.3815775
11
9.8712542
21
2.3815775
0
LINE
8
DEFAULT_255_2_778
10
9.8712542
20
2.3815775
11
9.8712542
21
1.8928775
0
LINE
8
DEFAULT_255_2_778
10
9.8712542
20
1.8928775
11
10.5398542
21
1.8928775
0
LINE
8
DEFAULT_255_2_778
10
10.5398542
20
1.8928775
11
10.5398542
21
1.1334775
0
LINE
8
DEFAULT_255_2_778
10
10.5398542
20
1.1334775
11
9.8680542
21
1.1334775
0
LINE
8
DEFAULT_255_2_778
10
9.8680542
20
1.1334775
11
9.8680542
21
0.6228775
0
LINE
8
DEFAULT_255_2_778
10
9.8680542
20
0.6228775
11
10.6120542
21
0.6228775
0
LINE
8
DEFAULT_255_2_778
10
10.6120542
20
0.6228775
11
10.6120542
21
-0.1828225
0
LINE
8
DEFAULT_255_2_778
10
10.6120542
20
-0.1828225
11
8.9994542
21
-0.1828225
0
LINE
8
DEFAULT_255_2_778
10
13.2732542
20
-0.1830225
11
12.3339542
21
-0.1830225
0
LINE
8
DEFAULT_255_2_778
10
12.3339542
20
-0.1830225
11
11.8561542
21
1.1967775
0
LINE
8
DEFAULT_255_2_778
10
11.8561542
20
1.1967775
11
11.8561542
21
-0.1830225
0
LINE
8
DEFAULT_255_2_778
10
11.8561542
20
-0.1830225
11
10.9872542
21
-0.1830225
0
LINE
8
DEFAULT_255_2_778
10
10.9872542
20
-0.1830225
11
10.9872542
21
3.1699775
0
LINE
8
DEFAULT_255_2_778
10
10.9872542
20
3.1699775
11
11.8775542
21
3.1699775
0
LINE
8
DEFAULT_255_2_778
10
12.6289542
20
1.2136775
11
13.2740542
21
-0.1812225
0
LINE
8
DEFAULT_255_2_778
10
11.8566542
20
1.6216775
11
11.9153542
21
1.6189775
0
LINE
8
DEFAULT_255_2_778
10
11.8563542
20
2.4172775
11
11.8563542
21
1.6213775
0
LINE
8
DEFAULT_255_2_778
10
13.5587542
20
-0.1817225
11
13.5587542
21
3.1699775
0
LINE
8
DEFAULT_255_2_778
10
13.5587542
20
3.1699775
11
14.3101542
21
3.1699775
0
LINE
8
DEFAULT_255_2_778
10
14.3715542
20
-0.1825225
11
13.5592542
21
-0.1825225
0
LINE
8
DEFAULT_255_2_778
10
14.4281542
20
2.3325775
11
14.4281542
21
0.6278775
0
LINE
8
DEFAULT_255_2_778
10
16.1494542
20
-0.1825225
11
16.1494542
21
3.1699775
0
LINE
8
DEFAULT_255_2_778
10
16.1494542
20
3.1699775
11
16.9784542
21
3.1699775
0
LINE
8
DEFAULT_255_2_778
10
16.9784542
20
3.1699775
11
17.5835542
21
1.4184775
0
LINE
8
DEFAULT_255_2_778
10
17.5835542
20
1.4184775
11
17.5835542
21
3.1699775
0
LINE
8
DEFAULT_255_2_778
10
17.5835542
20
3.1699775
11
18.4124542
21
3.1699775
0
LINE
8
DEFAULT_255_2_778
10
18.4124542
20
3.1699775
11
18.4124542
21
-0.1828225
0
LINE
8
DEFAULT_255_2_778
10
18.4124542
20
-0.1828225
11
17.5835542
21
-0.1828225
0
LINE
8
DEFAULT_255_2_778
10
17.5835542
20
-0.1828225
11
16.9773542
21
1.5808775
0
LINE
8
DEFAULT_255_2_778
10
16.9773542
20
1.5808775
11
16.9773542
21
-0.1825225
0
LINE
8
DEFAULT_255_2_778
10
16.9773542
20
-0.1825225
11
16.1484542
21
-0.1825225
0
LINE
8
DEFAULT_255_2_778
10
18.7903542
20
-0.0989225
11
18.7903542
21
0.9524775
0
LINE
8
DEFAULT_255_2_778
10
19.4917542
20
1.0231775
11
19.3030542
21
1.1802775
0
LINE
8
DEFAULT_255_2_778
10
20.3793542
20
3.0593775
11
20.3793542
21
2.0327775
0
ENDSEC
0
EOF