0
SECTION
2
HEADER
9
$MEASUREMENT
70
1
0
ENDSEC
0
SECTION
2
TABLES
0
TABLE
2
LTYPE
0
LTYPE
72
65
70
64
2
CONTINUOUS
3
______
73
0
40
0
0
ENDTAB
0
TABLE
2
LAYER
0
LAYER
2
DEFAULT_255_2_778
70
0
62
255
6
CONTINUOUS
0
ENDTAB
0
ENDSEC
0
SECTION
2
ENTITIES
0
ARC
8
DEFAULT_255_2_778
10
8.1489518
20
7.7835058
40
7.9722442
50
349.3532309
51
0.0265845
0
ARC
8
DEFAULT_255_2_778
10
8.2500808
20
7.7667103
40
7.8697534
50
335.5180911
51
349.3373771
0
ARC
8
DEFAULT_255_2_778
10
8.1723582
20
7.80784
40
7.9575341
50
293.1445007
51
335.4804833
0
ARC
8
DEFAULT_255_2_778
10
8.2128677
20
7.7305722
40
7.8705658
50
279.4932057
51
293.094424
0
ARC
8
DEFAULT_255_2_778
10
8.1957584
20
7.8415543
40
7.9828499
50
269.9780137
51
279.4829464
0
ARC
8
DEFAULT_255_2_778
10
8.1889973
20
7.8299457
40
7.9712417
50
259.3521465
51
270.0265795
0
ARC
8
DEFAULT_255_2_778
10
8.1722608
20
7.7291086
40
7.8690488
50
245.5160416
51
259.3362478
0
ARC
8
DEFAULT_255_2_778
10
8.2138244
20
7.8076133
40
7.9577216
50
203.1434908
51
245.4779479
0
ARC
8
DEFAULT_255_2_778
10
8.1365047
20
7.7671295
40
7.8707156
50
189.4931922
51
203.0937244
0
ARC
8
DEFAULT_255_2_778
10
8.2469559
20
7.7841477
40
7.9824612
50
179.978057
51
189.4829165
0
ARC
8
DEFAULT_255_2_778
10
8.2357735
20
7.7908945
40
7.9712792
50
169.3524521
51
180.0265205
0
ARC
8
DEFAULT_255_2_778
10
8.1354493
20
7.8075349
40
7.8696079
50
155.5173263
51
169.3365608
0
ARC
8
DEFAULT_255_2_778
10
8.2137999
20
7.7661145
40
7.9580807
50
113.1461505
51
155.4796986
0
ARC
8
DEFAULT_255_2_778
10
8.1729257
20
7.8441375
40
7.8702744
50
99.4941382
51
113.0958095
0
ARC
8
DEFAULT_255_2_778
10
8.1899358
20
7.7337287
40
7.9819767
50
89.9780393
51
99.4838415
0
ARC
8
DEFAULT_255_2_778
10
8.1966953
20
7.7436673
40
7.9720384
50
79.3529607
51
90.026593
0
ARC
8
DEFAULT_255_2_778
10
8.2134641
20
7.844659
40
7.8696873
50
65.5176673
51
79.337097
0
ARC
8
DEFAULT_255_2_778
10
8.1722393
20
7.7667547
40
7.9576729
50
23.144629
51
65.4799844
0
ARC
8
DEFAULT_255_2_778
10
8.2496753
20
7.8073364
40
7.8705216
50
9.4933789
51
23.0945506
0
ARC
8
DEFAULT_255_2_778
10
8.1389109
20
7.7902653
40
7.9825848
50
359.9780336
51
9.4831049
0
ARC
8
DEFAULT_255_2_778
10
9.2518664
20
8.981978
40
1.1837758
50
54.2031031
51
90.0882169
0
ARC
8
DEFAULT_255_2_778
10
9.2510229
20
8.9769524
40
1.1883476
50
4.8728379
51
54.3118469
0
ARC
8
DEFAULT_255_2_778
10
9.2350298
20
8.976593
40
1.2043139
50
359.9933124
51
4.8252424
0
ARC
8
DEFAULT_255_2_778
10
9.2555826
20
8.974665
40
1.1837625
50
324.0299825
51
0.0865163
0
ARC
8
DEFAULT_255_2_778
10
9.2505074
20
8.9754667
40
1.1883431
50
274.8589537
51
324.1424244
0
ARC
8
DEFAULT_255_2_778
10
9.2501803
20
8.9913142
40
1.2041618
50
269.9935022
51
274.8105916
0
ARC
8
DEFAULT_255_2_778
10
9.2525831
20
8.9720573
40
2.770506
50
269.9474852
51
289.7349985
0
ARC
8
DEFAULT_255_2_778
10
9.2457805
20
8.9799202
40
2.7802068
50
289.8122393
51
348.5355183
0
ARC
8
DEFAULT_255_2_778
10
9.2364703
20
8.9755722
40
2.7884736
50
348.6610976
51
0.0180855
0
ARC
8
DEFAULT_255_2_778
10
9.2541761
20
8.9789977
40
2.7707688
50
359.9473667
51
19.7340518
0
ARC
8
DEFAULT_255_2_778
10
9.2465698
20
8.9723072
40
2.7801902
50
19.8109066
51
78.5353175
0
ARC
8
DEFAULT_255_2_778
10
9.250925
20
8.9629991
40
2.7884535
50
78.6610356
51
90.0181062
0
LINE
8
DEFAULT_255_2_778
10
9.2500438
20
7.7871524
11
7.0037438
21
7.7871524
0
LINE
8
DEFAULT_255_2_778
10
7.0037438
20
7.7871524
11
7.0037438
21
10.1657524
0
LINE
8
DEFAULT_255_2_778
10
7.0037438
20
10.1657524
11
9.2500438
21
10.1657524
0
LINE
8
DEFAULT_255_2_778
10
9.2500438
20
11.7514524
11
5.4180438
21
11.7514524
0
LINE
8
DEFAULT_255_2_778
10
5.4180438
20
11.7514524
11
5.4180438
21
3.8229524
0
LINE
8
DEFAULT_255_2_778
10
5.4180438
20
3.8229524
11
7.0037438
21
3.8229524
0
LINE
8
DEFAULT_255_2_778
10
7.0037438
20
3.8229524
11
7.0037438
21
6.2015524
0
LINE
8
DEFAULT_255_2_778
10
7.0037438
20
6.2015524
11
9.2500438
21
6.2015524
0
ARC
8
DEFAULT_255_2_778
10
23.743179
20
8.7657352
40
0.7074495
50
359.23797
51
26.4226725
0
ARC
8
DEFAULT_255_2_778
10
23.7698649
20
8.7567072
40
0.6878583
50
28.0854811
51
77.6564963
0
ARC
8
DEFAULT_255_2_778
10
23.6837643
20
8.4848581
40
0.9721766
50
76.1241968
51
90.2356499
0
ARC
8
DEFAULT_255_2_778
10
23.6905898
20
8.9749222
40
0.91156
50
269.3196504
51
293.9035698
0
ARC
8
DEFAULT_255_2_778
10
23.8034656
20
8.7343681
40
0.6459268
50
293.395988
51
356.2924829
0
ARC
8
DEFAULT_255_2_778
10
23.6604898
20
8.7557192
40
0.7900762
50
355.4177875
51
0.0295357
0
ARC
8
DEFAULT_255_2_778
10
23.8443375
20
8.2239577
40
2.2061883
50
78.5949069
51
90.2407878
0
ARC
8
DEFAULT_255_2_778
10
23.9355587
20
8.6683059
40
1.7525764
50
62.7405915
51
78.6456638
0
ARC
8
DEFAULT_255_2_778
10
24.0470467
20
8.8862635
40
1.5077612
50
32.690218
51
62.7131336
0
ARC
8
DEFAULT_255_2_778
10
23.8783777
20
8.7956277
40
1.6987302
50
4.1182019
51
32.1904156
0
ARC
8
DEFAULT_255_2_778
10
23.6043043
20
8.7569811
40
1.9749615
50
359.9810095
51
4.6654889
0
ARC
8
DEFAULT_255_2_778
10
23.8144246
20
8.7427414
40
1.7648935
50
335.3071986
51
0.441033
0
ARC
8
DEFAULT_255_2_778
10
24.039355
20
8.6457577
40
1.5200268
50
298.7609958
51
335.086698
0
ARC
8
DEFAULT_255_2_778
10
23.9402605
20
8.831073
40
1.7301621
50
282.5121827
51
298.6849576
0
ARC
8
DEFAULT_255_2_778
10
23.8480544
20
9.2401906
40
2.1495399
50
270.5091733
51
282.5490203
0
ARC
8
DEFAULT_255_2_778
10
23.8351035
20
9.5461829
40
2.4556564
50
269.9991229
51
270.7478892
0
ARC
8
DEFAULT_255_2_778
10
28.5771412
20
7.3620044
40
1.7509634
50
120.6372618
51
139.8150263
0
ARC
8
DEFAULT_255_2_778
10
28.4699117
20
7.5968379
40
1.4945174
50
91.201802
51
121.6881462
0
ARC
8
DEFAULT_255_2_778
10
28.232763
20
7.1437904
40
1.0036628
50
78.1674673
51
87.7920739
0
ARC
8
DEFAULT_255_2_778
10
28.1706462
20
6.0522261
40
2.0969053
50
87.2451211
51
90.1251528
0
ARC
8
DEFAULT_255_2_778
10
28.1714458
20
7.1052166
40
1.0439237
50
90.2952748
51
99.3743015
0
ARC
8
DEFAULT_255_2_778
10
28.2160165
20
6.8120756
40
1.3404151
50
99.2130564
51
105.06001
0
ARC
8
DEFAULT_255_2_778
10
28.2216874
20
6.7559088
40
1.396156
50
104.6858293
51
125.6452472
0
ARC
8
DEFAULT_255_2_778
10
27.8367007
20
7.2940502
40
0.7344841
50
125.7040647
51
143.9057024
0
ARC
8
DEFAULT_255_2_778
10
27.6571438
20
7.4377084
40
0.5048673
50
145.0750444
51
145.863031
0
ARC
8
DEFAULT_255_2_778
10
30.4606667
20
7.1346708
40
1.3032625
50
359.43531
51
24.1333285
0
ARC
8
DEFAULT_255_2_778
10
30.8264882
20
7.3130027
40
0.8965989
50
23.2913829
51
78.7852494
0
ARC
8
DEFAULT_255_2_778
10
30.8022484
20
7.1720568
40
1.0395743
50
78.9856059
51
90.1698937
0
ARC
8
DEFAULT_255_2_778
10
30.7905626
20
7.2508022
40
0.9608628
50
89.4869801
51
110.9606038
0
ARC
8
DEFAULT_255_2_778
10
30.8127026
20
7.2748458
40
0.946783
50
112.7325614
51
165.9936402
0
ARC
8
DEFAULT_255_2_778
10
31.2159159
20
7.1273487
40
1.3744611
50
164.095649
51
180.2302002
0
ARC
8
DEFAULT_255_2_778
10
31.1825252
20
7.1093256
40
1.3411176
50
179.4659244
51
202.4796721
0
ARC
8
DEFAULT_255_2_778
10
30.7772804
20
6.9212271
40
0.8949434
50
201.2722461
51
259.0622975
0
ARC
8
DEFAULT_255_2_778
10
30.7963508
20
7.051982
40
1.0269596
50
259.4018312
51
270.1570611
0
ARC
8
DEFAULT_255_2_778
10
30.8081665
20
7.0024664
40
0.9774814
50
269.4724149
51
290.6915369
0
ARC
8
DEFAULT_255_2_778
10
30.7943752
20
6.9605282
40
0.9435285
50
292.3750753
51
345.5766996
0
ARC
8
DEFAULT_255_2_778
10
30.3726216
20
7.1152866
40
1.3912596
50
343.7302119
51
0.2693282
0
ARC
8
DEFAULT_255_2_778
10
30.9282703
20
7.1323773
40
2.1150307
50
157.730548
51
180.2858211
0
ARC
8
DEFAULT_255_2_778
10
30.6613125
20
7.24595
40
1.8249493
50
115.3703902
51
157.8540733
0
ARC
8
DEFAULT_255_2_778
10
30.7340116
20
7.0787697
40
2.0071642
50
99.0739322
51
115.2007231
0
ARC
8
DEFAULT_255_2_778
10
30.7935827
20
6.7350134
40
2.3560182
50
89.8812464
51
99.186097
0
ARC
8
DEFAULT_255_2_778
10
30.8070866
20
6.7705192
40
2.3205232
50
77.5725593
51
90.2128526
0
ARC
8
DEFAULT_255_2_778
10
30.8879369
20
7.1330852
40
1.9490533
50
60.0940083
51
77.5999164
0
ARC
8
DEFAULT_255_2_778
10
30.9048536
20
7.2054305
40
1.8780288
50
7.7444033
51
59.4409418
0
ARC
8
DEFAULT_255_2_778
10
30.5801516
20
7.1235764
40
2.2111151
50
359.954654
51
8.7123507
0
ARC
8
DEFAULT_255_2_778
10
30.6741354
20
7.1112047
40
2.1171571
50
337.0771322
51
0.2874538
0
ARC
8
DEFAULT_255_2_778
10
30.9340316
20
6.9979816
40
1.833688
50
295.9499553
51
337.1725747
0
ARC
8
DEFAULT_255_2_778
10
30.8655166
20
7.1536142
40
2.0036208
50
279.4843431
51
295.7642057
0
ARC
8
DEFAULT_255_2_778
10
30.8037471
20
7.498121
40
2.3536004
50
269.8714344
51
279.5855649
0
ARC
8
DEFAULT_255_2_778
10
30.7899211
20
7.4211217
40
2.2766113
50
257.2330786
51
270.2150476
0
ARC
8
DEFAULT_255_2_778
10
30.7118667
20
7.0795938
40
1.9262781
50
239.1862166
51
257.252471
0
ARC
8
DEFAULT_255_2_778
10
30.7172708
20
7.0410427
40
1.896094
50
187.4238339
51
238.4492135
0
ARC
8
DEFAULT_255_2_778
10
31.0338171
20
7.1203296
40
2.2205518
50
179.9613771
51
188.3972011
0
ARC
8
DEFAULT_255_2_778
10
35.3852471
20
7.2791555
40
0.8892024
50
34.5564021
51
59.3695868
0
ARC
8
DEFAULT_255_2_778
10
35.2364129
20
7.0628105
40
1.1513299
50
58.4817374
51
81.6422472
0
ARC
8
DEFAULT_255_2_778
10
35.2670762
20
7.2451925
40
0.9664355
50
81.8691817
51
89.8998273
0
ARC
8
DEFAULT_255_2_778
10
35.2588551
20
7.2708893
40
0.9407894
50
89.3964009
51
116.6540021
0
ARC
8
DEFAULT_255_2_778
10
35.2640477
20
7.2970736
40
0.919863
50
117.6747685
51
157.6403423
0
ARC
8
DEFAULT_255_2_778
10
35.5786302
20
7.1543951
40
1.2651305
50
157.0842879
51
175.7727096
0
ARC
8
DEFAULT_255_2_778
10
35.8511536
20
7.1227491
40
1.539288
50
175.3457172
51
180.0343423
0
ARC
8
DEFAULT_255_2_778
10
35.7285193
20
7.1120124
40
1.4166874
50
179.6030834
51
195.8342311
0
ARC
8
DEFAULT_255_2_778
10
35.3680486
20
7.0053532
40
1.0408008
50
195.5999482
51
220.5428338
0
ARC
8
DEFAULT_255_2_778
10
35.2424686
20
6.9097294
40
0.8832585
50
221.1242351
51
266.1833727
0
ARC
8
DEFAULT_255_2_778
10
35.268301
20
7.0788555
40
1.053829
50
265.3940435
51
270.0252748
0
ARC
8
DEFAULT_255_2_778
10
35.2670529
20
6.9949585
40
0.9699336
50
270.1011874
51
278.1826459
0
ARC
8
DEFAULT_255_2_778
10
35.2475554
20
7.1397201
40
1.1159972
50
278.1156595
51
314.082744
0
ARC
8
DEFAULT_255_2_778
10
35.4913116
20
6.8670131
40
0.7506641
50
315.1989068
51
326.5395939
0
ARC
8
DEFAULT_255_2_778
10
34.8913875
20
6.6764006
40
1.5540615
50
299.3632124
51
322.0935904
0
ARC
8
DEFAULT_255_2_778
10
34.966879
20
6.567381
40
1.4220844
50
269.6288036
51
298.8661957
0
ARC
8
DEFAULT_255_2_778
10
34.9449513
20
6.7907064
40
1.6454291
50
246.9239305
51
270.442741
0
ARC
8
DEFAULT_255_2_778
10
34.9079476
20
6.6710209
40
1.520871
50
214.1690199
51
246.4391414
0
ARC
8
DEFAULT_255_2_778
10
35.1883531
20
6.8670087
40
1.8629536
50
198.6911664
51
214.3126909
0
ARC
8
DEFAULT_255_2_778
10
35.6665436
20
7.0322718
40
2.3688879
50
187.5112815
51
198.7710502
0
ARC
8
DEFAULT_255_2_778
10
36.2621654
20
7.1156917
40
2.9703074
50
179.8681606
51
187.6047112
0
ARC
8
DEFAULT_255_2_778
10
36.1060871
20
7.1318751
40
2.8142368
50
170.2354567
51
180.1903309
0
ARC
8
DEFAULT_255_2_778
10
35.5214097
20
7.2349875
40
2.220543
50
157.3714004
51
170.2988684
0
ARC
8
DEFAULT_255_2_778
10
35.0960311
20
7.4152839
40
1.7585428
50
139.1287828
51
157.4609958
0
ARC
8
DEFAULT_255_2_778
10
34.9199537
20
7.5583345
40
1.5318056
50
92.8435035
51
138.8652363
0
ARC
8
DEFAULT_255_2_778
10
34.9572272
20
7.2944488
40
1.7973776
50
89.9860145
51
93.6129438
0
ARC
8
DEFAULT_255_2_778
10
34.9727085
20
7.6633369
40
1.4285687
50
90.000198
51
90.6033252
0
ARC
8
DEFAULT_255_2_778
10
34.9727044
20
7.6658121
40
1.4260935
50
36.6021038
51
90.0000361
0
ARC
8
DEFAULT_255_2_778
10
39.4680688
20
6.7818966
40
1.5824512
50
316.4036469
51
317.5156351
0
ARC
8
DEFAULT_255_2_778
10
39.3714525
20
6.8785704
40
1.7190893
50
304.9444167
51
316.2907041
0
ARC
8
DEFAULT_255_2_778
10
39.3325722
20
6.930461
40
1.7838957
50
291.5189
51
305.0134268
0
ARC
8
DEFAULT_255_2_778
10
39.3274371
20
6.9462153
40
1.8004358
50
277.5362576
51
291.4870218
0
ARC
8
DEFAULT_255_2_778
10
39.3135679
20
7.0464287
40
1.9016026
50
269.957758
51
277.5545199
0
ARC
8
DEFAULT_255_2_778
10
39.300955
20
6.9915793
40
1.8467868
50
259.7763596
51
270.3478166
0
ARC
8
DEFAULT_255_2_778
10
39.1872463
20
6.3832448
40
1.2279353
50
243.4750878
51
259.9597104
0
ARC
8
DEFAULT_255_2_778
10
39.0719311
20
6.1304031
40
0.9502594
50
191.9026482
51
242.8878878
0
ARC
8
DEFAULT_255_2_778
10
39.7205449
20
6.3109809
40
1.6227393
50
179.8847636
51
193.4182123
0
ARC
8
DEFAULT_255_2_778
10
40.1538338
20
6.327542
40
2.0560679
50
180.0004333
51
180.370556
0
ARC
8
DEFAULT_255_2_778
10
40.1999832
20
6.7058569
40
1.1140723
50
179.430695
51
191.5419339
0
ARC
8
DEFAULT_255_2_778
10
39.7163243
20
6.6025171
40
0.6195332
50
191.1278631
51
213.3101136
0
ARC
8
DEFAULT_255_2_778
10
39.6358976
20
6.5759054
40
0.5381524
50
215.6454185
51
262.2389744
0
ARC
8
DEFAULT_255_2_778
10
39.7688538
20
7.1826266
40
1.1583418
50
259.7746471
51
270.4853503
0
ARC
8
DEFAULT_255_2_778
10
39.77776
20
7.0621171
40
1.037791
50
270.0500153
51
294.531691
0
ARC
8
DEFAULT_255_2_778
10
39.7294051
20
7.167909
40
1.15411
50
294.5349444
51
315.4132993
0
ARC
8
DEFAULT_255_2_778
10
39.7623011
20
7.1378611
40
1.10959
50
315.3258881
51
321.8489455
0
ARC
8
DEFAULT_255_2_778
10
44.5317109
20
7.1305501
40
2.1657618
50
164.5416741
51
180.2254944
0
ARC
8
DEFAULT_255_2_778
10
44.2472698
20
7.211787
40
1.8699594
50
137.8490845
51
164.6177827
0
ARC
8
DEFAULT_255_2_778
10
44.243748
20
7.1979471
40
1.8766787
50
107.7623506
51
137.4636652
0
ARC
8
DEFAULT_255_2_778
10
44.3434163
20
6.9032493
40
2.1877398
50
91.4647709
51
107.8936605
0
ARC
8
DEFAULT_255_2_778
10
44.3587342
20
6.6794885
40
2.4118381
50
89.9968714
51
91.6926643
0
ARC
8
DEFAULT_255_2_778
10
44.3662141
20
6.7213923
40
2.3699456
50
80.7925896
51
90.1776492
0
ARC
8
DEFAULT_255_2_778
10
44.4365691
20
7.1532938
40
1.9323515
50
69.3327271
51
80.8026862
0
ARC
8
DEFAULT_255_2_778
10
44.528675
20
7.3995144
40
1.6694684
50
55.7088833
51
69.3079238
0
ARC
8
DEFAULT_255_2_778
10
44.5934637
20
7.4968463
40
1.5525529
50
41.3108255
51
55.6605691
0
ARC
8
DEFAULT_255_2_778
10
44.6299579
20
7.5303841
40
1.5030013
50
36.00944
51
41.2688869
0
ARC
8
DEFAULT_255_2_778
10
44.4491117
20
7.3103637
40
0.8998363
50
33.5007515
51
88.1928288
0
ARC
8
DEFAULT_255_2_778
10
44.40691
20
7.0099322
40
1.2018945
50
86.6334885
51
90.0211726
0
ARC
8
DEFAULT_255_2_778
10
44.3962325
20
7.143939
40
1.0679365
50
89.4509628
51
113.4346385
0
ARC
8
DEFAULT_255_2_778
10
44.3607921
20
7.2544978
40
0.9524714
50
114.1235717
51
161.1013295
0
ARC
8
DEFAULT_255_2_778
10
44.6605544
20
7.1384099
40
1.2737383
50
160.5283233
51
178.7114417
0
ARC
8
DEFAULT_255_2_778
10
44.8864234
20
7.1221523
40
1.4999575
50
178.2845997
51
180.004805
0
ARC
8
DEFAULT_255_2_778
10
44.7064019
20
7.1123564
40
1.3199714
50
179.5802485
51
197.4730336
0
ARC
8
DEFAULT_255_2_778
10
44.4042755
20
7.0122827
40
1.0017491
50
197.2018942
51
228.7750003
0
ARC
8
DEFAULT_255_2_778
10
44.372005
20
6.9971403
40
0.9691985
50
229.6199496
51
263.5451202
0
ARC
8
DEFAULT_255_2_778
10
44.4052945
20
7.1846614
40
1.1593355
50
262.9521921
51
270.0578933
0
ARC
8
DEFAULT_255_2_778
10
44.4161423
20
6.9980563
40
0.9727779
50
269.4300572
51
294.8517794
0
ARC
8
DEFAULT_255_2_778
10
44.4159551
20
6.9690562
40
0.9466226
50
295.5997751
51
325.862256
0
ARC
8
DEFAULT_255_2_778
10
44.5833337
20
6.7487923
40
1.5613666
50
310.6082686
51
323.9538323
0
ARC
8
DEFAULT_255_2_778
10
44.5436387
20
6.7960107
40
1.6230508
50
296.6348057
51
310.5871521
0
ARC
8
DEFAULT_255_2_778
10
44.4702409
20
6.9457938
40
1.7898443
50
284.1097234
51
296.5855374
0
ARC
8
DEFAULT_255_2_778
10
44.3891978
20
7.2698637
40
2.1238939
50
273.6737093
51
284.098837
0
ARC
8
DEFAULT_255_2_778
10
44.3602125
20
7.6210819
40
2.4762558
50
269.9688427
51
273.8222933
0
ARC
8
DEFAULT_255_2_778
10
44.3500335
20
7.3745809
40
2.2297719
50
254.3902543
51
270.226957
0
ARC
8
DEFAULT_255_2_778
10
44.2594792
20
7.0632242
40
1.9055356
50
228.51005
51
254.4934892
0
ARC
8
DEFAULT_255_2_778
10
44.2321792
20
7.0145836
40
1.8510518
50
197.7876169
51
228.1456008
0
ARC
8
DEFAULT_255_2_778
10
44.5053113
20
7.1056651
40
2.138954
50
181.6609708
51
197.8757015
0
ARC
8
DEFAULT_255_2_778
10
44.7366438
20
7.1218695
40
2.3706779
50
179.9962068
51
181.8903872
0
ARC
8
DEFAULT_255_2_778
10
48.212331
20
6.4326392
40
0.5281035
50
178.688502
51
206.6814521
0
ARC
8
DEFAULT_255_2_778
10
48.0179774
20
6.3350234
40
0.310613
50
206.6905222
51
271.5659823
0
ARC
8
DEFAULT_255_2_778
10
48.0277185
20
6.637514
40
0.6129889
50
269.8829187
51
293.7375903
0
ARC
8
DEFAULT_255_2_778
10
48.1656605
20
6.3359095
40
0.281414
50
292.7477552
51
316.227036
0
ARC
8
DEFAULT_255_2_778
10
48.0755414
20
5.9593834
40
0.7629101
50
294.7421193
51
311.3102495
0
ARC
8
DEFAULT_255_2_778
10
47.9109876
20
6.3082281
40
1.1486079
50
282.643041
51
294.913926
0
ARC
8
DEFAULT_255_2_778
10
47.7935408
20
6.8170777
40
1.6708286
50
273.4672001
51
282.7535958
0
ARC
8
DEFAULT_255_2_778
10
47.7553587
20
7.3097578
40
2.1649321
50
269.9499068
51
273.6872964
0
ARC
8
DEFAULT_255_2_778
10
47.7412077
20
6.7390725
40
1.5942931
50
258.5774414
51
270.4405386
0
ARC
8
DEFAULT_255_2_778
10
47.6182322
20
6.1566574
40
0.9990728
50
238.5064471
51
258.8754499
0
ARC
8
DEFAULT_255_2_778
10
47.5309687
20
5.9883328
40
0.8100688
50
195.9969208
51
237.5498757
0
ARC
8
DEFAULT_255_2_778
10
48.0064519
20
6.1443542
40
1.3102737
50
182.3309523
51
196.8253077
0
ARC
8
DEFAULT_255_2_778
10
48.4658538
20
6.1792375
40
1.7707881
50
179.9712381
51
182.8541542
0
ARC
8
DEFAULT_255_2_778
10
58.2627688
20
6.7818966
40
1.5824512
50
316.4036469
51
317.5156351
0
ARC
8
DEFAULT_255_2_778
10
58.1661525
20
6.8785704
40
1.7190893
50
304.9444167
51
316.2907041
0
ARC
8
DEFAULT_255_2_778
10
58.1272722
20
6.930461
40
1.7838957
50
291.5189
51
305.0134268
0
ARC
8
DEFAULT_255_2_778
10
58.1221371
20
6.9462153
40
1.8004358
50
277.5362576
51
291.4870218
0
ARC
8
DEFAULT_255_2_778
10
58.1082679
20
7.0464287
40
1.9016026
50
269.957758
51
277.5545199
0
ARC
8
DEFAULT_255_2_778
10
58.0956575
20
6.9916756
40
1.8468832
50
259.7766305
51
270.3477194
0
ARC
8
DEFAULT_255_2_778
10
57.9819677
20
6.3834233
40
1.2281158
50
243.4768599
51
259.9599045
0
ARC
8
DEFAULT_255_2_778
10
57.866593
20
6.1304861
40
0.9503274
50
191.9068946
51
242.8908582
0
ARC
8
DEFAULT_255_2_778
10
58.5148332
20
6.3109853
40
1.6224276
50
179.8848956
51
193.4209974
0
ARC
8
DEFAULT_255_2_778
10
58.9484338
20
6.327542
40
2.0560679
50
180.0004333
51
180.370556
0
ARC
8
DEFAULT_255_2_778
10
58.9946832
20
6.7058569
40
1.1140723
50
179.430695
51
191.5419339
0
ARC
8
DEFAULT_255_2_778
10
58.5110243
20
6.6025171
40
0.6195332
50
191.1278631
51
213.3101136
0
ARC
8
DEFAULT_255_2_778
10
58.4305976
20
6.5759054
40
0.5381524
50
215.6454185
51
262.2389744
0
ARC
8
DEFAULT_255_2_778
10
58.5635538
20
7.1826266
40
1.1583418
50
259.7746471
51
270.4853503
0
ARC
8
DEFAULT_255_2_778
10
58.5724655
20
7.062059
40
1.037733
50
270.0497134
51
294.5323886
0
ARC
8
DEFAULT_255_2_778
10
58.5243411
20
7.167373
40
1.1535215
50
294.5350158
51
315.4218638
0
ARC
8
DEFAULT_255_2_778
10
58.5577195
20
7.1368246
40
1.1083062
50
315.3356211
51
321.8649473
0
ARC
8
DEFAULT_255_2_778
10
62.8200709
20
7.5221857
40
1.1187516
50
359.4233592
51
11.740278
0
ARC
8
DEFAULT_255_2_778
10
63.3035652
20
7.6273522
40
0.6239902
50
11.3190827
51
33.9619756
0
ARC
8
DEFAULT_255_2_778
10
63.3798813
20
7.6517076
40
0.5475467
50
36.3100134
51
82.5319806
0
ARC
8
DEFAULT_255_2_778
10
63.2547293
20
7.0728262
40
1.1388324
50
80.0734571
51
90.4308368
0
ARC
8
DEFAULT_255_2_778
10
63.245059
20
7.1982982
40
1.0133288
50
89.9374135
51
112.9265344
0
ARC
8
DEFAULT_255_2_778
10
63.3025522
20
7.0758476
40
1.1485151
50
113.1884822
51
134.8213135
0
ARC
8
DEFAULT_255_2_778
10
63.3533667
20
7.0160703
40
1.2267499
50
134.5367027
51
141.7331973
0
LINE
8
DEFAULT_255_2_778
10
62.390202
20
7.7758262
11
62.3899659
21
7.7755265
0
ARC
8
DEFAULT_255_2_778
10
63.3978217
20
7.6461769
40
1.3308623
50
136.7822219
51
139.2263411
0
ARC
8
DEFAULT_255_2_778
10
63.5764826
20
7.4700041
40
1.5817123
50
125.1209237
51
136.5632538
0
ARC
8
DEFAULT_255_2_778
10
63.6912392
20
7.3127893
40
1.7763277
50
112.065943
51
125.2311616
0
ARC
8
DEFAULT_255_2_778
10
63.7000446
20
7.2934342
40
1.7975733
50
97.5473842
51
112.0942857
0
ARC
8
DEFAULT_255_2_778
10
63.7049679
20
7.2556115
40
1.8357151
50
89.978214
51
97.5446619
0
ARC
8
DEFAULT_255_2_778
10
63.7166351
20
7.2612667
40
1.8300927
50
79.5727131
51
90.3434226
0
ARC
8
DEFAULT_255_2_778
10
63.8275869
20
7.8440544
40
1.2368539
50
63.1693175
51
79.7414313
0
ARC
8
DEFAULT_255_2_778
10
63.935712
20
8.0815253
40
0.976204
50
11.6048914
51
62.5413545
0
ARC
8
DEFAULT_255_2_778
10
63.2961297
20
7.9060119
40
1.6385901
50
359.5354507
51
13.1179365
0
ARC
8
DEFAULT_255_2_778
10
67.6302822
20
6.4326288
40
0.5279549
50
178.6870001
51
206.6882925
0
ARC
8
DEFAULT_255_2_778
10
67.4361978
20
6.3351947
40
0.3107865
50
206.7097907
51
271.5797983
0
ARC
8
DEFAULT_255_2_778
10
67.4458913
20
6.6391273
40
0.6146018
50
269.8950829
51
293.8407424
0
ARC
8
DEFAULT_255_2_778
10
67.5825022
20
6.3412658
40
0.2869748
50
292.9303082
51
315.808177
0
ARC
8
DEFAULT_255_2_778
10
67.4940388
20
5.9601884
40
0.7637806
50
294.7395271
51
311.2930709
0
ARC
8
DEFAULT_255_2_778
10
67.3296951
20
6.3086683
40
1.1490589
50
282.643005
51
294.9102339
0
ARC
8
DEFAULT_255_2_778
10
67.2123307
20
6.8172001
40
1.6709515
50
273.4672972
51
282.7531908
0
ARC
8
DEFAULT_255_2_778
10
67.1741587
20
7.3097604
40
2.1649347
50
269.9499077
51
273.6872972
0
ARC
8
DEFAULT_255_2_778
10
67.1600044
20
6.7389592
40
1.5941799
50
258.5770286
51
270.4406895
0
ARC
8
DEFAULT_255_2_778
10
67.0370114
20
6.1564792
40
0.9988925
50
238.5037675
51
258.8750911
0
ARC
8
DEFAULT_255_2_778
10
66.9498161
20
5.9882532
40
0.8100091
50
195.9922744
51
237.546029
0
ARC
8
DEFAULT_255_2_778
10
67.4255986
20
6.1443475
40
1.3105207
50
182.3302185
51
196.8217344
0
ARC
8
DEFAULT_255_2_778
10
67.8850791
20
6.1792336
40
1.7711134
50
179.9711173
51
182.8535034
0
LINE
8
DEFAULT_255_2_778
10
23.6797659
20
9.4570265
11
22.5124659
21
9.4570265
0
LINE
8
DEFAULT_255_2_778
10
22.5124659
20
9.4570265
11
22.5124659
21
8.0634265
0
LINE
8
DEFAULT_255_2_778
10
22.5124659
20
8.0634265
11
23.6797659
21
8.0634265
0
LINE
8
DEFAULT_255_2_778
10
21.4067659
20
5.1445265
11
21.4067659
21
10.4301265
0
LINE
8
DEFAULT_255_2_778
10
21.4067659
20
10.4301265
11
23.8350659
21
10.4301265
0
LINE
8
DEFAULT_255_2_778
10
23.8350659
20
7.0905265
11
22.5121659
21
7.0905265
0
LINE
8
DEFAULT_255_2_778
10
22.5121659
20
7.0905265
11
22.5121659
21
5.1442265
0
LINE
8
DEFAULT_255_2_778
10
22.5121659
20
5.1442265
11
21.4067659
21
5.1442265
0
LINE
8
DEFAULT_255_2_778
10
21.4067659
20
5.1442265
11
21.4067659
21
5.1445265
0
LINE
8
DEFAULT_255_2_778
10
26.2512659
20
5.1445265
11
26.2512659
21
8.9979265
0
LINE
8
DEFAULT_255_2_778
10
26.2512659
20
8.9979265
11
27.2394659
21
8.9979265
0
LINE
8
DEFAULT_255_2_778
10
27.2394659
20
8.9979265
11
27.2394659
21
8.4918265
0
LINE
8
DEFAULT_255_2_778
10
28.4385659
20
9.0910265
11
28.4385659
21
8.1261265
0
LINE
8
DEFAULT_255_2_778
10
27.2392659
20
7.7210265
11
27.2392659
21
5.1445265
0
LINE
8
DEFAULT_255_2_778
10
27.2392659
20
5.1445265
11
26.2510659
21
5.1445265
0
LINE
8
DEFAULT_255_2_778
10
26.2510659
20
5.1445265
11
26.2512659
21
5.1445265
0
LINE
8
DEFAULT_255_2_778
10
36.1175659
20
6.4524265
11
36.1175659
21
7.7835265
0
LINE
8
DEFAULT_255_2_778
10
36.1175659
20
5.1453265
11
36.1175659
21
5.7216265
0
LINE
8
DEFAULT_255_2_778
10
36.1175659
20
8.5161265
11
36.1175659
21
10.4301265
0
LINE
8
DEFAULT_255_2_778
10
36.1175659
20
10.4301265
11
37.1140659
21
10.4301265
0
LINE
8
DEFAULT_255_2_778
10
37.1140659
20
10.4301265
11
37.1140659
21
5.1445265
0
LINE
8
DEFAULT_255_2_778
10
37.1140659
20
5.1445265
11
36.1175659
21
5.1445265
0
LINE
8
DEFAULT_255_2_778
10
36.1175659
20
5.1445265
11
36.1175659
21
5.1453265
0
LINE
8
DEFAULT_255_2_778
10
40.6350659
20
5.1448265
11
40.6350659
21
5.7131265
0
LINE
8
DEFAULT_255_2_778
10
38.0977659
20
6.3275265
11
38.0977659
21
8.9974265
0
LINE
8
DEFAULT_255_2_778
10
38.0977659
20
8.9974265
11
39.0859659
21
8.9974265
0
LINE
8
DEFAULT_255_2_778
10
39.0859659
20
8.9974265
11
39.0859659
21
6.7169265
0
LINE
8
DEFAULT_255_2_778
10
40.6348659
20
6.4524265
11
40.6348659
21
8.9979265
0
LINE
8
DEFAULT_255_2_778
10
40.6348659
20
8.9979265
11
41.6235659
21
8.9979265
0
LINE
8
DEFAULT_255_2_778
10
41.6235659
20
8.9979265
11
41.6235659
21
5.1445265
0
LINE
8
DEFAULT_255_2_778
10
41.6235659
20
5.1445265
11
40.6348659
21
5.1445265
0
LINE
8
DEFAULT_255_2_778
10
40.6348659
20
5.1445265
11
40.6350659
21
5.1448265
0
LINE
8
DEFAULT_255_2_778
10
45.8457659
20
8.4140265
11
45.1994659
21
7.8070265
0
LINE
8
DEFAULT_255_2_778
10
45.1994659
20
6.4378265
11
45.8457659
21
5.8300265
0
LINE
8
DEFAULT_255_2_778
10
46.6956659
20
6.1798265
11
46.6956659
21
8.1338265
0
LINE
8
DEFAULT_255_2_778
10
46.6956659
20
8.1338265
11
46.0733659
21
8.1338265
0
LINE
8
DEFAULT_255_2_778
10
46.0733659
20
8.1338265
11
46.0733659
21
8.9979265
0
LINE
8
DEFAULT_255_2_778
10
46.0733659
20
8.9979265
11
46.6956659
21
8.9979265
0
LINE
8
DEFAULT_255_2_778
10
46.6956659
20
8.9979265
11
46.6956659
21
10.0253265
0
LINE
8
DEFAULT_255_2_778
10
46.6956659
20
10.0253265
11
47.6843659
21
10.0253265
0
LINE
8
DEFAULT_255_2_778
10
47.6843659
20
10.0253265
11
47.6843659
21
8.9979265
0
LINE
8
DEFAULT_255_2_778
10
47.6843659
20
8.9979265
11
48.4469659
21
8.9979265
0
LINE
8
DEFAULT_255_2_778
10
48.4469659
20
8.9979265
11
48.4469659
21
8.1338265
0
LINE
8
DEFAULT_255_2_778
10
48.4469659
20
8.1338265
11
47.6843659
21
8.1338265
0
LINE
8
DEFAULT_255_2_778
10
47.6843659
20
8.1338265
11
47.6843659
21
6.4447265
0
LINE
8
DEFAULT_255_2_778
10
48.3688659
20
6.1412265
11
48.5791659
21
5.3863265
0
LINE
8
DEFAULT_255_2_778
10
54.7786659
20
5.1448265
11
54.7786659
21
7.4258265
0
LINE
8
DEFAULT_255_2_778
10
54.7786659
20
7.4258265
11
52.3262659
21
7.4258265
0
LINE
8
DEFAULT_255_2_778
10
52.3262659
20
7.4258265
11
52.3262659
21
5.1448265
0
LINE
8
DEFAULT_255_2_778
10
52.3262659
20
5.1448265
11
51.2221659
21
5.1448265
0
LINE
8
DEFAULT_255_2_778
10
51.2221659
20
5.1448265
11
51.2221659
21
10.4301265
0
LINE
8
DEFAULT_255_2_778
10
51.2221659
20
10.4301265
11
52.3270659
21
10.4301265
0
LINE
8
DEFAULT_255_2_778
10
52.3270659
20
10.4301265
11
52.3270659
21
8.3907265
0
LINE
8
DEFAULT_255_2_778
10
52.3270659
20
8.3907265
11
54.7794659
21
8.3907265
0
LINE
8
DEFAULT_255_2_778
10
54.7794659
20
8.3907265
11
54.7794659
21
10.4301265
0
LINE
8
DEFAULT_255_2_778
10
54.7794659
20
10.4301265
11
55.8925659
21
10.4301265
0
LINE
8
DEFAULT_255_2_778
10
55.8925659
20
10.4301265
11
55.8925659
21
5.1445265
0
LINE
8
DEFAULT_255_2_778
10
55.8925659
20
5.1445265
11
54.7789659
21
5.1445265
0
LINE
8
DEFAULT_255_2_778
10
54.7789659
20
5.1445265
11
54.7786659
21
5.1448265
0
LINE
8
DEFAULT_255_2_778
10
59.4297659
20
5.1448265
11
59.4297659
21
5.7131265
0
LINE
8
DEFAULT_255_2_778
10
56.8923659
20
6.3275265
11
56.8923659
21
8.9971265
0
LINE
8
DEFAULT_255_2_778
10
56.8923659
20
8.9971265
11
57.8806659
21
8.9971265
0
LINE
8
DEFAULT_255_2_778
10
57.8806659
20
8.9971265
11
57.8806659
21
6.7169265
0
LINE
8
DEFAULT_255_2_778
10
59.4294659
20
6.4524265
11
59.4294659
21
8.9979265
0
LINE
8
DEFAULT_255_2_778
10
59.4294659
20
8.9979265
11
60.4182659
21
8.9979265
0
LINE
8
DEFAULT_255_2_778
10
60.4182659
20
8.9979265
11
60.4182659
21
5.1445265
0
LINE
8
DEFAULT_255_2_778
10
60.4182659
20
5.1445265
11
59.4294659
21
5.1445265
0
LINE
8
DEFAULT_255_2_778
10
59.4294659
20
5.1445265
11
59.4297659
21
5.1448265
0
LINE
8
DEFAULT_255_2_778
10
63.9387659
20
5.1448265
11
63.9387659
21
7.5109265
0
LINE
8
DEFAULT_255_2_778
10
62.3899659
20
7.7755265
11
62.3899659
21
5.1445265
0
LINE
8
DEFAULT_255_2_778
10
62.3899659
20
5.1445265
11
61.4016659
21
5.1445265
0
LINE
8
DEFAULT_255_2_778
10
61.4016659
20
5.1445265
11
61.4016659
21
8.9979265
0
LINE
8
DEFAULT_255_2_778
10
61.4016659
20
8.9979265
11
62.3899659
21
8.9979265
0
LINE
8
DEFAULT_255_2_778
10
62.3899659
20
8.9979265
11
62.3899659
21
8.5153265
0
LINE
8
DEFAULT_255_2_778
10
64.9346659
20
7.8927265
11
64.9346659
21
5.1445265
0
LINE
8
DEFAULT_255_2_778
10
64.9346659
20
5.1445265
11
63.9382659
21
5.1445265
0
LINE
8
DEFAULT_255_2_778
10
63.9382659
20
5.1445265
11
63.9387659
21
5.1448265
0
LINE
8
DEFAULT_255_2_778
10
66.1136659
20
6.1801265
11
66.1136659
21
8.1340265
0
LINE
8
DEFAULT_255_2_778
10
66.1136659
20
8.1340265
11
65.4913659
21
8.1340265
0
LINE
8
DEFAULT_255_2_778
10
65.4913659
20
8.1340265
11
65.4913659
21
8.9979265
0
LINE
8
DEFAULT_255_2_778
10
65.4913659
20
8.9979265
11
66.1136659
21
8.9979265
0
LINE
8
DEFAULT_255_2_778
10
66.1136659
20
8.9979265
11
66.1136659
21
10.0253265
0
LINE
8
DEFAULT_255_2_778
10
66.1136659
20
10.0253265
11
67.1024659
21
10.0253265
0
LINE
8
DEFAULT_255_2_778
10
67.1024659
20
10.0253265
11
67.1024659
21
8.9979265
0
LINE
8
DEFAULT_255_2_778
10
67.1024659
20
8.9979265
11
67.8649659
21
8.9979265
0
LINE
8
DEFAULT_255_2_778
10
67.8649659
20
8.9979265
11
67.8649659
21
8.1338265
0
LINE
8
DEFAULT_255_2_778
10
67.8649659
20
8.1338265
11
67.1024659
21
8.1338265
0
LINE
8
DEFAULT_255_2_778
10
67.1024659
20
8.1338265
11
67.1024659
21
6.4447265
0
LINE
8
DEFAULT_255_2_778
10
67.7882659
20
6.1412265
11
67.9980659
21
5.3863265
0
ENDSEC
0
EOF