0
SECTION
2
HEADER
9
$MEASUREMENT
70
1
0
ENDSEC
0
SECTION
2
TABLES
0
TABLE
2
LTYPE
0
LTYPE
72
65
70
64
2
CONTINUOUS
3
______
73
0
40
0
0
ENDTAB
0
TABLE
2
LAYER
0
LAYER
2
DEFAULT_255_2_778
70
0
62
255
6
CONTINUOUS
0
ENDTAB
0
ENDSEC
0
SECTION
2
ENTITIES
0
ARC
8
DEFAULT_255_2_778
10
8.5954019
20
8.2825389
40
8.5184283
50
89.9755731
51
100.108596
0
ARC
8
DEFAULT_255_2_778
10
8.577249
20
8.3954384
40
8.4040955
50
100.1218522
51
113.4206581
0
ARC
8
DEFAULT_255_2_778
10
8.6212259
20
8.311695
40
8.4984221
50
113.4683063
51
154.9393081
0
ARC
8
DEFAULT_255_2_778
10
8.5377974
20
8.3561961
40
8.4039993
50
154.9732143
51
168.7379289
0
ARC
8
DEFAULT_255_2_778
10
8.6317656
20
8.3397471
40
8.4993706
50
168.7528902
51
179.2287538
0
ARC
8
DEFAULT_255_2_778
10
8.7686393
20
8.3343196
40
8.6363058
50
179.2049728
51
180.000353
0
ARC
8
DEFAULT_255_2_778
10
8.6501018
20
8.3306355
40
8.517769
50
179.9755761
51
190.1097244
0
ARC
8
DEFAULT_255_2_778
10
8.5373162
20
8.3125093
40
8.403553
50
190.1230399
51
203.4229749
0
ARC
8
DEFAULT_255_2_778
10
8.6218949
20
8.3569411
40
8.4988273
50
203.4711703
51
244.9403613
0
ARC
8
DEFAULT_255_2_778
10
8.5773248
20
8.2732381
40
8.4041267
50
244.9739126
51
258.7377415
0
ARC
8
DEFAULT_255_2_778
10
8.5935816
20
8.366261
40
8.4985335
50
258.752733
51
269.2285869
0
ARC
8
DEFAULT_255_2_778
10
8.5989948
20
8.50594
40
8.6382735
50
269.2051586
51
270.0002571
0
ARC
8
DEFAULT_255_2_778
10
8.602653
20
8.3847027
40
8.5170371
50
269.9756512
51
280.1097914
0
ARC
8
DEFAULT_255_2_778
10
8.6206378
20
8.2727145
40
8.403631
50
280.1231022
51
293.4223017
0
ARC
8
DEFAULT_255_2_778
10
8.5761549
20
8.3575194
40
8.4991331
50
293.4702134
51
334.9379027
0
ARC
8
DEFAULT_255_2_778
10
8.6604997
20
8.3125722
40
8.4036912
50
334.9719031
51
348.7366856
0
ARC
8
DEFAULT_255_2_778
10
8.5675485
20
8.3288098
40
8.4980239
50
348.7517226
51
359.2285382
0
ARC
8
DEFAULT_255_2_778
10
8.4307781
20
8.3342132
40
8.6348555
50
359.2049063
51
0.0003529
0
ARC
8
DEFAULT_255_2_778
10
8.548147
20
8.3378927
40
8.5174874
50
359.9756066
51
10.1097612
0
ARC
8
DEFAULT_255_2_778
10
8.6604711
20
8.3559366
40
8.4037401
50
10.1230764
51
23.4225569
0
ARC
8
DEFAULT_255_2_778
10
8.5757854
20
8.3114931
40
8.4991172
50
23.4705418
51
64.9385328
0
ARC
8
DEFAULT_255_2_778
10
8.6206898
20
8.3957917
40
8.4037354
50
64.9724096
51
78.7368731
0
ARC
8
DEFAULT_255_2_778
10
8.6044865
20
8.3030275
40
8.4978779
50
78.7518886
51
89.228534
0
ARC
8
DEFAULT_255_2_778
10
8.5990867
20
8.1668497
40
8.6341168
50
89.2048717
51
90.0003529
0
ARC
8
DEFAULT_255_2_778
10
8.5942746
20
3.8313303
40
2.8788678
50
254.8196393
51
270.0947131
0
ARC
8
DEFAULT_255_2_778
10
8.5214068
20
3.5740371
40
2.6114732
50
238.0866078
51
254.8843815
0
ARC
8
DEFAULT_255_2_778
10
8.2993464
20
3.2290321
40
2.2012355
50
217.5337532
51
238.245729
0
ARC
8
DEFAULT_255_2_778
10
7.9173156
20
2.9485203
40
1.7274221
50
180.3898584
51
217.8753793
0
ARC
8
DEFAULT_255_2_778
10
9.2212465
20
2.962594
40
1.784274
50
312.9352591
51
359.1706085
0
ARC
8
DEFAULT_255_2_778
10
8.7899338
20
3.364585
40
2.37275
50
295.1759467
51
313.9482842
0
ARC
8
DEFAULT_255_2_778
10
8.6342953
20
3.6822135
40
2.7264201
50
279.326866
51
295.2964617
0
ARC
8
DEFAULT_255_2_778
10
8.5981529
20
3.8738652
40
2.9213993
50
269.964318
51
279.4171672
0
ARC
8
DEFAULT_255_2_778
10
13.6757454
20
13.3874367
40
11.8105985
50
217.620096
51
219.5132404
0
ARC
8
DEFAULT_255_2_778
10
11.447322
20
11.6709881
40
8.9977591
50
215.4033665
51
217.6247059
0
ARC
8
DEFAULT_255_2_778
10
9.7490425
20
10.4654243
40
6.9150842
50
212.6515664
51
215.4134343
0
ARC
8
DEFAULT_255_2_778
10
8.4768035
20
9.6515477
40
5.4047908
50
209.0576165
51
212.6637809
0
ARC
8
DEFAULT_255_2_778
10
7.7622819
20
9.2521033
40
4.5861997
50
204.9426191
51
209.0309833
0
ARC
8
DEFAULT_255_2_778
10
8.2894878
20
9.4827177
40
5.1615027
50
200.439613
51
204.7958346
0
ARC
8
DEFAULT_255_2_778
10
14.7873461
20
11.9224947
40
12.1022918
50
199.4779552
51
200.5200422
0
ARC
8
DEFAULT_255_2_778
10
54.6497793
20
26.1397108
40
54.4241541
50
199.5756137
51
199.5955149
0
ARC
8
DEFAULT_255_2_778
10
3.3722539
20
7.904652
40
0.0009733
50
87.8109626
51
162.3820618
0
ARC
8
DEFAULT_255_2_778
10
3.3747736
20
7.8922825
40
0.013571
50
88.3883023
51
100.5401423
0
ARC
8
DEFAULT_255_2_778
10
3.3580577
20
7.6224781
40
0.2838854
50
79.454627
51
86.5471459
0
ARC
8
DEFAULT_255_2_778
10
2.9886075
20
5.3616682
40
2.5746217
50
79.0108841
51
80.57964
0
ARC
8
DEFAULT_255_2_778
10
1.928766
20
-0.1840855
40
8.2207318
50
78.5207332
51
79.1275415
0
ARC
8
DEFAULT_255_2_778
10
-0.271256
20
-11.027493
40
19.2850702
50
78.0954813
51
78.5265803
0
ARC
8
DEFAULT_255_2_778
10
-4.6247521
20
-31.7128401
40
40.4235774
50
77.836893
51
78.1055975
0
ARC
8
DEFAULT_255_2_778
10
-12.9534892
20
-70.3504973
40
79.948714
50
77.6156657
51
77.8361797
0
ARC
8
DEFAULT_255_2_778
10
-28.4319163
20
-140.8866041
40
152.1631448
50
77.476215
51
77.6192423
0
ARC
8
DEFAULT_255_2_778
10
-42.3270843
20
-203.5510983
40
216.349702
50
77.4728164
51
77.4825517
0
ARC
8
DEFAULT_255_2_778
10
-50.8762576
20
-241.9909228
40
255.7287373
50
77.4165393
51
77.4710375
0
ARC
8
DEFAULT_255_2_778
10
-74.8215101
20
-349.2797007
40
365.6571548
50
77.3850678
51
77.4171686
0
ARC
8
DEFAULT_255_2_778
10
-90.7784264
20
-420.6078841
40
438.748419
50
77.3821813
51
77.3858758
0
ARC
8
DEFAULT_255_2_778
10
6.0322986
20
11.7471515
40
4.312821
50
257.0355638
51
257.2613462
0
ARC
8
DEFAULT_255_2_778
10
7.609541
20
18.7187379
40
11.4605977
50
257.2555696
51
257.6108796
0
ARC
8
DEFAULT_255_2_778
10
8.9559925
20
24.8393105
40
17.7275218
50
257.6046459
51
258.0203879
0
ARC
8
DEFAULT_255_2_778
10
9.7563768
20
28.6013177
40
21.5737289
50
258.0148178
51
258.3739197
0
ARC
8
DEFAULT_255_2_778
10
10.241863
20
30.9630018
40
23.9847968
50
258.3748987
51
258.9576448
0
ARC
8
DEFAULT_255_2_778
10
10.4336773
20
31.9396684
40
24.9801202
50
258.9548978
51
259.6709915
0
ARC
8
DEFAULT_255_2_778
10
8.4510204
20
9.5309097
40
3.3053529
50
180.7270747
51
220.9549221
0
ARC
8
DEFAULT_255_2_778
10
9.1931295
20
9.453299
40
4.0473531
50
166.3260356
51
179.4950728
0
ARC
8
DEFAULT_255_2_778
10
13.0602568
20
8.5164765
40
8.0263355
50
160.05833
51
166.3539194
0
ARC
8
DEFAULT_255_2_778
10
27.3941474
20
3.5103716
40
23.2088895
50
159.797878
51
160.5096715
0
ARC
8
DEFAULT_255_2_778
10
-45.7156084
20
30.5532424
40
54.7421249
50
339.659729
51
340.1826529
0
ARC
8
DEFAULT_255_2_778
10
-2.8566929
20
15.1077351
40
9.1850143
50
340.1866943
51
342.9103064
0
ARC
8
DEFAULT_255_2_778
10
1.5775687
20
13.7450802
40
4.5461024
50
342.9027277
51
347.7374395
0
ARC
8
DEFAULT_255_2_778
10
3.3554171
20
13.3619512
40
2.7274449
50
347.6699469
51
355.6579311
0
ARC
8
DEFAULT_255_2_778
10
4.042623
20
13.3003763
40
2.037571
50
355.9213925
51
359.951179
0
ARC
8
DEFAULT_255_2_778
10
4.5257815
20
13.3141647
40
1.5544892
50
359.4277794
51
19.5111205
0
ARC
8
DEFAULT_255_2_778
10
4.6587115
20
13.3508223
40
1.4169835
50
19.9091948
51
21.3965177
0
ARC
8
DEFAULT_255_2_778
10
5.9464946
20
13.4891824
40
0.3798955
50
73.3783936
51
85.2378233
0
ARC
8
DEFAULT_255_2_778
10
5.9362613
20
13.4510638
40
0.41935
50
71.8349013
51
73.5284139
0
ARC
8
DEFAULT_255_2_778
10
5.8758546
20
13.3070993
40
0.575108
50
47.8358678
51
70.588051
0
ARC
8
DEFAULT_255_2_778
10
5.547725
20
12.9297042
40
1.0751494
50
35.3386972
51
48.3747103
0
ARC
8
DEFAULT_255_2_778
10
4.9636646
20
12.507553
40
1.7957829
50
26.4517011
51
35.5474547
0
ARC
8
DEFAULT_255_2_778
10
4.1566691
20
12.1007823
40
2.6994914
50
19.4803324
51
26.5517828
0
ARC
8
DEFAULT_255_2_778
10
3.2009243
20
11.7589282
40
3.7145299
50
13.625742
51
19.5352455
0
ARC
8
DEFAULT_255_2_778
10
2.2084246
20
11.5148786
40
4.7365901
50
8.6855933
51
13.666495
0
ARC
8
DEFAULT_255_2_778
10
1.2338801
20
11.3646956
40
5.722638
50
3.9510643
51
8.6985343
0
ARC
8
DEFAULT_255_2_778
10
0.4786892
20
11.3073947
40
6.4799842
50
1.289017
51
3.9964123
0
ARC
8
DEFAULT_255_2_778
10
5.0917133
20
12.7875365
40
2.293461
50
324.4216966
51
333.0282558
0
ARC
8
DEFAULT_255_2_778
10
4.063741
20
13.312603
40
3.4477659
50
332.9997181
51
340.0968476
0
ARC
8
DEFAULT_255_2_778
10
2.3368488
20
13.9270555
40
5.2806984
50
340.2068372
51
348.3594357
0
ARC
8
DEFAULT_255_2_778
10
1.0222797
20
14.2225927
40
6.6279055
50
348.1500933
51
352.5173222
0
ARC
8
DEFAULT_255_2_778
10
1.1234779
20
14.2125539
40
6.5262627
50
352.4890065
51
355.112299
0
ARC
8
DEFAULT_255_2_778
10
1.9120571
20
14.1470853
40
5.7349732
50
355.0927291
51
357.8361893
0
ARC
8
DEFAULT_255_2_778
10
2.9733924
20
14.1059632
40
4.6728423
50
357.8486997
51
359.9608029
0
ARC
8
DEFAULT_255_2_778
10
9.5907355
20
14.0989686
40
1.9445056
50
172.7393859
51
179.8880937
0
ARC
8
DEFAULT_255_2_778
10
9.7941596
20
14.0766775
40
2.1491189
50
171.3203305
51
172.8352811
0
ARC
8
DEFAULT_255_2_778
10
10.0546705
20
14.0280058
40
2.4140073
50
150.1733038
51
171.1114517
0
ARC
8
DEFAULT_255_2_778
10
9.4946982
20
14.3532522
40
1.7664456
50
137.8359747
51
150.2915065
0
ARC
8
DEFAULT_255_2_778
10
8.9682227
20
14.8355951
40
1.0524408
50
121.795951
51
138.0605831
0
ARC
8
DEFAULT_255_2_778
10
8.7194817
20
15.2450625
40
0.5733781
50
94.8667985
51
122.229058
0
ARC
8
DEFAULT_255_2_778
10
8.6965421
20
15.4146377
40
0.4025573
50
93.4476744
51
93.6611549
0
ARC
8
DEFAULT_255_2_778
10
9.7971105
20
15.1323986
40
1.3164619
50
148.6928337
51
152.9064872
0
ARC
8
DEFAULT_255_2_778
10
9.6602325
20
15.2022042
40
1.1628118
50
152.8968839
51
158.3363339
0
ARC
8
DEFAULT_255_2_778
10
9.588133
20
15.2317307
40
1.0849051
50
158.379898
51
160.5924649
0
ARC
8
DEFAULT_255_2_778
10
9.5362124
20
15.2490851
40
1.0301684
50
160.5432933
51
172.7526728
0
ARC
8
DEFAULT_255_2_778
10
9.605332
20
15.2413615
40
1.0997107
50
172.8077804
51
180.0786353
0
ARC
8
DEFAULT_255_2_778
10
10.0185724
20
15.2555704
40
1.5130318
50
180.5952286
51
193.216785
0
ARC
8
DEFAULT_255_2_778
10
11.3527263
20
15.5530259
40
2.8798972
50
192.9092211
51
198.4484987
0
ARC
8
DEFAULT_255_2_778
10
12.4975086
20
15.9125356
40
4.0796703
50
198.1502712
51
198.2204092
0
ARC
8
DEFAULT_255_2_778
10
12.6557108
20
15.9647169
40
4.2462559
50
198.2217509
51
198.2890081
0
ARC
8
DEFAULT_255_2_778
10
12.6484466
20
15.962157
40
4.2385554
50
198.2869666
51
198.3542165
0
ARC
8
DEFAULT_255_2_778
10
13.0238682
20
16.0870561
40
4.6342079
50
198.358277
51
198.4196667
0
ARC
8
DEFAULT_255_2_778
10
13.0157216
20
16.0847117
40
4.625738
50
198.4239999
51
198.485383
0
ARC
8
DEFAULT_255_2_778
10
12.6266663
20
15.9546619
40
4.2155222
50
198.4855885
51
198.5528142
0
ARC
8
DEFAULT_255_2_778
10
12.9987519
20
16.0795808
40
4.6080173
50
198.5532773
51
198.6146572
0
ARC
8
DEFAULT_255_2_778
10
12.9901011
20
16.0767257
40
4.5989079
50
198.6153499
51
198.6767311
0
ARC
8
DEFAULT_255_2_778
10
12.980882
20
16.0733147
40
4.5890822
50
198.6732452
51
198.7346373
0
ARC
8
DEFAULT_255_2_778
10
12.9722871
20
16.0704975
40
4.5800377
50
198.7357971
51
198.7971894
0
ARC
8
DEFAULT_255_2_778
10
12.9631221
20
16.0671228
40
4.5702741
50
198.79416
51
198.8555621
0
ARC
8
DEFAULT_255_2_778
10
12.9539838
20
16.0637658
40
4.5605412
50
198.852755
51
198.9141664
0
ARC
8
DEFAULT_255_2_778
10
12.9448723
20
16.0604269
40
4.5508392
50
198.9115834
51
198.9730034
0
ARC
8
DEFAULT_255_2_778
10
13.6630375
20
16.3073194
40
5.3102582
50
198.9728694
51
199.0254009
0
ARC
8
DEFAULT_255_2_778
10
12.9261278
20
16.0532224
40
4.5307704
50
199.0254818
51
199.0869278
0
ARC
8
DEFAULT_255_2_778
10
12.9164933
20
16.0493552
40
4.5204011
50
199.0805396
51
199.142003
0
ARC
8
DEFAULT_255_2_778
10
13.6321563
20
16.297227
40
5.277774
50
199.1365013
51
199.1890385
0
ARC
8
DEFAULT_255_2_778
10
13.6218748
20
16.2939375
40
5.2669825
50
199.1920037
51
199.2445423
0
ARC
8
DEFAULT_255_2_778
10
13.6108203
20
16.2899516
40
5.2552318
50
199.2432386
51
199.295788
0
ARC
8
DEFAULT_255_2_778
10
14.6217635
20
16.6445558
40
6.3265627
50
199.3014326
51
199.3449946
0
ARC
8
DEFAULT_255_2_778
10
14.6102191
20
16.6412651
40
6.3145801
50
199.3515206
51
199.3950762
0
ARC
8
DEFAULT_255_2_778
10
13.5779932
20
16.2780107
40
5.2203022
50
199.3966287
51
199.4492066
0
ARC
8
DEFAULT_255_2_778
10
13.5670624
20
16.274103
40
5.2086939
50
199.4487109
51
199.5012978
0
ARC
8
DEFAULT_255_2_778
10
13.5554987
20
16.2693895
40
5.1962202
50
199.4948721
51
199.5474766
0
ARC
8
DEFAULT_255_2_778
10
14.5617958
20
16.6269276
40
6.2641468
50
199.5496391
51
199.5931854
0
ARC
8
DEFAULT_255_2_778
10
14.5493041
20
16.6228298
40
6.2510044
50
199.5961956
51
199.6397429
0
ARC
8
DEFAULT_255_2_778
10
14.5355812
20
16.6179636
40
6.2364443
50
199.6400116
51
199.6835697
0
ARC
8
DEFAULT_255_2_778
10
14.5231661
20
16.6139121
40
6.2233899
50
199.6869481
51
199.7305066
0
ARC
8
DEFAULT_255_2_778
10
14.1003363
20
16.4620679
40
5.774122
50
199.7286838
51
199.7755331
0
ARC
8
DEFAULT_255_2_778
10
16.0468181
20
17.1626647
40
7.8428478
50
199.7807513
51
199.8151706
0
ARC
8
DEFAULT_255_2_778
10
15.3865154
20
16.9257616
40
7.1413339
50
199.8228543
51
199.8605751
0
ARC
8
DEFAULT_255_2_778
10
14.4690273
20
16.5944619
40
6.1658628
50
199.8615586
51
199.9051546
0
ARC
8
DEFAULT_255_2_778
10
14.4556392
20
16.5895785
40
6.1516117
50
199.9048424
51
199.9484467
0
ARC
8
DEFAULT_255_2_778
10
15.338758
20
16.9102826
40
7.0911595
50
199.9497734
51
199.9875199
0
ARC
8
DEFAULT_255_2_778
10
15.3220389
20
16.9043693
40
7.0734262
50
199.9887979
51
200.0265582
0
ARC
8
DEFAULT_255_2_778
10
15.9562424
20
17.136104
40
7.7486408
50
200.0305218
51
200.0649178
0
ARC
8
DEFAULT_255_2_778
10
15.2886243
20
16.8927933
40
7.0380679
50
200.0690428
51
200.1068302
0
ARC
8
DEFAULT_255_2_778
10
15.2720311
20
16.8869467
40
7.0204761
50
200.1085764
51
200.1463768
0
ARC
8
DEFAULT_255_2_778
10
15.2554801
20
16.8811224
40
7.0029318
50
200.1482796
51
200.1860928
0
ARC
8
DEFAULT_255_2_778
10
15.2375804
20
16.8742029
40
6.983744
50
200.1834852
51
200.2213201
0
ARC
8
DEFAULT_255_2_778
10
15.2197209
20
16.8673036
40
6.9646005
50
200.2188444
51
200.2567008
0
ARC
8
DEFAULT_255_2_778
10
17.3427744
20
17.6516255
40
9.2278981
50
200.2613838
51
200.2898929
0
ARC
8
DEFAULT_255_2_778
10
17.3226125
20
17.6454005
40
9.2068287
50
200.2970672
51
200.325579
0
ARC
8
DEFAULT_255_2_778
10
15.1663876
20
16.8467296
40
6.9074415
50
200.3258544
51
200.363774
0
ARC
8
DEFAULT_255_2_778
10
16.316593
20
17.273875
40
8.1343993
50
200.365197
51
200.4134111
0
ARC
8
DEFAULT_255_2_778
10
15.7112072
20
17.048704
40
7.4884938
50
200.414352
51
200.4665509
0
ARC
8
DEFAULT_255_2_778
10
16.2533965
20
17.2507719
40
8.0671134
50
200.4646373
51
200.5129306
0
ARC
8
DEFAULT_255_2_778
10
15.3498704
20
16.9122726
40
7.1022606
50
200.5095132
51
200.5641835
0
ARC
8
DEFAULT_255_2_778
10
17.839444
20
17.8463094
40
9.7612831
50
200.5644211
51
200.6040651
0
ARC
8
DEFAULT_255_2_778
10
16.5442278
20
17.3597841
40
8.3777039
50
200.6067496
51
200.6527847
0
ARC
8
DEFAULT_255_2_778
10
16.1223438
20
17.2004062
40
7.9267192
50
200.6503611
51
200.6988502
0
ARC
8
DEFAULT_255_2_778
10
17.211576
20
17.611565
40
9.0909693
50
200.6964755
51
200.7386106
0
ARC
8
DEFAULT_255_2_778
10
17.1738345
20
17.5969788
40
9.0505083
50
200.7368588
51
200.7790373
0
ARC
8
DEFAULT_255_2_778
10
17.1362891
20
17.5826828
40
9.0103331
50
200.7787433
51
200.8209642
0
ARC
8
DEFAULT_255_2_778
10
18.6143105
20
18.1450602
40
10.5917298
50
200.8225354
51
200.8583284
0
ARC
8
DEFAULT_255_2_778
10
17.9341639
20
17.8861937
40
9.863986
50
200.8599003
51
200.8982008
0
ARC
8
DEFAULT_255_2_778
10
18.5289695
20
18.1136617
40
10.5008026
50
200.9000117
51
200.9358642
0
ARC
8
DEFAULT_255_2_778
10
17.8478673
20
17.8528606
40
9.7714761
50
200.9346327
51
200.9730263
0
ARC
8
DEFAULT_255_2_778
10
17.803991
20
17.8355141
40
9.7242979
50
200.9701231
51
201.0085675
0
ARC
8
DEFAULT_255_2_778
10
19.6213944
20
18.5332301
40
11.6710293
50
201.0075064
51
201.0394254
0
ARC
8
DEFAULT_255_2_778
10
19.5704702
20
18.5140863
40
11.6166272
50
201.0414709
51
201.0734258
0
ARC
8
DEFAULT_255_2_778
10
19.5194606
20
18.494642
40
11.5620377
50
201.0744036
51
201.1063952
0
ARC
8
DEFAULT_255_2_778
10
18.671794
20
18.1672966
40
10.6533608
50
201.1056461
51
201.1402425
0
ARC
8
DEFAULT_255_2_778
10
18.6200713
20
18.1463968
40
10.5975816
50
201.1357043
51
201.1703582
0
ARC
8
DEFAULT_255_2_778
10
18.5685341
20
18.1255738
40
10.5420026
50
201.1659806
51
201.2006919
0
ARC
8
DEFAULT_255_2_778
10
22.0958386
20
19.4932681
40
14.3251843
50
201.1988052
51
201.2242572
0
ARC
8
DEFAULT_255_2_778
10
20.7964053
20
18.98942
40
12.931488
50
201.2275693
51
201.2556622
0
ARC
8
DEFAULT_255_2_778
10
20.7346485
20
18.9652685
40
12.8651768
50
201.2551285
51
201.2832634
0
ARC
8
DEFAULT_255_2_778
10
20.6726962
20
18.9407289
40
12.7985425
50
201.2815687
51
201.3097468
0
ARC
8
DEFAULT_255_2_778
10
22.6546188
20
19.7136946
40
14.9258633
50
201.3092387
51
201.3333121
0
ARC
8
DEFAULT_255_2_778
10
20.5467432
20
18.8903694
40
12.6628997
50
201.3329469
51
201.3612179
0
ARC
8
DEFAULT_255_2_778
10
20.4823047
20
18.8640615
40
12.5933055
50
201.3565355
51
201.3848578
0
ARC
8
DEFAULT_255_2_778
10
20.4181124
20
18.8378543
40
12.5239769
50
201.3802996
51
201.4086731
0
ARC
8
DEFAULT_255_2_778
10
24.0724757
20
20.269787
40
16.448872
50
201.4059657
51
201.4274886
0
ARC
8
DEFAULT_255_2_778
10
22.2875056
20
19.5694301
40
14.5314211
50
201.4280514
51
201.4523233
0
ARC
8
DEFAULT_255_2_778
10
22.2108725
20
19.5383811
40
14.4487416
50
201.4488685
51
201.4731877
0
ARC
8
DEFAULT_255_2_778
10
22.1345414
20
19.5074537
40
14.3663872
50
201.4698437
51
201.4942103
0
ARC
8
DEFAULT_255_2_778
10
27.402331
20
21.5808009
40
20.0275157
50
201.4913477
51
201.5087608
0
ARC
8
DEFAULT_255_2_778
10
27.3081396
20
21.5451332
40
19.9268062
50
201.5126446
51
201.5300794
0
ARC
8
DEFAULT_255_2_778
10
27.2047263
20
21.5039998
40
19.8155131
50
201.5291781
51
201.5466442
0
ARC
8
DEFAULT_255_2_778
10
24.5808601
20
20.4686139
40
16.994751
50
201.5486849
51
201.5689722
0
ARC
8
DEFAULT_255_2_778
10
24.486724
20
20.4302953
40
16.8931201
50
201.5654824
51
201.5858138
0
ARC
8
DEFAULT_255_2_778
10
26.9067829
20
21.3873009
40
19.4955315
50
201.5845281
51
201.6020779
0
ARC
8
DEFAULT_255_2_778
10
32.6795129
20
23.672732
40
25.7042035
50
201.601256
51
201.6145155
0
ARC
8
DEFAULT_255_2_778
10
24.2011135
20
20.3129574
40
16.5843711
50
201.6130575
51
201.633529
0
ARC
8
DEFAULT_255_2_778
10
32.4193302
20
23.5716954
40
25.4250982
50
201.6321704
51
201.6454719
0
ARC
8
DEFAULT_255_2_778
10
32.2837754
20
23.5181499
40
25.2793513
50
201.6459961
51
201.6593222
0
ARC
8
DEFAULT_255_2_778
10
34.7881268
20
24.5141406
40
27.9744897
50
201.6620771
51
201.6760738
0
ARC
8
DEFAULT_255_2_778
10
29.1439086
20
22.2707931
40
21.9007917
50
201.6761466
51
201.6939433
0
ARC
8
DEFAULT_255_2_778
10
34.4455589
20
24.3800266
40
27.60661
50
201.6941356
51
201.7081893
0
ARC
8
DEFAULT_255_2_778
10
30.4065007
20
22.7711915
40
23.258928
50
201.7062902
51
201.7228941
0
ARC
8
DEFAULT_255_2_778
10
54.7041208
20
32.4514285
40
49.4138766
50
201.7226695
51
201.7304487
0
ARC
8
DEFAULT_255_2_778
10
33.8975381
20
24.1595572
40
27.0159076
50
201.7321916
51
201.7463545
0
LINE
8
DEFAULT_255_2_778
10
8.8042682
20
14.1502083
11
8.805675
21
14.1466821
0
ARC
8
DEFAULT_255_2_778
10
42.8569498
20
27.735306
40
36.6625151
50
201.7551425
51
201.7655026
0
ARC
8
DEFAULT_255_2_778
10
42.6104948
20
27.6367346
40
36.3970792
50
201.7652562
51
201.775643
0
LINE
8
DEFAULT_255_2_778
10
8.8105796
20
14.1343975
11
8.8119713
21
14.1309142
0
ARC
8
DEFAULT_255_2_778
10
35.5607392
20
24.8184502
40
28.8048609
50
201.7793008
51
201.7923287
0
ARC
8
DEFAULT_255_2_778
10
41.9748703
20
27.3815648
40
35.7121493
50
201.7903045
51
201.800763
0
LINE
8
DEFAULT_255_2_778
10
8.8168225
20
14.1187796
11
8.8181988
21
14.115339
0
LINE
8
DEFAULT_255_2_778
10
8.8181988
20
14.115339
11
8.8195718
21
14.1119078
0
ARC
8
DEFAULT_255_2_778
10
-2289.4179379
20
-907.9660146
40
2476.3124491
50
21.8555272
51
21.861194
0
ARC
8
DEFAULT_255_2_778
10
-14.5874079
20
4.4527416
40
25.3204209
50
21.076678
51
21.8698753
0
ARC
8
DEFAULT_255_2_778
10
-5.1643286
20
8.0900061
40
15.2197243
50
19.658888
51
21.0569827
0
ARC
8
DEFAULT_255_2_778
10
-3.2437721
20
8.7830542
40
13.1779596
50
19.0587451
51
19.6304572
0
ARC
8
DEFAULT_255_2_778
10
-2.7432761
20
8.9561961
40
12.6483612
50
18.5790623
51
19.0577471
0
ARC
8
DEFAULT_255_2_778
10
-2.4588405
20
9.0518462
40
12.3482736
50
18.1614126
51
18.578875
0
ARC
8
DEFAULT_255_2_778
10
-2.2585162
20
9.1176175
40
12.1374284
50
17.7280947
51
18.1611545
0
ARC
8
DEFAULT_255_2_778
10
6.9840314
20
12.0875517
40
2.4294865
50
11.5384831
51
17.3851517
0
ARC
8
DEFAULT_255_2_778
10
4.9675044
20
11.6725578
40
4.4882714
50
7.6531526
51
11.5799606
0
ARC
8
DEFAULT_255_2_778
10
-1.0838868
20
10.872792
40
10.5922772
50
5.0378766
51
7.58144
0
ARC
8
DEFAULT_255_2_778
10
-27.1717191
20
8.4331642
40
36.7938268
50
4.9937007
51
5.2548263
0
ARC
8
DEFAULT_255_2_778
10
-195.602506
20
-6.3557219
40
205.8726256
50
4.9926135
51
5.0135965
0
ARC
8
DEFAULT_255_2_778
10
30.1691445
20
13.2916856
40
20.7524287
50
184.7843393
51
186.0811347
0
ARC
8
DEFAULT_255_2_778
10
16.2574473
20
11.8215717
40
6.7632857
50
186.1820942
51
188.5894411
0
ARC
8
DEFAULT_255_2_778
10
13.1495544
20
11.3498559
40
3.6197998
50
188.5538032
51
192.437148
0
ARC
8
DEFAULT_255_2_778
10
12.2006958
20
11.1502057
40
2.6502263
50
192.6401387
51
192.9748872
0
ARC
8
DEFAULT_255_2_778
10
26.2740062
20
9.941064
40
16.6671898
50
176.8807766
51
177.8884595
0
ARC
8
DEFAULT_255_2_778
10
25.23773
20
9.9985966
40
15.6293182
50
175.6219488
51
176.8846613
0
ARC
8
DEFAULT_255_2_778
10
23.7030269
20
10.1176993
40
14.0900014
50
174.0271964
51
175.6284568
0
ARC
8
DEFAULT_255_2_778
10
21.8541885
20
10.3124574
40
12.2309339
50
172.14741
51
174.0333675
0
ARC
8
DEFAULT_255_2_778
10
18.4971434
20
10.8095578
40
8.8375163
50
166.0704558
51
172.3664351
0
ARC
8
DEFAULT_255_2_778
10
15.2646586
20
11.5993194
40
5.509985
50
160.1964579
51
165.9496789
0
ARC
8
DEFAULT_255_2_778
10
13.5211097
20
12.228435
40
3.6564081
50
153.1865242
51
160.2152945
0
ARC
8
DEFAULT_255_2_778
10
12.4077381
20
12.7941018
40
2.4075828
50
143.8435401
51
153.2488311
0
ARC
8
DEFAULT_255_2_778
10
11.7292339
20
13.2953089
40
1.5640501
50
129.5084821
51
144.0035111
0
ARC
8
DEFAULT_255_2_778
10
11.539097
20
13.5077879
40
1.2792042
50
128.4450814
51
128.9925445
0
ARC
8
DEFAULT_255_2_778
10
12.3896348
20
13.8028899
40
1.7912353
50
156.7605351
51
178.8181095
0
ARC
8
DEFAULT_255_2_778
10
12.8240009
20
13.7691129
40
2.2263439
50
178.1795911
51
180.0068769
0
ARC
8
DEFAULT_255_2_778
10
11.5931383
20
13.7686226
40
0.9954812
50
179.9871592
51
180.0385225
0
ARC
8
DEFAULT_255_2_778
10
13.5051886
20
13.8043437
40
2.907759
50
180.7170714
51
196.5795994
0
ARC
8
DEFAULT_255_2_778
10
14.4645303
20
14.055257
40
3.8989545
50
196.0907732
51
201.8814687
0
ARC
8
DEFAULT_255_2_778
10
14.6761051
20
14.1362784
40
4.1254841
50
201.830541
51
205.7672794
0
ARC
8
DEFAULT_255_2_778
10
14.5300662
20
14.0666341
40
3.9636909
50
205.7783558
51
205.839594
0
ARC
8
DEFAULT_255_2_778
10
14.5128709
20
14.0575887
40
3.9442726
50
205.8302037
51
207.4340442
0
ARC
8
DEFAULT_255_2_778
10
14.2942942
20
13.9441185
40
3.6979978
50
207.4339619
51
208.7711683
0
ARC
8
DEFAULT_255_2_778
10
14.0129999
20
13.7894416
40
3.3769817
50
208.767921
51
210.1349655
0
ARC
8
DEFAULT_255_2_778
10
-1.0552361
20
5.0381823
40
14.0481806
50
29.0251366
51
30.1498451
0
ARC
8
DEFAULT_255_2_778
10
4.1557415
20
7.9259845
40
8.0905242
50
26.9147929
51
29.0479193
0
ARC
8
DEFAULT_255_2_778
10
6.0032614
20
8.8717958
40
6.014995
50
25.5787526
51
26.8475991
0
ARC
8
DEFAULT_255_2_778
10
7.7279987
20
9.6604255
40
4.1189373
50
13.3775109
51
26.0422401
0
ARC
8
DEFAULT_255_2_778
10
7.6878567
20
9.6725202
40
4.1552451
50
7.1879116
51
13.0872003
0
ARC
8
DEFAULT_255_2_778
10
6.73968
20
9.5524562
40
5.110993
50
2.8468006
51
7.1933025
0
ARC
8
DEFAULT_255_2_778
10
5.3742378
20
9.481019
40
6.4782989
50
359.9438166
51
2.8780522
0
ARC
8
DEFAULT_255_2_778
10
8.6092685
20
9.4790696
40
3.243268
50
332.7914438
51
359.9222134
0
ARC
8
DEFAULT_255_2_778
10
8.4809649
20
9.5387366
40
3.3846608
50
319.8860528
51
332.8862353
0
ARC
8
DEFAULT_255_2_778
10
6.8450228
20
29.8245399
40
22.8602837
50
280.6490395
51
281.4018012
0
ARC
8
DEFAULT_255_2_778
10
6.9544055
20
29.2879374
40
22.3126473
50
281.3988634
51
282.0634357
0
ARC
8
DEFAULT_255_2_778
10
7.3802097
20
27.296987
40
20.2766726
50
282.0625787
51
282.5439145
0
ARC
8
DEFAULT_255_2_778
10
8.0056098
20
24.4849739
40
17.3959534
50
282.5447818
51
282.8749531
0
ARC
8
DEFAULT_255_2_778
10
8.9219136
20
20.4843301
40
13.2917168
50
282.8670761
51
283.2628674
0
ARC
8
DEFAULT_255_2_778
10
10.3670024
20
14.3593798
40
6.9986018
50
283.2516914
51
283.5923014
0
ARC
8
DEFAULT_255_2_778
10
11.6166841
20
9.1875537
40
1.6779358
50
283.6181605
51
283.7158254
0
ARC
8
DEFAULT_255_2_778
10
12.8720788
20
8.1525881
40
0.9876882
50
344.4212454
51
345.9056257
0
ARC
8
DEFAULT_255_2_778
10
11.6735087
20
8.4836164
40
2.2311293
50
342.7732719
51
344.4989036
0
ARC
8
DEFAULT_255_2_778
10
10.6358432
20
8.8048572
40
3.317382
50
340.5780828
51
342.7815355
0
ARC
8
DEFAULT_255_2_778
10
9.8136846
20
9.0935925
40
4.1887671
50
338.1306935
51
340.5928655
0
ARC
8
DEFAULT_255_2_778
10
9.2362146
20
9.3247082
40
4.8107684
50
335.3015064
51
338.1380599
0
ARC
8
DEFAULT_255_2_778
10
8.8602575
20
9.4970544
40
5.2243464
50
332.0154526
51
335.307114
0
ARC
8
DEFAULT_255_2_778
10
8.6458243
20
9.6105333
40
5.4669548
50
328.0576178
51
332.0197381
0
ARC
8
DEFAULT_255_2_778
10
8.55379
20
9.6673577
40
5.5751174
50
323.6875142
51
328.0624708
0
ARC
8
DEFAULT_255_2_778
10
8.5297042
20
9.6847979
40
5.6048538
50
318.4584159
51
323.689661
0
ARC
8
DEFAULT_255_2_778
10
8.5260031
20
9.6879681
40
5.6097262
50
317.4357353
51
318.4592494
0
ARC
8
DEFAULT_255_2_778
10
8.522663
20
9.6910613
40
5.6142784
50
316.659405
51
317.4355421
0
ARC
8
DEFAULT_255_2_778
10
8.5221356
20
9.6915599
40
5.6150042
50
315.8738459
51
316.6593991
0
LINE
8
DEFAULT_255_2_778
10
8.5990336
20
16.8009664
11
8.5990336
21
16.8009664
0
LINE
8
DEFAULT_255_2_778
10
6.1899336
20
2.9367664
11
11.0053336
21
2.9367664
0
LINE
8
DEFAULT_255_2_778
10
8.5963336
20
0.9524664
11
8.5990336
21
0.9524664
0
LINE
8
DEFAULT_255_2_778
10
12.5809336
20
3.5963664
11
4.6170336
21
3.5963664
0
LINE
8
DEFAULT_255_2_778
10
4.6170336
20
3.5963664
11
4.6170336
21
5.0394664
0
LINE
8
DEFAULT_255_2_778
10
4.6170336
20
5.0394664
11
12.5809336
21
5.0394664
0
LINE
8
DEFAULT_255_2_778
10
12.5809336
20
5.0394664
11
12.5809336
21
3.5963664
0
LINE
8
DEFAULT_255_2_778
10
12.5809336
20
3.5963664
11
12.5809336
21
3.5963664
0
LINE
8
DEFAULT_255_2_778
10
12.5524336
20
5.7818664
11
4.6427336
21
5.7818664
0
LINE
8
DEFAULT_255_2_778
10
4.6427336
20
5.7818664
11
4.5641336
21
5.8728664
0
LINE
8
DEFAULT_255_2_778
10
12.0145336
20
7.5574664
11
13.8300336
21
7.9120664
0
LINE
8
DEFAULT_255_2_778
10
12.5526336
20
5.7821664
11
12.5524336
21
5.7818664
0
ENDSEC
0
EOF