0
SECTION
2
HEADER
9
$MEASUREMENT
70
1
0
ENDSEC
0
SECTION
2
TABLES
0
TABLE
2
LTYPE
0
LTYPE
72
65
70
64
2
CONTINUOUS
3
______
73
0
40
0
0
ENDTAB
0
TABLE
2
LAYER
0
LAYER
2
DEFAULT_255_2_778
70
0
62
255
6
CONTINUOUS
0
ENDTAB
0
ENDSEC
0
SECTION
2
ENTITIES
0
ARC
8
DEFAULT_255_2_778
10
-7.2678638
20
-2.5019577
40
22.0524588
50
27.4530661
51
29.6415135
0
ARC
8
DEFAULT_255_2_778
10
-0.6866613
20
1.2478597
40
14.4779404
50
29.6247829
51
32.7269249
0
ARC
8
DEFAULT_255_2_778
10
3.2291825
20
3.7674454
40
9.8215324
50
32.7119108
51
36.8038147
0
ARC
8
DEFAULT_255_2_778
10
5.6844489
20
5.609801
40
6.7519102
50
36.7676229
51
42.3729479
0
ARC
8
DEFAULT_255_2_778
10
7.2461181
20
7.0410095
40
4.6336245
50
42.3130193
51
50.2306208
0
ARC
8
DEFAULT_255_2_778
10
8.1687286
20
8.1594249
40
3.1837949
50
50.1171159
51
62.3249412
0
ARC
8
DEFAULT_255_2_778
10
8.5740464
20
8.9516517
40
2.2939674
50
62.0999712
51
89.8228086
0
ARC
8
DEFAULT_255_2_778
10
8.5730502
20
8.1179931
40
3.1276253
50
89.8517888
51
100.1871471
0
ARC
8
DEFAULT_255_2_778
10
8.5212809
20
8.4233969
40
2.8178816
50
100.2494018
51
116.2318992
0
ARC
8
DEFAULT_255_2_778
10
8.8738007
20
7.8218243
40
3.5136757
50
117.0524112
51
138.4711835
0
ARC
8
DEFAULT_255_2_778
10
10.9414781
20
5.912117
40
6.3279878
50
137.9389028
51
146.5967275
0
ARC
8
DEFAULT_255_2_778
10
17.4680316
20
1.6362561
40
14.1304644
50
146.6919917
51
151.7681261
0
ARC
8
DEFAULT_255_2_778
10
46.7762403
20
-14.4971936
40
47.5852529
50
151.3464124
51
151.8564407
0
ARC
8
DEFAULT_255_2_778
10
172.4590894
20
-81.8819111
40
190.1926654
50
151.8156703
51
151.8617057
0
ARC
8
DEFAULT_255_2_778
10
2.7762511
20
2.1722455
40
4.436264
50
87.3976302
51
90.0479216
0
ARC
8
DEFAULT_255_2_778
10
2.817187
20
3.0645115
40
3.5430596
50
84.4588908
51
87.4037913
0
ARC
8
DEFAULT_255_2_778
10
2.8915887
20
3.8233308
40
2.780602
50
80.9690468
51
84.4750137
0
ARC
8
DEFAULT_255_2_778
10
2.9932655
20
4.459896
40
2.1359678
50
76.9795976
51
80.9823505
0
ARC
8
DEFAULT_255_2_778
10
3.1133768
20
4.9763971
40
1.6056854
50
72.2907563
51
77.0030281
0
ARC
8
DEFAULT_255_2_778
10
3.229194
20
5.3417724
40
1.2223946
50
68.2012068
51
72.2526314
0
ARC
8
DEFAULT_255_2_778
10
3.3460933
20
5.6303486
40
0.911044
50
62.325217
51
68.2878667
0
ARC
8
DEFAULT_255_2_778
10
3.479567
20
5.8835677
40
0.6248017
50
55.49785
51
62.3798572
0
ARC
8
DEFAULT_255_2_778
10
3.6113585
20
6.0743583
40
0.3929192
50
48.0786897
51
55.5764707
0
ARC
8
DEFAULT_255_2_778
10
3.7425324
20
6.2193744
40
0.1973809
50
40.589498
51
48.2862414
0
ARC
8
DEFAULT_255_2_778
10
3.8494522
20
6.3113343
40
0.0563552
50
36.6929047
51
40.3173985
0
ARC
8
DEFAULT_255_2_778
10
-3.2390524
20
10.7471226
40
8.3826124
50
317.5259947
51
328.3217724
0
ARC
8
DEFAULT_255_2_778
10
0.5532926
20
7.2513864
40
3.2249726
50
290.5283988
51
317.8386109
0
ARC
8
DEFAULT_255_2_778
10
0.839142
20
6.6612756
40
2.5728132
50
274.2121287
51
289.1751122
0
ARC
8
DEFAULT_255_2_778
10
0.8199122
20
6.8687844
40
2.7811767
50
269.9779247
51
274.2932251
0
ARC
8
DEFAULT_255_2_778
10
0.8306721
20
7.9195384
40
4.8882352
50
269.9199276
51
276.823394
0
ARC
8
DEFAULT_255_2_778
10
0.8943089
20
7.3855731
40
4.3504913
50
276.8267395
51
285.2245301
0
ARC
8
DEFAULT_255_2_778
10
0.9552273
20
7.1519422
40
4.1090635
50
285.2603876
51
296.1409305
0
ARC
8
DEFAULT_255_2_778
10
0.6865902
20
7.6208379
40
4.6484821
50
296.5670676
51
315.1693268
0
ARC
8
DEFAULT_255_2_778
10
-2.0097321
20
10.1821672
40
8.3668953
50
315.7477596
51
329.9765171
0
ARC
8
DEFAULT_255_2_778
10
-8.7129327
20
14.3906658
40
16.2789863
50
328.9563915
51
329.988928
0
ARC
8
DEFAULT_255_2_778
10
-13.8359366
20
17.3414302
40
22.1910201
50
330.0075373
51
331.0632771
0
ARC
8
DEFAULT_255_2_778
10
-26.7817947
20
24.5067387
40
36.987535
50
331.0524575
51
331.5713597
0
ARC
8
DEFAULT_255_2_778
10
-86.5412569
20
56.8543815
40
104.9401901
50
331.5727008
51
331.7519104
0
ARC
8
DEFAULT_255_2_778
10
56.8281788
20
-20.0811068
40
57.7677593
50
151.5791581
51
151.8336266
0
ARC
8
DEFAULT_255_2_778
10
36.8443844
20
-9.2594477
40
35.0419968
50
151.0604297
51
151.5893183
0
ARC
8
DEFAULT_255_2_778
10
25.6748236
20
-3.0800973
40
22.2770664
50
150.2101604
51
151.0679764
0
ARC
8
DEFAULT_255_2_778
10
19.3422932
20
0.5471835
40
14.9792515
50
148.9711998
51
150.2171233
0
ARC
8
DEFAULT_255_2_778
10
15.581541
20
2.8098605
40
10.5902922
50
147.3828529
51
148.9731259
0
ARC
8
DEFAULT_255_2_778
10
13.2034297
20
4.332734
40
7.7663667
50
145.340125
51
147.3890978
0
ARC
8
DEFAULT_255_2_778
10
11.3204659
20
5.6430177
40
5.4723903
50
141.5343785
51
145.4125322
0
ARC
8
DEFAULT_255_2_778
10
9.9193469
20
6.7606026
40
3.6801537
50
135.7834448
51
141.5887023
0
ARC
8
DEFAULT_255_2_778
10
9.0724889
20
7.5896058
40
2.4950815
50
126.9340906
51
135.8656294
0
ARC
8
DEFAULT_255_2_778
10
8.5733462
20
8.2879515
40
1.6370722
50
94.9663747
51
127.657004
0
ARC
8
DEFAULT_255_2_778
10
8.5799998
20
8.1552456
40
1.7698626
50
89.9630683
51
94.8090475
0
ARC
8
DEFAULT_255_2_778
10
8.576032
20
9.0338387
40
0.8912839
50
72.1308317
51
89.6715929
0
ARC
8
DEFAULT_255_2_778
10
8.4871788
20
8.7469505
40
1.1916017
50
62.4533143
51
72.2973519
0
ARC
8
DEFAULT_255_2_778
10
8.2993303
20
8.3831993
40
1.6009915
50
55.3924034
51
62.5131337
0
ARC
8
DEFAULT_255_2_778
10
7.9921701
20
7.9358113
40
2.1436719
50
49.9041891
51
55.4267135
0
ARC
8
DEFAULT_255_2_778
10
7.5598389
20
7.4194369
40
2.8171332
50
45.8237161
51
49.9420255
0
ARC
8
DEFAULT_255_2_778
10
7.1193234
20
6.9609804
40
3.4529209
50
43.7606698
51
45.8825647
0
ARC
8
DEFAULT_255_2_778
10
6.3596436
20
6.2467839
40
4.495571
50
39.083688
51
43.6381533
0
ARC
8
DEFAULT_255_2_778
10
4.8357079
20
5.0049356
40
6.4614194
50
35.6053496
51
39.1119065
0
ARC
8
DEFAULT_255_2_778
10
2.6258772
20
3.4204809
40
9.1805822
50
32.7464655
51
35.6157986
0
ARC
8
DEFAULT_255_2_778
10
-0.5443128
20
1.3776161
40
12.9519736
50
30.5355361
51
32.7613725
0
ARC
8
DEFAULT_255_2_778
10
-5.1442928
20
-1.3376659
40
18.2935622
50
28.743453
51
30.540506
0
ARC
8
DEFAULT_255_2_778
10
-13.3556563
20
-5.8317577
40
27.6542943
50
27.0979765
51
28.7260214
0
ARC
8
DEFAULT_255_2_778
10
-34.5217401
20
-16.6420148
40
51.4211745
50
25.9219076
51
27.0781062
0
ARC
8
DEFAULT_255_2_778
10
-89.2359644
20
-43.3826259
40
112.32026
50
25.7861464
51
25.9893282
0
ARC
8
DEFAULT_255_2_778
10
-262.3238356
20
-127.004447
40
304.5493423
50
25.7117273
51
25.7860617
0
ARC
8
DEFAULT_255_2_778
10
13.411428
20
-23.0421638
40
27.1826779
50
91.8062395
51
93.1271779
0
ARC
8
DEFAULT_255_2_778
10
13.2635794
20
-20.3679604
40
24.5043911
50
93.1231
51
94.7439308
0
ARC
8
DEFAULT_255_2_778
10
13.0564215
20
-17.8731433
40
22.0009882
50
94.7436177
51
96.4632498
0
ARC
8
DEFAULT_255_2_778
10
12.8172606
20
-15.7605229
40
19.8748739
50
96.4637343
51
98.2470754
0
ARC
8
DEFAULT_255_2_778
10
12.5571157
20
-13.9675831
40
18.0631597
50
98.246214
51
100.1937036
0
ARC
8
DEFAULT_255_2_778
10
12.2898786
20
-12.4799449
40
16.551709
50
100.1945977
51
102.2230957
0
ARC
8
DEFAULT_255_2_778
10
12.0328571
20
-11.2935646
40
15.3378067
50
102.223036
51
104.4642434
0
ARC
8
DEFAULT_255_2_778
10
11.8178417
20
-10.4566182
40
14.473683
50
104.4676032
51
106.7165901
0
ARC
8
DEFAULT_255_2_778
10
11.6960162
20
-10.047256
40
14.0465791
50
106.7209585
51
109.069318
0
ARC
8
DEFAULT_255_2_778
10
11.7662122
20
-10.2433415
40
14.2548383
50
109.078484
51
111.5079936
0
ARC
8
DEFAULT_255_2_778
10
12.2902823
20
-11.5631303
40
15.6748662
50
111.5215243
51
113.6703929
0
ARC
8
DEFAULT_255_2_778
10
13.4564953
20
-14.235642
40
18.5907453
50
113.6554586
51
114.688289
0
ARC
8
DEFAULT_255_2_778
10
15.118195
20
-17.8542685
40
22.5726672
50
114.6841689
51
115.3370271
0
ARC
8
DEFAULT_255_2_778
10
18.319302
20
-24.6087998
40
30.0473427
50
115.3420468
51
115.8788743
0
ARC
8
DEFAULT_255_2_778
10
26.3351523
20
-41.1404789
40
48.4198838
50
115.8746472
51
116.1454908
0
ARC
8
DEFAULT_255_2_778
10
63.2362096
20
-116.3083642
40
132.1569662
50
116.1465251
51
116.2437341
0
ARC
8
DEFAULT_255_2_778
10
10.710873
20
-9.7648647
40
13.3696426
50
116.2499553
51
117.6138969
0
ARC
8
DEFAULT_255_2_778
10
16.0990616
20
-20.0620177
40
24.9913437
50
117.6175263
51
118.3356373
0
LINE
8
DEFAULT_255_2_778
10
4.2372762
20
1.9349207
11
4.2355766
21
1.9340063
0
LINE
8
DEFAULT_255_2_778
10
4.2355766
20
1.9340063
11
4.2338839
21
1.9330955
0
LINE
8
DEFAULT_255_2_778
10
4.2338839
20
1.9330955
11
4.232198
21
1.9321882
0
LINE
8
DEFAULT_255_2_778
10
4.232198
20
1.9321882
11
4.2305188
21
1.9312845
0
LINE
8
DEFAULT_255_2_778
10
4.2305188
20
1.9312845
11
4.227174
21
1.9294841
0
LINE
8
DEFAULT_255_2_778
10
4.227174
20
1.9294841
11
4.223856
21
1.9276978
0
LINE
8
DEFAULT_255_2_778
10
4.223856
20
1.9276978
11
4.223033
21
1.9272547
0
LINE
8
DEFAULT_255_2_778
10
4.223033
20
1.9272547
11
4.2213905
21
1.9263703
0
LINE
8
DEFAULT_255_2_778
10
4.2213905
20
1.9263703
11
4.2197546
21
1.9254893
0
LINE
8
DEFAULT_255_2_778
10
4.2197546
20
1.9254893
11
4.2189398
21
1.9250506
0
ARC
8
DEFAULT_255_2_778
10
-39.3969952
20
82.4589555
40
91.5863507
50
298.1458137
51
298.4392999
0
ARC
8
DEFAULT_255_2_778
10
0.0408726
20
8.4609221
40
7.7361943
50
289.0947852
51
299.1219807
0
ARC
8
DEFAULT_255_2_778
10
1.143477
20
5.4968902
40
4.5751217
50
280.2519314
51
288.1892061
0
ARC
8
DEFAULT_255_2_778
10
1.171908
20
5.3728308
40
4.4479868
50
273.802967
51
280.1759655
0
ARC
8
DEFAULT_255_2_778
10
1.1532958
20
5.6445186
40
4.720311
50
269.9774825
51
273.8096602
0
ARC
8
DEFAULT_255_2_778
10
1.1500492
20
8.2615711
40
8.3935658
50
269.9548893
51
274.0307552
0
ARC
8
DEFAULT_255_2_778
10
1.2105715
20
7.3922727
40
7.5221633
50
274.0363309
51
278.6758154
0
ARC
8
DEFAULT_255_2_778
10
1.2663752
20
7.0101802
40
7.1360255
50
278.6956557
51
284.0585391
0
ARC
8
DEFAULT_255_2_778
10
1.1336231
20
7.5008792
40
7.6442802
50
284.130334
51
290.1450754
0
ARC
8
DEFAULT_255_2_778
10
-0.836534
20
12.5668926
40
13.0793128
50
290.6046231
51
296.5876779
0
ARC
8
DEFAULT_255_2_778
10
-27.1851019
20
66.8234653
40
73.3945681
50
296.024646
51
296.3295444
0
ARC
8
DEFAULT_255_2_778
10
50.9307977
20
-91.5607548
40
103.2058135
50
116.0310696
51
116.1981354
0
ARC
8
DEFAULT_255_2_778
10
21.8871609
20
-32.1015323
40
37.0323144
50
115.5817558
51
116.0261857
0
ARC
8
DEFAULT_255_2_778
10
17.9153473
20
-23.8287314
40
27.8554742
50
115.5208083
51
115.5606246
0
ARC
8
DEFAULT_255_2_778
10
14.4769738
20
-16.5529882
40
19.8082741
50
113.6532077
51
115.612748
0
ARC
8
DEFAULT_255_2_778
10
12.2621237
20
-11.521494
40
14.3108791
50
111.084462
51
113.6125825
0
ARC
8
DEFAULT_255_2_778
10
11.7502235
20
-10.2080573
40
12.9012237
50
108.4349235
51
111.0616861
0
ARC
8
DEFAULT_255_2_778
10
11.7186716
20
-10.1208897
40
12.8085518
50
105.9452801
51
108.4243308
0
ARC
8
DEFAULT_255_2_778
10
11.8808319
20
-10.6952625
40
13.4053739
50
103.292425
51
105.9372873
0
ARC
8
DEFAULT_255_2_778
10
12.1390225
20
-11.7894753
40
14.5296353
50
100.9344599
51
103.291206
0
ARC
8
DEFAULT_255_2_778
10
12.4302355
20
-13.2990666
40
16.0670588
50
98.7079858
51
100.9329537
0
ARC
8
DEFAULT_255_2_778
10
12.7105809
20
-15.1202888
40
17.9097313
50
96.8814832
51
98.7124112
0
ARC
8
DEFAULT_255_2_778
10
12.9742658
20
-17.3152207
40
20.120445
50
94.9880713
51
96.8780588
0
ARC
8
DEFAULT_255_2_778
10
13.2105448
20
-20.0118037
40
22.8273595
50
93.3161808
51
94.9903822
0
ARC
8
DEFAULT_255_2_778
10
13.3890089
20
-23.0799045
40
25.9006463
50
91.7997687
51
93.3177029
0
ARC
8
DEFAULT_255_2_778
10
13.4991353
20
-26.5605704
40
29.3830538
50
90.4253777
51
91.8012423
0
ARC
8
DEFAULT_255_2_778
10
13.5253765
20
-29.1362248
40
31.9588328
50
89.9984507
51
90.4381394
0
ARC
8
DEFAULT_255_2_778
10
14.6067643
20
4.6666553
40
0.7901346
50
270.0006587
51
274.3605795
0
ARC
8
DEFAULT_255_2_778
10
14.6072513
20
4.6688811
40
0.7923604
50
221.5907419
51
269.9654466
0
ARC
8
DEFAULT_255_2_778
10
53.4481025
20
24.3311003
40
44.3008016
50
205.1514313
51
207.1104432
0
ARC
8
DEFAULT_255_2_778
10
97.4738954
20
45.277798
40
93.05534
50
205.1700988
51
205.3048658
0
ARC
8
DEFAULT_255_2_778
10
13.0272766
20
6.2547243
40
0.1883327
50
124.0835887
51
128.1107915
0
ARC
8
DEFAULT_255_2_778
10
13.1967528
20
6.0075113
40
0.4880578
50
119.5811894
51
124.2978443
0
ARC
8
DEFAULT_255_2_778
10
13.3438921
20
5.7504947
40
0.784211
50
114.9930393
51
119.6603123
0
ARC
8
DEFAULT_255_2_778
10
13.4674386
20
5.4869239
40
1.0753003
50
110.4930498
51
115.025894
0
ARC
8
DEFAULT_255_2_778
10
13.5391526
20
5.3008
40
1.2747535
50
109.0751351
51
110.583606
0
ARC
8
DEFAULT_255_2_778
10
13.6077617
20
5.0966064
40
1.4901583
50
104.5913851
51
109.0024581
0
ARC
8
DEFAULT_255_2_778
10
13.6976718
20
4.7518418
40
1.8464537
50
100.2642678
51
104.5962183
0
ARC
8
DEFAULT_255_2_778
10
13.7707365
20
4.3504928
40
2.2543991
50
96.2571665
51
100.2739171
0
ARC
8
DEFAULT_255_2_778
10
13.8221201
20
3.8836017
40
2.7241092
50
92.4471312
51
96.2611711
0
ARC
8
DEFAULT_255_2_778
10
13.8435726
20
3.4237078
40
3.1845003
50
89.9735859
51
92.4794559
0
LINE
8
DEFAULT_255_2_778
10
16.2379407
20
7.664708
11
12.3012407
21
7.664708
0
LINE
8
DEFAULT_255_2_778
10
4.7449407
20
7.813208
11
4.6658407
21
7.665308
0
LINE
8
DEFAULT_255_2_778
10
4.6658407
20
7.665308
11
0.1322407
21
7.665308
0
LINE
8
DEFAULT_255_2_778
10
0.1322407
20
7.665308
11
0.1322407
21
6.608508
0
LINE
8
DEFAULT_255_2_778
10
0.1322407
20
6.608508
11
2.7725407
21
6.608508
0
LINE
8
DEFAULT_255_2_778
10
0.8188407
20
4.087608
11
0.1322407
21
4.087608
0
LINE
8
DEFAULT_255_2_778
10
0.1322407
20
4.087608
11
0.1322407
21
3.031308
0
LINE
8
DEFAULT_255_2_778
10
0.1322407
20
3.031308
11
0.8238407
21
3.031308
0
LINE
8
DEFAULT_255_2_778
10
12.0715407
20
5.122308
11
12.5546407
21
4.127008
0
LINE
8
DEFAULT_255_2_778
10
1.1514407
20
0.924208
11
0.1322407
21
0.924208
0
LINE
8
DEFAULT_255_2_778
10
0.1322407
20
0.924208
11
0.1322407
21
-0.131992
0
LINE
8
DEFAULT_255_2_778
10
0.1322407
20
-0.131992
11
1.1434407
21
-0.131992
0
LINE
8
DEFAULT_255_2_778
10
13.5262407
20
2.822608
11
16.1480407
21
2.822608
0
LINE
8
DEFAULT_255_2_778
10
16.1480407
20
2.822608
11
16.1480407
21
3.878808
0
LINE
8
DEFAULT_255_2_778
10
16.1480407
20
3.878808
11
14.6668407
21
3.878808
0
LINE
8
DEFAULT_255_2_778
10
13.2542407
20
5.700708
11
12.9110407
21
6.402908
0
LINE
8
DEFAULT_255_2_778
10
13.8450407
20
6.608208
11
16.2377407
21
6.608208
0
LINE
8
DEFAULT_255_2_778
10
16.2377407
20
6.608208
11
16.2379407
21
7.664708
0
ARC
8
DEFAULT_255_2_778
10
21.1610064
20
3.5467826
40
3.0939926
50
82.0626142
51
90.2227374
0
ARC
8
DEFAULT_255_2_778
10
21.2907743
20
4.4540437
40
2.177506
50
71.141559
51
82.1478736
0
ARC
8
DEFAULT_255_2_778
10
21.5101167
20
5.082608
40
1.511791
50
54.3891671
51
71.3081868
0
ARC
8
DEFAULT_255_2_778
10
21.6935924
20
5.3489396
40
1.1884469
50
10.6474512
51
54.1040166
0
ARC
8
DEFAULT_255_2_778
10
21.2378763
20
5.2414192
40
1.6563219
50
359.7209277
51
11.3901183
0
ARC
8
DEFAULT_255_2_778
10
21.5391668
20
5.2223911
40
1.355056
50
339.2965788
51
0.4634536
0
ARC
8
DEFAULT_255_2_778
10
21.6203866
20
5.2104587
40
1.2749834
50
301.0532893
51
338.5078036
0
ARC
8
DEFAULT_255_2_778
10
21.3501116
20
5.6253571
40
1.769926
50
286.2996514
51
301.6205236
0
ARC
8
DEFAULT_255_2_778
10
21.1748775
20
6.2057196
40
2.3761493
50
275.5059564
51
286.4275902
0
ARC
8
DEFAULT_255_2_778
10
21.1105813
20
6.7824055
40
2.9563563
50
269.9243607
51
275.6739267
0
ARC
8
DEFAULT_255_2_778
10
21.0884052
20
6.9569126
40
4.1079608
50
269.9996278
51
270.4204394
0
ARC
8
DEFAULT_255_2_778
10
21.1181313
20
6.5466465
40
3.697584
50
270.0064781
51
290.9056519
0
ARC
8
DEFAULT_255_2_778
10
21.5730555
20
5.4128002
40
2.476133
50
290.4339385
51
321.5218118
0
ARC
8
DEFAULT_255_2_778
10
21.8433642
20
5.1511103
40
2.1020152
50
322.5214535
51
341.8945141
0
ARC
8
DEFAULT_255_2_778
10
21.5754457
20
5.2362838
40
2.3831381
50
341.9499093
51
354.7265735
0
ARC
8
DEFAULT_255_2_778
10
21.172367
20
5.2808082
40
2.7886126
50
354.5768013
51
0.0543157
0
ARC
8
DEFAULT_255_2_778
10
21.4163019
20
5.2800083
40
2.5446789
50
0.0775338
51
13.5469918
0
ARC
8
DEFAULT_255_2_778
10
21.835573
20
5.3850351
40
2.1124745
50
13.4413879
51
39.3428834
0
ARC
8
DEFAULT_255_2_778
10
21.7597
20
5.3015339
40
2.2241496
50
39.7673364
51
61.326498
0
ARC
8
DEFAULT_255_2_778
10
21.4923176
20
4.8261537
40
2.7695354
50
61.1920886
51
74.1729797
0
ARC
8
DEFAULT_255_2_778
10
21.3022198
20
4.1722212
40
3.4505262
50
74.09757
51
83.5758576
0
ARC
8
DEFAULT_255_2_778
10
21.2164619
20
3.457302
40
4.1705549
50
83.5040232
51
90.0904439
0
ARC
8
DEFAULT_255_2_778
10
26.4410218
20
3.4260353
40
3.6082764
50
352.52352
51
0.1892224
0
ARC
8
DEFAULT_255_2_778
10
27.4001535
20
3.2968294
40
2.6404888
50
342.2179415
51
352.5952552
0
ARC
8
DEFAULT_255_2_778
10
28.0733584
20
3.0769445
40
1.9322977
50
326.8358334
51
342.3301766
0
ARC
8
DEFAULT_255_2_778
10
28.3538117
20
2.9033228
40
1.6025706
50
287.6126919
51
326.546979
0
ARC
8
DEFAULT_255_2_778
10
28.1520585
20
3.4730354
40
2.2067137
50
275.4846037
51
288.1296874
0
ARC
8
DEFAULT_255_2_778
10
28.0790502
20
4.1126123
40
2.8503641
50
269.9081032
51
275.7166621
0
ARC
8
DEFAULT_255_2_778
10
28.0630679
20
3.8495505
40
2.5873239
50
259.6078737
51
270.2526872
0
ARC
8
DEFAULT_255_2_778
10
27.9433144
20
3.2190885
40
1.9456064
50
243.4507349
51
259.7275478
0
ARC
8
DEFAULT_255_2_778
10
27.8324453
20
2.9724706
40
1.675476
50
205.4606916
51
243.0727878
0
ARC
8
DEFAULT_255_2_778
10
28.3588564
20
3.2441806
40
2.267648
50
192.9547579
51
205.9413135
0
ARC
8
DEFAULT_255_2_778
10
29.1208883
20
3.4241904
40
3.0506426
50
183.7296512
51
193.041051
0
ARC
8
DEFAULT_255_2_778
10
29.8722551
20
3.4847966
40
3.804378
50
179.9524814
51
183.9043888
0
ARC
8
DEFAULT_255_2_778
10
29.4395067
20
3.4270678
40
4.4278415
50
179.8591629
51
188.0914287
0
ARC
8
DEFAULT_255_2_778
10
28.6164402
20
3.3079462
40
3.596203
50
188.0581847
51
198.3431649
0
ARC
8
DEFAULT_255_2_778
10
27.995927
20
3.0989889
40
2.94146
50
198.2835665
51
212.7465275
0
ARC
8
DEFAULT_255_2_778
10
27.701193
20
2.9168684
40
2.5950619
50
212.8845675
51
249.3448022
0
ARC
8
DEFAULT_255_2_778
10
27.9225703
20
3.4576126
40
3.1791789
50
249.0491775
51
261.25772
0
ARC
8
DEFAULT_255_2_778
10
28.0351571
20
4.165016
40
3.8954776
50
261.2024108
51
270.1503395
0
ARC
8
DEFAULT_255_2_778
10
28.0564817
20
4.180154
40
3.910618
50
269.8373234
51
279.0882984
0
ARC
8
DEFAULT_255_2_778
10
28.1763543
20
3.4483123
40
3.1690303
50
279.0382401
51
291.4441136
0
ARC
8
DEFAULT_255_2_778
10
28.3950964
20
2.9216452
40
2.5988747
50
291.200424
51
330.6144737
0
ARC
8
DEFAULT_255_2_778
10
27.9810458
20
3.1612838
40
3.0772446
50
330.509493
51
342.9554386
0
ARC
8
DEFAULT_255_2_778
10
27.3121832
20
3.3684764
40
3.7774605
50
342.9245238
51
352.5722111
0
ARC
8
DEFAULT_255_2_778
10
26.4207055
20
3.4878084
40
4.6768854
50
352.5344366
51
0.1316155
0
ARC
8
DEFAULT_255_2_778
10
43.7052437
20
14.852358
40
10.5717198
50
255.9495773
51
257.9740617
0
ARC
8
DEFAULT_255_2_778
10
42.8259254
20
11.3478516
40
6.9585828
50
253.3044598
51
255.9677103
0
ARC
8
DEFAULT_255_2_778
10
42.1094159
20
8.9698983
40
4.4750305
50
249.5849704
51
253.3448211
0
ARC
8
DEFAULT_255_2_778
10
41.4970633
20
7.3383059
40
2.7323222
50
243.7615281
51
249.6848366
0
ARC
8
DEFAULT_255_2_778
10
40.9879299
20
6.3145781
40
1.5889907
50
234.5322759
51
243.9084537
0
ARC
8
DEFAULT_255_2_778
10
40.6037865
20
5.7819189
40
0.9322812
50
218.5224899
51
234.7652129
0
ARC
8
DEFAULT_255_2_778
10
40.5595915
20
5.705257
40
0.8505774
50
177.3960276
51
216.3359704
0
ARC
8
DEFAULT_255_2_778
10
41.4938054
20
5.7640687
40
1.784027
50
179.9973325
51
180.6477305
0
ARC
8
DEFAULT_255_2_778
10
40.59083
20
5.7589368
40
0.881067
50
121.8468093
51
179.6608665
0
ARC
8
DEFAULT_255_2_778
10
40.8826853
20
5.3616671
40
1.3730641
50
106.0774024
51
123.4452406
0
ARC
8
DEFAULT_255_2_778
10
41.0264013
20
4.8815943
40
1.8741677
50
93.0667729
51
106.2347171
0
ARC
8
DEFAULT_255_2_778
10
41.0555319
20
4.5366051
40
2.2202469
50
89.9807341
51
93.3411445
0
ARC
8
DEFAULT_255_2_778
10
41.0527209
20
3.8197541
40
2.9370998
50
48.7579621
51
89.9306004
0
ARC
8
DEFAULT_255_2_778
10
41.1944452
20
3.9706006
40
3.7544179
50
49.7537223
51
89.9981486
0
ARC
8
DEFAULT_255_2_778
10
41.1945721
20
3.9684263
40
3.7565922
50
90.0000847
51
91.7068608
0
ARC
8
DEFAULT_255_2_778
10
41.0740907
20
4.5357389
40
3.1876244
50
89.8456388
51
101.2011059
0
ARC
8
DEFAULT_255_2_778
10
40.9719482
20
5.0379451
40
2.6751444
50
101.1445289
51
115.2122768
0
ARC
8
DEFAULT_255_2_778
10
40.7655723
20
5.4661529
40
2.199823
50
115.1000033
51
134.7624172
0
ARC
8
DEFAULT_255_2_778
10
40.5425398
20
5.692597
40
1.8819883
50
134.795734
51
173.8991958
0
ARC
8
DEFAULT_255_2_778
10
40.7149275
20
5.6677578
40
2.0560493
50
173.7214763
51
180.0336091
0
ARC
8
DEFAULT_255_2_778
10
40.9661236
20
5.655438
40
2.3072719
50
179.7240131
51
189.9255514
0
ARC
8
DEFAULT_255_2_778
10
40.3853251
20
5.5512105
40
1.7172029
50
189.8402655
51
206.0437963
0
ARC
8
DEFAULT_255_2_778
10
40.3734848
20
5.5786471
40
1.7188704
50
207.0388198
51
237.7310756
0
ARC
8
DEFAULT_255_2_778
10
41.0555037
20
6.5761557
40
2.9267735
50
236.8673616
51
247.0431379
0
ARC
8
DEFAULT_255_2_778
10
41.7887016
20
8.2780527
40
4.7798666
50
246.9074071
51
253.0692887
0
ARC
8
DEFAULT_255_2_778
10
42.7129599
20
11.2833379
40
7.9240587
50
253.0041076
51
256.9242794
0
ARC
8
DEFAULT_255_2_778
10
43.5326875
20
14.6819383
40
11.4200322
50
256.7758768
51
257.7328868
0
ARC
8
DEFAULT_255_2_778
10
38.9181878
20
-6.5819978
40
10.3388435
50
75.7778432
51
77.7816479
0
ARC
8
DEFAULT_255_2_778
10
39.8107864
20
-3.0693963
40
6.7146065
50
73.1333001
51
75.7971018
0
ARC
8
DEFAULT_255_2_778
10
40.5476262
20
-0.6555305
40
4.1907911
50
69.0837924
51
73.1985015
0
ARC
8
DEFAULT_255_2_778
10
41.1583408
20
0.9326994
40
2.489196
50
63.0542223
51
69.1636413
0
ARC
8
DEFAULT_255_2_778
10
41.6401374
20
1.8712047
40
1.4342602
50
53.2850358
51
63.222393
0
ARC
8
DEFAULT_255_2_778
10
41.9994834
20
2.3463511
40
0.8385537
50
35.3873554
51
53.5583361
0
ARC
8
DEFAULT_255_2_778
10
41.9808839
20
2.3745315
40
0.8380775
50
358.9718731
51
33.0797183
0
ARC
8
DEFAULT_255_2_778
10
41.0009767
20
2.3038288
40
1.8187019
50
359.9692199
51
1.7539205
0
ARC
8
DEFAULT_255_2_778
10
41.8851203
20
2.3051942
40
0.9345611
50
302.7998086
51
359.8563913
0
ARC
8
DEFAULT_255_2_778
10
41.5906002
20
2.6969231
40
1.4238183
50
287.196817
51
304.2229813
0
ARC
8
DEFAULT_255_2_778
10
41.4331778
20
3.18977
40
1.9411808
50
274.299473
51
287.3347206
0
ARC
8
DEFAULT_255_2_778
10
41.3927109
20
3.5876065
40
2.3409552
50
269.9624942
51
274.5571362
0
ARC
8
DEFAULT_255_2_778
10
41.377234
20
4.9922026
40
3.7455767
50
262.674453
51
270.2133081
0
ARC
8
DEFAULT_255_2_778
10
41.257365
20
4.0929522
40
2.8383853
50
238.8321851
51
262.7598401
0
ARC
8
DEFAULT_255_2_778
10
41.5242693
20
4.5724927
40
3.3868996
50
236.9721651
51
239.16725
0
ARC
8
DEFAULT_255_2_778
10
41.7610684
20
4.931376
40
3.816857
50
232.9137633
51
236.9282465
0
ARC
8
DEFAULT_255_2_778
10
42.1998842
20
5.5138692
40
4.5461419
50
229.9175341
51
232.9288489
0
ARC
8
DEFAULT_255_2_778
10
42.7914546
20
6.216925
40
5.4649689
50
227.2735369
51
229.9182556
0
ARC
8
DEFAULT_255_2_778
10
41.310249
20
4.4781143
40
4.2009834
50
226.5431479
51
269.9985141
0
ARC
8
DEFAULT_255_2_778
10
41.3101245
20
4.4842966
40
4.2071656
50
270.0002123
51
270.70756
0
ARC
8
DEFAULT_255_2_778
10
41.3713444
20
3.7470529
40
3.4696135
50
269.8469857
51
280.0099563
0
ARC
8
DEFAULT_255_2_778
10
41.4793928
20
3.149357
40
2.8622361
50
279.9596606
51
292.5132109
0
ARC
8
DEFAULT_255_2_778
10
41.6866032
20
2.6580331
40
2.3290176
50
292.432201
51
309.2742113
0
ARC
8
DEFAULT_255_2_778
10
41.9450776
20
2.3513712
40
1.9280095
50
309.0969581
51
353.8307198
0
ARC
8
DEFAULT_255_2_778
10
41.7070899
20
2.38806
40
2.1685891
50
353.5427153
51
0.0420562
0
ARC
8
DEFAULT_255_2_778
10
41.2241626
20
2.3958309
40
2.6515231
50
359.8664777
51
359.9999476
0
ARC
8
DEFAULT_255_2_778
10
41.6929737
20
2.410894
40
2.1827638
50
359.6045399
51
11.9942389
0
ARC
8
DEFAULT_255_2_778
10
42.2528432
20
2.5298175
40
1.6104034
50
11.9949874
51
51.6941909
0
ARC
8
DEFAULT_255_2_778
10
41.7391772
20
1.9265149
40
2.4023999
50
50.9997202
51
61.4906488
0
ARC
8
DEFAULT_255_2_778
10
41.2045511
20
0.9542278
40
3.5119694
50
61.3972936
51
68.4907769
0
ARC
8
DEFAULT_255_2_778
10
40.6126634
20
-0.5333985
40
5.1130142
50
68.432192
51
73.5115971
0
ARC
8
DEFAULT_255_2_778
10
40.013399
20
-2.5316677
40
7.1991967
50
73.4521485
51
76.8579734
0
ARC
8
DEFAULT_255_2_778
10
39.6196323
20
-4.1648548
40
8.879147
50
76.7797451
51
77.7599743
0
ARC
8
DEFAULT_255_2_778
10
56.2964514
20
6.119545
40
2.9079164
50
282.9027175
51
294.181555
0
ARC
8
DEFAULT_255_2_778
10
56.5447635
20
5.5749874
40
2.3094294
50
294.0958034
51
310.2414391
0
ARC
8
DEFAULT_255_2_778
10
56.7465703
20
5.327918
40
1.9904726
50
310.4016067
51
350.2449371
0
ARC
8
DEFAULT_255_2_778
10
56.3201215
20
5.4202051
40
2.4264644
50
349.8034493
51
0.1427795
0
ARC
8
DEFAULT_255_2_778
10
56.6919342
20
5.4687467
40
2.0550837
50
358.8151555
51
359.9996749
0
ARC
8
DEFAULT_255_2_778
10
56.6952259
20
5.4687712
40
2.0517919
50
359.9989896
51
44.003339
0
ARC
8
DEFAULT_255_2_778
10
56.2342479
20
4.7296184
40
2.9045684
50
48.1777299
51
89.998303
0
ARC
8
DEFAULT_255_2_778
10
56.234341
20
4.7277972
40
2.9063896
50
90.0001407
51
92.7859095
0
ARC
8
DEFAULT_255_2_778
10
56.0414063
20
3.5308208
40
3.1101527
50
82.4880475
51
90.2142092
0
ARC
8
DEFAULT_255_2_778
10
56.1691478
20
4.4713799
40
2.1609691
50
71.9606615
51
82.5857004
0
ARC
8
DEFAULT_255_2_778
10
56.3877004
20
5.1295736
40
1.4674556
50
56.2619648
51
72.1163179
0
ARC
8
DEFAULT_255_2_778
10
56.6040935
20
5.4537593
40
1.0776836
50
6.0985686
51
56.2565327
0
ARC
8
DEFAULT_255_2_778
10
56.1905988
20
5.376693
40
1.4973828
50
359.8836322
51
7.3499302
0
ARC
8
DEFAULT_255_2_778
10
56.3889942
20
5.362617
40
1.2990312
50
340.0614114
51
0.4867109
0
ARC
8
DEFAULT_255_2_778
10
56.4970519
20
5.3415513
40
1.1903889
50
299.0135657
51
339.2409229
0
ARC
8
DEFAULT_255_2_778
10
56.2335562
20
5.7725237
40
1.6952113
50
284.8248514
51
299.7368575
0
ARC
8
DEFAULT_255_2_778
10
56.0727594
20
6.3616983
40
2.3059207
50
274.0874992
51
284.941511
0
ARC
8
DEFAULT_255_2_778
10
56.0241429
20
6.8955324
40
2.8418814
50
269.9543459
51
274.298007
0
LINE
8
DEFAULT_255_2_778
10
21.2095785
20
7.6281518
11
18.4663785
21
7.6281518
0
LINE
8
DEFAULT_255_2_778
10
18.4663785
20
7.6281518
11
18.4663785
21
6.6407518
0
LINE
8
DEFAULT_255_2_778
10
18.4663785
20
6.6407518
11
21.1489785
21
6.6407518
0
LINE
8
DEFAULT_255_2_778
10
21.1066785
20
3.8260518
11
18.4663785
21
3.8260518
0
LINE
8
DEFAULT_255_2_778
10
18.4663785
20
3.8260518
11
18.4663785
21
0.3936518
0
LINE
8
DEFAULT_255_2_778
10
18.4663785
20
0.3936518
11
19.5225785
21
0.3936518
0
LINE
8
DEFAULT_255_2_778
10
19.5225785
20
0.3936518
11
19.5225785
21
2.8489518
0
LINE
8
DEFAULT_255_2_778
10
19.5225785
20
2.8489518
11
21.0883785
21
2.8489518
0
LINE
8
DEFAULT_255_2_778
10
21.2098785
20
7.6278518
11
21.2095785
21
7.6281518
0
LINE
8
DEFAULT_255_2_778
10
26.0678785
20
3.4879518
11
26.0678785
21
7.6281518
0
LINE
8
DEFAULT_255_2_778
10
26.0678785
20
7.6281518
11
25.0116785
21
7.6281518
0
LINE
8
DEFAULT_255_2_778
10
25.0116785
20
7.6281518
11
25.0116785
21
3.4379518
0
LINE
8
DEFAULT_255_2_778
10
31.0975785
20
3.4985518
11
31.0975785
21
7.6281518
0
LINE
8
DEFAULT_255_2_778
10
31.0975785
20
7.6281518
11
30.0413785
21
7.6281518
0
LINE
8
DEFAULT_255_2_778
10
30.0413785
20
7.6281518
11
30.0492785
21
3.4379518
0
LINE
8
DEFAULT_255_2_778
10
33.7508785
20
7.6281518
11
32.7025785
21
7.6281518
0
LINE
8
DEFAULT_255_2_778
10
32.7025785
20
7.6281518
11
32.7025785
21
0.3833518
0
LINE
8
DEFAULT_255_2_778
10
32.7025785
20
0.3833518
11
37.6819785
21
0.3833518
0
LINE
8
DEFAULT_255_2_778
10
37.6819785
20
0.3833518
11
37.6819785
21
1.3733518
0
LINE
8
DEFAULT_255_2_778
10
37.6819785
20
1.3733518
11
33.7505785
21
1.3733518
0
LINE
8
DEFAULT_255_2_778
10
33.7505785
20
1.3733518
11
33.7505785
21
7.6281518
0
LINE
8
DEFAULT_255_2_778
10
33.7505785
20
7.6281518
11
33.7508785
21
7.6281518
0
LINE
8
DEFAULT_255_2_778
10
42.9889785
20
6.0282518
11
43.0945785
21
5.9438518
0
LINE
8
DEFAULT_255_2_778
10
43.0945785
20
5.9438518
11
43.7176785
21
6.7571518
0
LINE
8
DEFAULT_255_2_778
10
43.7176785
20
6.7571518
11
43.6200785
21
6.8362518
0
LINE
8
DEFAULT_255_2_778
10
39.0834785
20
2.2023518
11
38.9832785
21
2.2920518
0
LINE
8
DEFAULT_255_2_778
10
38.9832785
20
2.2920518
11
38.3257785
21
1.5130518
0
LINE
8
DEFAULT_255_2_778
10
38.3257785
20
1.5130518
11
38.4207785
21
1.4286518
0
LINE
8
DEFAULT_255_2_778
10
41.5020785
20
4.5124518
11
41.5025785
21
4.5126518
0
LINE
8
DEFAULT_255_2_778
10
47.7073785
20
7.6784518
11
44.4069785
21
0.3833518
0
LINE
8
DEFAULT_255_2_778
10
44.4069785
20
0.3833518
11
45.4998785
21
0.3833518
0
LINE
8
DEFAULT_255_2_778
10
45.4998785
20
0.3833518
11
46.3288785
21
2.2314518
0
LINE
8
DEFAULT_255_2_778
10
46.3288785
20
2.2314518
11
49.9618785
21
2.2314518
0
LINE
8
DEFAULT_255_2_778
10
49.9618785
20
2.2314518
11
50.7801785
21
0.3833518
0
LINE
8
DEFAULT_255_2_778
10
50.7801785
20
0.3833518
11
51.9128785
21
0.3833518
0
LINE
8
DEFAULT_255_2_778
10
51.9128785
20
0.3833518
11
48.6124785
21
7.6784518
0
LINE
8
DEFAULT_255_2_778
10
48.6124785
20
7.6784518
11
47.7073785
21
7.6784518
0
LINE
8
DEFAULT_255_2_778
10
46.7542785
20
3.1900518
11
48.1510785
21
6.3054518
0
LINE
8
DEFAULT_255_2_778
10
48.1510785
20
6.3054518
11
49.5398785
21
3.1900518
0
LINE
8
DEFAULT_255_2_778
10
49.5398785
20
3.1900518
11
46.7542785
21
3.1900518
0
LINE
8
DEFAULT_255_2_778
10
56.0930785
20
7.6307518
11
52.9590785
21
7.6307518
0
LINE
8
DEFAULT_255_2_778
10
52.9590785
20
7.6307518
11
52.9590785
21
0.3833518
0
LINE
8
DEFAULT_255_2_778
10
52.9590785
20
0.3833518
11
54.0152785
21
0.3833518
0
LINE
8
DEFAULT_255_2_778
10
54.0152785
20
0.3833518
11
54.0152785
21
3.1003518
0
LINE
8
DEFAULT_255_2_778
10
54.0152785
20
3.1003518
11
55.8159785
21
3.1003518
0
LINE
8
DEFAULT_255_2_778
10
55.8159785
20
3.1003518
11
57.8411785
21
0.3862518
0
LINE
8
DEFAULT_255_2_778
10
57.8411785
20
0.3862518
11
59.1343785
21
0.3862518
0
LINE
8
DEFAULT_255_2_778
10
59.1343785
20
0.3862518
11
56.9457785
21
3.2850518
0
LINE
8
DEFAULT_255_2_778
10
54.0046785
20
4.0771518
11
54.0046785
21
6.6409518
0
LINE
8
DEFAULT_255_2_778
10
54.0046785
20
6.6409518
11
56.0297785
21
6.6409518
0
LINE
8
DEFAULT_255_2_778
10
56.0218785
20
4.0536518
11
54.0046785
21
4.0771518
0
ENDSEC
0
EOF