0
SECTION
2
HEADER
9
$MEASUREMENT
70
1
0
ENDSEC
0
SECTION
2
TABLES
0
TABLE
2
LTYPE
0
LTYPE
72
65
70
64
2
CONTINUOUS
3
______
73
0
40
0
0
ENDTAB
0
TABLE
2
LAYER
0
LAYER
2
DEFAULT_255_2_778
70
0
62
255
6
CONTINUOUS
0
ENDTAB
0
ENDSEC
0
SECTION
2
ENTITIES
0
ARC
8
DEFAULT_255_2_778
10
3.2501339
20
71.6930885
40
0.4999216
50
89.9970509
51
135.012375
0
ARC
8
DEFAULT_255_2_778
10
3.249981
20
71.6929358
40
0.4999214
50
134.9876157
51
180.0029524
0
ARC
8
DEFAULT_255_2_778
10
3.2501566
20
69.921007
40
0.5000969
50
179.9996485
51
270.0003515
0
ARC
8
DEFAULT_255_2_778
10
5.0219839
20
69.9209858
40
0.5000758
50
270.008676
51
0.0027763
0
ARC
8
DEFAULT_255_2_778
10
5.0222342
20
71.6930756
40
0.4998254
50
359.9810259
51
45.0007358
0
ARC
8
DEFAULT_255_2_778
10
5.0220132
20
71.6929144
40
0.5000956
50
44.9958871
51
89.9946851
0
ARC
8
DEFAULT_255_2_778
10
4.8361013
20
71.5069517
40
0.1322583
50
359.9819284
51
90.0180716
0
ARC
8
DEFAULT_255_2_778
10
4.8359633
20
71.5069136
40
0.3320963
50
359.9993842
51
89.9833779
0
ARC
8
DEFAULT_255_2_778
10
4.8361181
20
71.5064609
40
0.5179492
50
45.0162387
51
90.006464
0
ARC
8
DEFAULT_255_2_778
10
4.8361434
20
71.5067648
40
0.5177164
50
359.9939412
51
44.9944438
0
ARC
8
DEFAULT_255_2_778
10
4.8361438
20
70.1066552
40
0.5177158
50
315.0055293
51
0.0060682
0
ARC
8
DEFAULT_255_2_778
10
4.8361181
20
70.1069592
40
0.5179492
50
269.993536
51
314.9837613
0
ARC
8
DEFAULT_255_2_778
10
3.4360965
20
71.5066731
40
0.132237
50
89.9726636
51
179.9839909
0
ARC
8
DEFAULT_255_2_778
10
3.4361558
20
71.5066138
40
0.3320962
50
89.9993374
51
179.9833901
0
ARC
8
DEFAULT_255_2_778
10
3.4360285
20
71.5064361
40
0.5177739
50
89.9854934
51
134.9917825
0
ARC
8
DEFAULT_255_2_778
10
3.4363066
20
71.5064694
40
0.517947
50
135.0161437
51
180.0065668
0
ARC
8
DEFAULT_255_2_778
10
3.4358179
20
70.1064682
40
0.1322583
50
179.9818914
51
270.0180564
0
ARC
8
DEFAULT_255_2_778
10
3.4358772
20
70.1065277
40
0.3321176
50
180.0030407
51
269.9969593
0
ARC
8
DEFAULT_255_2_778
10
3.4363084
20
70.1064515
40
0.5179487
50
179.9935265
51
224.9837882
0
ARC
8
DEFAULT_255_2_778
10
3.4360284
20
70.1064835
40
0.5177735
50
225.0081906
51
270.014516
0
ARC
8
DEFAULT_255_2_778
10
4.8360376
20
70.1062321
40
0.132322
50
270.0095531
51
359.9904559
0
ARC
8
DEFAULT_255_2_778
10
4.8359847
20
70.106285
40
0.3320749
50
270.01292
51
359.9870592
0
ARC
8
DEFAULT_255_2_778
10
12.8435702
20
58.9740994
40
0.3100106
50
90.0019576
51
179.9980424
0
ARC
8
DEFAULT_255_2_778
10
12.8434703
20
58.9741208
40
0.3099892
50
359.998006
51
89.9834993
0
ARC
8
DEFAULT_255_2_778
10
12.8419967
20
58.9650069
40
0.3115959
50
0.0004209
51
1.6741148
0
ARC
8
DEFAULT_255_2_778
10
12.8434749
20
58.9650467
40
0.3101178
50
300.5617833
51
359.9930648
0
ARC
8
DEFAULT_255_2_778
10
12.8436301
20
58.9647037
40
0.3097435
50
269.984642
51
300.5693146
0
LINE
8
DEFAULT_255_2_778
10
12.8435471
20
58.65496
11
12.8431999
21
58.6549602
0
ARC
8
DEFAULT_255_2_778
10
12.8434982
20
58.9651027
40
0.3101426
50
239.4508142
51
269.9448892
0
ARC
8
DEFAULT_255_2_778
10
12.8437643
20
58.965172
40
0.3103375
50
180.0274243
51
239.4150118
0
ARC
8
DEFAULT_255_2_778
10
12.8449927
20
58.9650143
40
0.3115659
50
178.3270896
51
179.9983191
0
ARC
8
DEFAULT_255_2_778
10
12.8435702
20
56.4340994
40
0.3100106
50
90.0019576
51
179.9980424
0
ARC
8
DEFAULT_255_2_778
10
12.8434703
20
56.4341208
40
0.3099892
50
359.998006
51
89.9834993
0
ARC
8
DEFAULT_255_2_778
10
12.8419967
20
56.4250069
40
0.3115959
50
0.0004209
51
1.6741148
0
ARC
8
DEFAULT_255_2_778
10
12.8434749
20
56.4250467
40
0.3101178
50
300.5617833
51
359.9930648
0
ARC
8
DEFAULT_255_2_778
10
12.8436295
20
56.4247052
40
0.3097451
50
269.9847571
51
300.5692749
0
LINE
8
DEFAULT_255_2_778
10
12.8435471
20
56.11496
11
12.8431999
21
56.1149602
0
ARC
8
DEFAULT_255_2_778
10
12.8434982
20
56.4251027
40
0.3101426
50
239.4508142
51
269.9448892
0
ARC
8
DEFAULT_255_2_778
10
12.8437643
20
56.425172
40
0.3103375
50
180.0274243
51
239.4150118
0
ARC
8
DEFAULT_255_2_778
10
12.8449927
20
56.4250143
40
0.3115659
50
178.3270896
51
179.9983191
0
ARC
8
DEFAULT_255_2_778
10
12.8435702
20
61.5140994
40
0.3100106
50
90.0019576
51
179.9980424
0
ARC
8
DEFAULT_255_2_778
10
12.8434703
20
61.5141208
40
0.3099892
50
359.998006
51
89.9834993
0
ARC
8
DEFAULT_255_2_778
10
12.8419968
20
61.5050069
40
0.3115958
50
0.0004209
51
1.6741149
0
ARC
8
DEFAULT_255_2_778
10
12.8437575
20
61.5049852
40
0.3098352
50
300.5319659
51
0.0044227
0
ARC
8
DEFAULT_255_2_778
10
12.8436156
20
61.5043169
40
0.3093319
50
269.9873218
51
300.6174975
0
LINE
8
DEFAULT_255_2_778
10
12.8435471
20
61.194985
11
12.8431999
21
61.1949852
0
ARC
8
DEFAULT_255_2_778
10
12.8435127
20
61.5047161
40
0.309731
50
239.4027549
51
269.9421378
0
ARC
8
DEFAULT_255_2_778
10
12.8434815
20
61.5051105
40
0.3100547
50
180.0160929
51
239.444817
0
ARC
8
DEFAULT_255_2_778
10
12.8449927
20
61.5050143
40
0.3115658
50
178.3270895
51
179.9983191
0
ARC
8
DEFAULT_255_2_778
10
15.3850434
20
61.5232134
40
0.3116168
50
180.000416
51
181.6740366
0
ARC
8
DEFAULT_255_2_778
10
15.3834186
20
61.5232452
40
0.309992
50
120.5485309
51
180.0063064
0
ARC
8
DEFAULT_255_2_778
10
15.383471
20
61.5232169
40
0.310043
50
89.992865
51
120.5542058
0
ARC
8
DEFAULT_255_2_778
10
15.3835483
20
61.5232173
40
0.3100428
50
59.445769
51
90.0071436
0
ARC
8
DEFAULT_255_2_778
10
15.3836006
20
61.5232452
40
0.309992
50
359.9936936
51
59.4514691
0
ARC
8
DEFAULT_255_2_778
10
15.3819758
20
61.5232134
40
0.3116168
50
358.3259634
51
359.999584
0
ARC
8
DEFAULT_255_2_778
10
15.3819968
20
61.5050069
40
0.3115958
50
0.0004209
51
1.6741149
0
ARC
8
DEFAULT_255_2_778
10
15.3837575
20
61.5049852
40
0.3098352
50
300.5319659
51
0.0044227
0
ARC
8
DEFAULT_255_2_778
10
15.3835335
20
61.5046169
40
0.3096319
50
269.9955812
51
300.6022883
0
ARC
8
DEFAULT_255_2_778
10
15.3834857
20
61.5046169
40
0.3096319
50
239.3977117
51
270.0044188
0
ARC
8
DEFAULT_255_2_778
10
15.3832618
20
61.5049852
40
0.3098351
50
179.9955773
51
239.4680341
0
ARC
8
DEFAULT_255_2_778
10
15.3850224
20
61.5050069
40
0.3115958
50
178.3258851
51
179.9995791
0
ARC
8
DEFAULT_255_2_778
10
12.8435702
20
15.7940994
40
0.3100106
50
90.0019576
51
179.9980424
0
ARC
8
DEFAULT_255_2_778
10
12.8434703
20
15.7941208
40
0.3099892
50
359.998006
51
89.9834993
0
ARC
8
DEFAULT_255_2_778
10
12.8419967
20
15.7850069
40
0.3115959
50
0.0004209
51
1.6741148
0
ARC
8
DEFAULT_255_2_778
10
12.8434749
20
15.7850467
40
0.3101178
50
300.5617833
51
359.9930648
0
ARC
8
DEFAULT_255_2_778
10
12.8436294
20
15.7847037
40
0.3097439
50
269.9847821
51
300.5694311
0
LINE
8
DEFAULT_255_2_778
10
12.8435471
20
15.47496
11
12.8431999
21
15.4749602
0
ARC
8
DEFAULT_255_2_778
10
12.8434982
20
15.7851027
40
0.3101426
50
239.4508142
51
269.9448892
0
ARC
8
DEFAULT_255_2_778
10
12.8437643
20
15.785172
40
0.3103375
50
180.0274243
51
239.4150118
0
ARC
8
DEFAULT_255_2_778
10
12.8449927
20
15.7850143
40
0.3115659
50
178.3270896
51
179.9983191
0
ARC
8
DEFAULT_255_2_778
10
12.8435702
20
13.2540994
40
0.3100106
50
90.0019576
51
179.9980424
0
ARC
8
DEFAULT_255_2_778
10
12.8434703
20
13.2541208
40
0.3099892
50
359.998006
51
89.9834993
0
ARC
8
DEFAULT_255_2_778
10
12.8419967
20
13.2450069
40
0.3115959
50
0.0004209
51
1.6741148
0
ARC
8
DEFAULT_255_2_778
10
12.8434749
20
13.2450467
40
0.3101178
50
300.5617833
51
359.9930648
0
ARC
8
DEFAULT_255_2_778
10
12.8436294
20
13.2447037
40
0.3097439
50
269.9847821
51
300.5694311
0
LINE
8
DEFAULT_255_2_778
10
12.8435471
20
12.93496
11
12.8431999
21
12.9349602
0
ARC
8
DEFAULT_255_2_778
10
12.8434982
20
13.2451027
40
0.3101426
50
239.4508142
51
269.9448892
0
ARC
8
DEFAULT_255_2_778
10
12.8437643
20
13.245172
40
0.3103375
50
180.0274243
51
239.4150118
0
ARC
8
DEFAULT_255_2_778
10
12.8449927
20
13.2450143
40
0.3115659
50
178.3270896
51
179.9983191
0
ARC
8
DEFAULT_255_2_778
10
12.8435702
20
18.3340994
40
0.3100106
50
90.0019576
51
179.9980424
0
ARC
8
DEFAULT_255_2_778
10
12.8434703
20
18.3341208
40
0.3099892
50
359.998006
51
89.9834993
0
ARC
8
DEFAULT_255_2_778
10
12.8419967
20
18.3250069
40
0.3115959
50
0.0004209
51
1.6741148
0
ARC
8
DEFAULT_255_2_778
10
12.8434749
20
18.3250467
40
0.3101178
50
300.5617833
51
359.9930648
0
ARC
8
DEFAULT_255_2_778
10
12.8436294
20
18.3247037
40
0.3097439
50
269.9847821
51
300.5694311
0
LINE
8
DEFAULT_255_2_778
10
12.8435471
20
18.01496
11
12.8431999
21
18.0149602
0
ARC
8
DEFAULT_255_2_778
10
12.8434982
20
18.3251027
40
0.3101426
50
239.4508142
51
269.9448892
0
ARC
8
DEFAULT_255_2_778
10
12.8437643
20
18.325172
40
0.3103375
50
180.0274243
51
239.4150118
0
ARC
8
DEFAULT_255_2_778
10
12.8449927
20
18.3250143
40
0.3115659
50
178.3270896
51
179.9983191
0
ARC
8
DEFAULT_255_2_778
10
12.8435702
20
20.8740994
40
0.3100106
50
90.0019576
51
179.9980424
0
ARC
8
DEFAULT_255_2_778
10
12.8434703
20
20.8741208
40
0.3099892
50
359.998006
51
89.9834993
0
ARC
8
DEFAULT_255_2_778
10
12.8419967
20
20.8650069
40
0.3115959
50
0.0004209
51
1.6741148
0
ARC
8
DEFAULT_255_2_778
10
12.8434749
20
20.8650467
40
0.3101178
50
300.5617833
51
359.9930648
0
ARC
8
DEFAULT_255_2_778
10
12.8436294
20
20.8647037
40
0.3097439
50
269.9847821
51
300.5694311
0
LINE
8
DEFAULT_255_2_778
10
12.8435471
20
20.55496
11
12.8431999
21
20.5549602
0
ARC
8
DEFAULT_255_2_778
10
12.8434982
20
20.8651027
40
0.3101426
50
239.4508142
51
269.9448892
0
ARC
8
DEFAULT_255_2_778
10
12.8437643
20
20.865172
40
0.3103375
50
180.0274243
51
239.4150118
0
ARC
8
DEFAULT_255_2_778
10
12.8449927
20
20.8650143
40
0.3115659
50
178.3270896
51
179.9983191
0
ARC
8
DEFAULT_255_2_778
10
12.8435702
20
41.1940994
40
0.3100106
50
90.0019576
51
179.9980424
0
ARC
8
DEFAULT_255_2_778
10
12.8434703
20
41.1941208
40
0.3099892
50
359.998006
51
89.9834993
0
ARC
8
DEFAULT_255_2_778
10
12.8419967
20
41.1850069
40
0.3115959
50
0.0004209
51
1.6741148
0
ARC
8
DEFAULT_255_2_778
10
12.8434749
20
41.1850467
40
0.3101178
50
300.5617833
51
359.9930648
0
ARC
8
DEFAULT_255_2_778
10
12.8436297
20
41.1847041
40
0.3097441
50
269.9847298
51
300.5693556
0
LINE
8
DEFAULT_255_2_778
10
12.8435471
20
40.87496
11
12.8431999
21
40.8749602
0
ARC
8
DEFAULT_255_2_778
10
12.8434982
20
41.1851027
40
0.3101426
50
239.4508142
51
269.9448892
0
ARC
8
DEFAULT_255_2_778
10
12.8437643
20
41.185172
40
0.3103375
50
180.0274243
51
239.4150118
0
ARC
8
DEFAULT_255_2_778
10
12.8449927
20
41.1850143
40
0.3115659
50
178.3270896
51
179.9983191
0
ARC
8
DEFAULT_255_2_778
10
12.8435702
20
36.1140994
40
0.3100106
50
90.0019576
51
179.9980424
0
ARC
8
DEFAULT_255_2_778
10
12.8434703
20
36.1141208
40
0.3099892
50
359.998006
51
89.9834993
0
ARC
8
DEFAULT_255_2_778
10
12.8419968
20
36.1050069
40
0.3115958
50
0.0004209
51
1.6741149
0
ARC
8
DEFAULT_255_2_778
10
12.8437575
20
36.1049852
40
0.3098352
50
300.5319659
51
0.0044227
0
ARC
8
DEFAULT_255_2_778
10
12.8436156
20
36.1043169
40
0.3093319
50
269.9873218
51
300.6174975
0
LINE
8
DEFAULT_255_2_778
10
12.8435471
20
35.794985
11
12.8431999
21
35.7949852
0
ARC
8
DEFAULT_255_2_778
10
12.8435127
20
36.1047161
40
0.309731
50
239.4027549
51
269.9421378
0
ARC
8
DEFAULT_255_2_778
10
12.8434815
20
36.1051105
40
0.3100547
50
180.0160929
51
239.444817
0
ARC
8
DEFAULT_255_2_778
10
12.8449927
20
36.1050143
40
0.3115658
50
178.3270895
51
179.9983191
0
ARC
8
DEFAULT_255_2_778
10
12.8435702
20
43.7340994
40
0.3100106
50
90.0019576
51
179.9980424
0
ARC
8
DEFAULT_255_2_778
10
12.8434703
20
43.7341208
40
0.3099892
50
359.998006
51
89.9834993
0
ARC
8
DEFAULT_255_2_778
10
12.8419967
20
43.7250069
40
0.3115959
50
0.0004209
51
1.6741148
0
ARC
8
DEFAULT_255_2_778
10
12.8434749
20
43.7250467
40
0.3101178
50
300.5617833
51
359.9930648
0
ARC
8
DEFAULT_255_2_778
10
12.8436305
20
43.7247011
40
0.3097411
50
269.984579
51
300.5695012
0
LINE
8
DEFAULT_255_2_778
10
12.8435471
20
43.41496
11
12.8431999
21
43.4149602
0
ARC
8
DEFAULT_255_2_778
10
12.8434982
20
43.7251027
40
0.3101426
50
239.4508142
51
269.9448892
0
ARC
8
DEFAULT_255_2_778
10
12.8437643
20
43.725172
40
0.3103375
50
180.0274243
51
239.4150118
0
ARC
8
DEFAULT_255_2_778
10
12.8449927
20
43.7250143
40
0.3115659
50
178.3270896
51
179.9983191
0
ARC
8
DEFAULT_255_2_778
10
12.8435702
20
38.6540994
40
0.3100106
50
90.0019576
51
179.9980424
0
ARC
8
DEFAULT_255_2_778
10
12.8434703
20
38.6541208
40
0.3099892
50
359.998006
51
89.9834993
0
ARC
8
DEFAULT_255_2_778
10
12.8419967
20
38.6450069
40
0.3115959
50
0.0004209
51
1.6741148
0
ARC
8
DEFAULT_255_2_778
10
12.8434749
20
38.6450467
40
0.3101178
50
300.5617833
51
359.9930648
0
ARC
8
DEFAULT_255_2_778
10
12.8436305
20
38.6447011
40
0.3097411
50
269.984579
51
300.5695012
0
LINE
8
DEFAULT_255_2_778
10
12.8435471
20
38.33496
11
12.8431999
21
38.3349602
0
ARC
8
DEFAULT_255_2_778
10
12.8434982
20
38.6451027
40
0.3101426
50
239.4508142
51
269.9448892
0
ARC
8
DEFAULT_255_2_778
10
12.8437643
20
38.645172
40
0.3103375
50
180.0274243
51
239.4150118
0
ARC
8
DEFAULT_255_2_778
10
12.8449927
20
38.6450143
40
0.3115659
50
178.3270896
51
179.9983191
0
ARC
8
DEFAULT_255_2_778
10
15.3850434
20
15.8032134
40
0.3116168
50
180.000416
51
181.6740366
0
ARC
8
DEFAULT_255_2_778
10
15.3834186
20
15.8032452
40
0.309992
50
120.5485309
51
180.0063064
0
ARC
8
DEFAULT_255_2_778
10
15.3834719
20
15.8032158
40
0.3100445
50
89.9930323
51
120.5542415
0
ARC
8
DEFAULT_255_2_778
10
15.3835473
20
15.8032158
40
0.3100443
50
59.4457585
51
90.0069677
0
ARC
8
DEFAULT_255_2_778
10
15.3836006
20
15.8032452
40
0.309992
50
359.9936936
51
59.4514691
0
ARC
8
DEFAULT_255_2_778
10
15.3819758
20
15.8032134
40
0.3116168
50
358.3259634
51
359.999584
0
ARC
8
DEFAULT_255_2_778
10
15.3819967
20
15.7850069
40
0.3115959
50
0.0004209
51
1.6741148
0
ARC
8
DEFAULT_255_2_778
10
15.3834749
20
15.7850467
40
0.3101178
50
300.5617833
51
359.9930648
0
ARC
8
DEFAULT_255_2_778
10
15.3835473
20
15.7850043
40
0.3100445
50
269.9930323
51
300.5542415
0
ARC
8
DEFAULT_255_2_778
10
15.3834719
20
15.7850043
40
0.3100443
50
239.4457585
51
270.0069677
0
ARC
8
DEFAULT_255_2_778
10
15.3835443
20
15.7850467
40
0.3101178
50
180.0069352
51
239.4382167
0
ARC
8
DEFAULT_255_2_778
10
15.3850225
20
15.7850069
40
0.3115959
50
178.3258852
51
179.9995791
0
ARC
8
DEFAULT_255_2_778
10
15.3850434
20
20.8832134
40
0.3116168
50
180.000416
51
181.6740366
0
ARC
8
DEFAULT_255_2_778
10
15.3834186
20
20.8832452
40
0.309992
50
120.5485309
51
180.0063064
0
ARC
8
DEFAULT_255_2_778
10
15.3834716
20
20.8832158
40
0.3100443
50
89.9929715
51
120.5541913
0
ARC
8
DEFAULT_255_2_778
10
15.3835478
20
20.8832158
40
0.3100442
50
59.4458246
51
90.007047
0
ARC
8
DEFAULT_255_2_778
10
15.3836006
20
20.8832452
40
0.309992
50
359.9936936
51
59.4514691
0
ARC
8
DEFAULT_255_2_778
10
15.3819758
20
20.8832134
40
0.3116168
50
358.3259634
51
359.999584
0
ARC
8
DEFAULT_255_2_778
10
15.3819967
20
20.8650069
40
0.3115959
50
0.0004209
51
1.6741148
0
ARC
8
DEFAULT_255_2_778
10
15.3834749
20
20.8650467
40
0.3101178
50
300.5617833
51
359.9930648
0
ARC
8
DEFAULT_255_2_778
10
15.3835473
20
20.8650043
40
0.3100445
50
269.9930323
51
300.5542415
0
ARC
8
DEFAULT_255_2_778
10
15.3834719
20
20.8650043
40
0.3100443
50
239.4457585
51
270.0069677
0
ARC
8
DEFAULT_255_2_778
10
15.3835443
20
20.8650467
40
0.3101178
50
180.0069352
51
239.4382167
0
ARC
8
DEFAULT_255_2_778
10
15.3850225
20
20.8650069
40
0.3115959
50
178.3258852
51
179.9995791
0
ARC
8
DEFAULT_255_2_778
10
15.3850434
20
18.3432134
40
0.3116168
50
180.000416
51
181.6740366
0
ARC
8
DEFAULT_255_2_778
10
15.3834186
20
18.3432452
40
0.309992
50
120.5485309
51
180.0063064
0
ARC
8
DEFAULT_255_2_778
10
15.3834719
20
18.3432158
40
0.3100445
50
89.9930323
51
120.5542415
0
ARC
8
DEFAULT_255_2_778
10
15.3835473
20
18.3432158
40
0.3100443
50
59.4457585
51
90.0069677
0
ARC
8
DEFAULT_255_2_778
10
15.3836006
20
18.3432452
40
0.309992
50
359.9936936
51
59.4514691
0
ARC
8
DEFAULT_255_2_778
10
15.3819758
20
18.3432134
40
0.3116168
50
358.3259634
51
359.999584
0
ARC
8
DEFAULT_255_2_778
10
15.3819967
20
18.3250069
40
0.3115959
50
0.0004209
51
1.6741148
0
ARC
8
DEFAULT_255_2_778
10
15.3834749
20
18.3250467
40
0.3101178
50
300.5617833
51
359.9930648
0
ARC
8
DEFAULT_255_2_778
10
15.3835473
20
18.3250043
40
0.3100445
50
269.9930323
51
300.5542415
0
ARC
8
DEFAULT_255_2_778
10
15.3834719
20
18.3250043
40
0.3100443
50
239.4457585
51
270.0069677
0
ARC
8
DEFAULT_255_2_778
10
15.3835443
20
18.3250467
40
0.3101178
50
180.0069352
51
239.4382167
0
ARC
8
DEFAULT_255_2_778
10
15.3850225
20
18.3250069
40
0.3115959
50
178.3258852
51
179.9995791
0
ARC
8
DEFAULT_255_2_778
10
15.3850434
20
13.2632134
40
0.3116168
50
180.000416
51
181.6740366
0
ARC
8
DEFAULT_255_2_778
10
15.3834186
20
13.2632452
40
0.309992
50
120.5485309
51
180.0063064
0
ARC
8
DEFAULT_255_2_778
10
15.3834719
20
13.2632158
40
0.3100445
50
89.9930323
51
120.5542415
0
ARC
8
DEFAULT_255_2_778
10
15.3835473
20
13.2632158
40
0.3100443
50
59.4457585
51
90.0069677
0
ARC
8
DEFAULT_255_2_778
10
15.3836006
20
13.2632452
40
0.309992
50
359.9936936
51
59.4514691
0
ARC
8
DEFAULT_255_2_778
10
15.3819758
20
13.2632134
40
0.3116168
50
358.3259634
51
359.999584
0
ARC
8
DEFAULT_255_2_778
10
15.3819967
20
13.2450069
40
0.3115959
50
0.0004209
51
1.6741148
0
ARC
8
DEFAULT_255_2_778
10
15.3834749
20
13.2450467
40
0.3101178
50
300.5617833
51
359.9930648
0
ARC
8
DEFAULT_255_2_778
10
15.3835473
20
13.2450043
40
0.3100445
50
269.9930323
51
300.5542415
0
ARC
8
DEFAULT_255_2_778
10
15.3834719
20
13.2450043
40
0.3100443
50
239.4457585
51
270.0069677
0
ARC
8
DEFAULT_255_2_778
10
15.3835443
20
13.2450467
40
0.3101178
50
180.0069352
51
239.4382167
0
ARC
8
DEFAULT_255_2_778
10
15.3850225
20
13.2450069
40
0.3115959
50
178.3258852
51
179.9995791
0
ARC
8
DEFAULT_255_2_778
10
15.3850434
20
43.7432134
40
0.3116168
50
180.000416
51
181.6740366
0
ARC
8
DEFAULT_255_2_778
10
15.3834186
20
43.7432452
40
0.309992
50
120.5485309
51
180.0063064
0
ARC
8
DEFAULT_255_2_778
10
15.3834708
20
43.7432184
40
0.3100417
50
89.9928292
51
120.5543116
0
ARC
8
DEFAULT_255_2_778
10
15.3835484
20
43.7432184
40
0.3100417
50
59.4456884
51
90.0071708
0
ARC
8
DEFAULT_255_2_778
10
15.3836006
20
43.7432452
40
0.309992
50
359.9936936
51
59.4514691
0
ARC
8
DEFAULT_255_2_778
10
15.3819758
20
43.7432134
40
0.3116168
50
358.3259634
51
359.999584
0
ARC
8
DEFAULT_255_2_778
10
15.3819967
20
43.7250069
40
0.3115959
50
0.0004209
51
1.6741148
0
ARC
8
DEFAULT_255_2_778
10
15.3834749
20
43.7250467
40
0.3101178
50
300.5617833
51
359.9930648
0
ARC
8
DEFAULT_255_2_778
10
15.3835484
20
43.7250017
40
0.3100417
50
269.9928292
51
300.5543116
0
ARC
8
DEFAULT_255_2_778
10
15.3834708
20
43.7250017
40
0.3100417
50
239.4456884
51
270.0071708
0
ARC
8
DEFAULT_255_2_778
10
15.3835443
20
43.7250467
40
0.3101178
50
180.0069352
51
239.4382167
0
ARC
8
DEFAULT_255_2_778
10
15.3850225
20
43.7250069
40
0.3115959
50
178.3258852
51
179.9995791
0
ARC
8
DEFAULT_255_2_778
10
15.3850434
20
38.6632134
40
0.3116168
50
180.000416
51
181.6740366
0
ARC
8
DEFAULT_255_2_778
10
15.3834186
20
38.6632452
40
0.309992
50
120.5485309
51
180.0063064
0
ARC
8
DEFAULT_255_2_778
10
15.3834712
20
38.6632158
40
0.310044
50
89.9928922
51
120.5541252
0
ARC
8
DEFAULT_255_2_778
10
15.3835481
20
38.6632158
40
0.3100442
50
59.4458748
51
90.0071078
0
ARC
8
DEFAULT_255_2_778
10
15.3836006
20
38.6632452
40
0.309992
50
359.9936936
51
59.4514691
0
ARC
8
DEFAULT_255_2_778
10
15.3819758
20
38.6632134
40
0.3116168
50
358.3259634
51
359.999584
0
ARC
8
DEFAULT_255_2_778
10
15.3819967
20
38.6450069
40
0.3115959
50
0.0004209
51
1.6741148
0
ARC
8
DEFAULT_255_2_778
10
15.3834749
20
38.6450467
40
0.3101178
50
300.5617833
51
359.9930648
0
ARC
8
DEFAULT_255_2_778
10
15.3835484
20
38.6450017
40
0.3100417
50
269.9928292
51
300.5543116
0
ARC
8
DEFAULT_255_2_778
10
15.3834708
20
38.6450017
40
0.3100417
50
239.4456884
51
270.0071708
0
ARC
8
DEFAULT_255_2_778
10
15.3835443
20
38.6450467
40
0.3101178
50
180.0069352
51
239.4382167
0
ARC
8
DEFAULT_255_2_778
10
15.3850225
20
38.6450069
40
0.3115959
50
178.3258852
51
179.9995791
0
ARC
8
DEFAULT_255_2_778
10
15.3850434
20
46.2832134
40
0.3116168
50
180.000416
51
181.6740366
0
ARC
8
DEFAULT_255_2_778
10
15.3834186
20
46.2832452
40
0.309992
50
120.5485309
51
180.0063064
0
ARC
8
DEFAULT_255_2_778
10
15.383471
20
46.2832173
40
0.3100427
50
89.9928564
51
120.554231
0
ARC
8
DEFAULT_255_2_778
10
15.3835482
20
46.2832169
40
0.3100431
50
59.4457942
51
90.007135
0
ARC
8
DEFAULT_255_2_778
10
15.3836006
20
46.2832452
40
0.309992
50
359.9936936
51
59.4514691
0
ARC
8
DEFAULT_255_2_778
10
15.3819758
20
46.2832134
40
0.3116168
50
358.3259634
51
359.999584
0
ARC
8
DEFAULT_255_2_778
10
15.3819967
20
46.2650069
40
0.3115959
50
0.0004209
51
1.6741148
0
ARC
8
DEFAULT_255_2_778
10
15.3834749
20
46.2650467
40
0.3101178
50
300.5617833
51
359.9930648
0
ARC
8
DEFAULT_255_2_778
10
15.3835483
20
46.2650028
40
0.3100427
50
269.9928564
51
300.554231
0
ARC
8
DEFAULT_255_2_778
10
15.383471
20
46.2650031
40
0.3100431
50
239.4457942
51
270.007135
0
ARC
8
DEFAULT_255_2_778
10
15.3835443
20
46.2650467
40
0.3101178
50
180.0069352
51
239.4382167
0
ARC
8
DEFAULT_255_2_778
10
15.3850225
20
46.2650069
40
0.3115959
50
178.3258852
51
179.9995791
0
ARC
8
DEFAULT_255_2_778
10
15.3850434
20
41.2032134
40
0.3116168
50
180.000416
51
181.6740366
0
ARC
8
DEFAULT_255_2_778
10
15.3834186
20
41.2032452
40
0.309992
50
120.5485309
51
180.0063064
0
ARC
8
DEFAULT_255_2_778
10
15.3834708
20
41.2032184
40
0.3100417
50
89.9928292
51
120.5543116
0
ARC
8
DEFAULT_255_2_778
10
15.3835478
20
41.2032161
40
0.3100439
50
59.4457994
51
90.0070555
0
ARC
8
DEFAULT_255_2_778
10
15.3836006
20
41.2032452
40
0.309992
50
359.9936936
51
59.4514691
0
ARC
8
DEFAULT_255_2_778
10
15.3819758
20
41.2032134
40
0.3116168
50
358.3259634
51
359.999584
0
ARC
8
DEFAULT_255_2_778
10
15.3819967
20
41.1850069
40
0.3115959
50
0.0004209
51
1.6741148
0
ARC
8
DEFAULT_255_2_778
10
15.3834749
20
41.1850467
40
0.3101178
50
300.5617833
51
359.9930648
0
ARC
8
DEFAULT_255_2_778
10
15.3835476
20
41.1850046
40
0.3100446
50
269.99298
51
300.5541661
0
ARC
8
DEFAULT_255_2_778
10
15.3834708
20
41.1850017
40
0.3100417
50
239.4456884
51
270.0071708
0
ARC
8
DEFAULT_255_2_778
10
15.3835443
20
41.1850467
40
0.3101178
50
180.0069352
51
239.4382167
0
ARC
8
DEFAULT_255_2_778
10
15.3850225
20
41.1850069
40
0.3115959
50
178.3258852
51
179.9995791
0
ARC
8
DEFAULT_255_2_778
10
15.3850434
20
33.5832134
40
0.3116168
50
180.000416
51
181.6740366
0
ARC
8
DEFAULT_255_2_778
10
15.3834186
20
33.5832452
40
0.309992
50
120.5485309
51
180.0063064
0
ARC
8
DEFAULT_255_2_778
10
15.3834716
20
33.5832154
40
0.3100446
50
89.99298
51
120.5541661
0
ARC
8
DEFAULT_255_2_778
10
15.3835484
20
33.5832184
40
0.3100417
50
59.4456884
51
90.0071708
0
ARC
8
DEFAULT_255_2_778
10
15.3836006
20
33.5832452
40
0.309992
50
359.9936936
51
59.4514691
0
ARC
8
DEFAULT_255_2_778
10
15.3819758
20
33.5832134
40
0.3116168
50
358.3259634
51
359.999584
0
ARC
8
DEFAULT_255_2_778
10
15.3819967
20
33.5650069
40
0.3115959
50
0.0004209
51
1.6741148
0
ARC
8
DEFAULT_255_2_778
10
15.3834749
20
33.5650467
40
0.3101178
50
300.5617833
51
359.9930648
0
ARC
8
DEFAULT_255_2_778
10
15.3835484
20
33.5650017
40
0.3100417
50
269.9928292
51
300.5543116
0
ARC
8
DEFAULT_255_2_778
10
15.3834708
20
33.5650017
40
0.3100417
50
239.4456884
51
270.0071708
0
ARC
8
DEFAULT_255_2_778
10
15.3835443
20
33.5650467
40
0.3101178
50
180.0069352
51
239.4382167
0
ARC
8
DEFAULT_255_2_778
10
15.3850225
20
33.5650069
40
0.3115959
50
178.3258852
51
179.9995791
0
ARC
8
DEFAULT_255_2_778
10
15.3850434
20
36.1232134
40
0.3116168
50
180.000416
51
181.6740366
0
ARC
8
DEFAULT_255_2_778
10
15.3834186
20
36.1232452
40
0.309992
50
120.5485309
51
180.0063064
0
ARC
8
DEFAULT_255_2_778
10
15.383471
20
36.1232169
40
0.310043
50
89.992865
51
120.5542058
0
ARC
8
DEFAULT_255_2_778
10
15.3835481
20
36.1232158
40
0.3100442
50
59.4458748
51
90.0071078
0
ARC
8
DEFAULT_255_2_778
10
15.3836006
20
36.1232452
40
0.309992
50
359.9936936
51
59.4514691
0
ARC
8
DEFAULT_255_2_778
10
15.3819758
20
36.1232134
40
0.3116168
50
358.3259634
51
359.999584
0
ARC
8
DEFAULT_255_2_778
10
15.3819968
20
36.1050069
40
0.3115958
50
0.0004209
51
1.6741149
0
ARC
8
DEFAULT_255_2_778
10
15.3837575
20
36.1049852
40
0.3098352
50
300.5319659
51
0.0044227
0
ARC
8
DEFAULT_255_2_778
10
15.3835335
20
36.1046169
40
0.3096319
50
269.9955812
51
300.6022883
0
ARC
8
DEFAULT_255_2_778
10
15.3834857
20
36.1046169
40
0.3096319
50
239.3977117
51
270.0044188
0
ARC
8
DEFAULT_255_2_778
10
15.3832618
20
36.1049852
40
0.3098351
50
179.9955773
51
239.4680341
0
ARC
8
DEFAULT_255_2_778
10
15.3850224
20
36.1050069
40
0.3115958
50
178.3258851
51
179.9995791
0
ARC
8
DEFAULT_255_2_778
10
15.3850434
20
31.0432134
40
0.3116168
50
180.000416
51
181.6740366
0
ARC
8
DEFAULT_255_2_778
10
15.3834186
20
31.0432452
40
0.309992
50
120.5485309
51
180.0063064
0
ARC
8
DEFAULT_255_2_778
10
15.3834716
20
31.0432154
40
0.3100446
50
89.99298
51
120.5541661
0
ARC
8
DEFAULT_255_2_778
10
15.3835484
20
31.0432184
40
0.3100417
50
59.4456884
51
90.0071708
0
ARC
8
DEFAULT_255_2_778
10
15.3836006
20
31.0432452
40
0.309992
50
359.9936936
51
59.4514691
0
ARC
8
DEFAULT_255_2_778
10
15.3819758
20
31.0432134
40
0.3116168
50
358.3259634
51
359.999584
0
ARC
8
DEFAULT_255_2_778
10
15.3819967
20
31.0250069
40
0.3115959
50
0.0004209
51
1.6741148
0
ARC
8
DEFAULT_255_2_778
10
15.3834749
20
31.0250467
40
0.3101178
50
300.5617833
51
359.9930648
0
ARC
8
DEFAULT_255_2_778
10
15.3835476
20
31.0250046
40
0.3100446
50
269.99298
51
300.5541661
0
ARC
8
DEFAULT_255_2_778
10
15.3834708
20
31.0250017
40
0.3100417
50
239.4456884
51
270.0071708
0
ARC
8
DEFAULT_255_2_778
10
15.3835443
20
31.0250467
40
0.3101178
50
180.0069352
51
239.4382167
0
ARC
8
DEFAULT_255_2_778
10
15.3850225
20
31.0250069
40
0.3115959
50
178.3258852
51
179.9995791
0
ARC
8
DEFAULT_255_2_778
10
15.3850434
20
23.4232134
40
0.3116168
50
180.000416
51
181.6740366
0
ARC
8
DEFAULT_255_2_778
10
15.3834186
20
23.4232452
40
0.309992
50
120.5485309
51
180.0063064
0
ARC
8
DEFAULT_255_2_778
10
15.3834716
20
23.4232158
40
0.3100443
50
89.9929715
51
120.5541913
0
ARC
8
DEFAULT_255_2_778
10
15.3835478
20
23.4232158
40
0.3100442
50
59.4458246
51
90.007047
0
ARC
8
DEFAULT_255_2_778
10
15.3836006
20
23.4232452
40
0.309992
50
359.9936936
51
59.4514691
0
ARC
8
DEFAULT_255_2_778
10
15.3819758
20
23.4232134
40
0.3116168
50
358.3259634
51
359.999584
0
ARC
8
DEFAULT_255_2_778
10
15.3819968
20
23.4050069
40
0.3115958
50
0.0004209
51
1.6741149
0
ARC
8
DEFAULT_255_2_778
10
15.3837575
20
23.4049852
40
0.3098352
50
300.5319659
51
0.0044227
0
ARC
8
DEFAULT_255_2_778
10
15.3835335
20
23.4046169
40
0.3096319
50
269.9955812
51
300.6022883
0
ARC
8
DEFAULT_255_2_778
10
15.3834857
20
23.4046169
40
0.3096319
50
239.3977117
51
270.0044188
0
ARC
8
DEFAULT_255_2_778
10
15.3832618
20
23.4049852
40
0.3098351
50
179.9955773
51
239.4680341
0
ARC
8
DEFAULT_255_2_778
10
15.3850224
20
23.4050069
40
0.3115958
50
178.3258851
51
179.9995791
0
ARC
8
DEFAULT_255_2_778
10
15.3850434
20
28.5032134
40
0.3116168
50
180.000416
51
181.6740366
0
ARC
8
DEFAULT_255_2_778
10
15.3834186
20
28.5032452
40
0.309992
50
120.5485309
51
180.0063064
0
ARC
8
DEFAULT_255_2_778
10
15.3834723
20
28.5032132
40
0.3100468
50
89.9930952
51
120.5540551
0
ARC
8
DEFAULT_255_2_778
10
15.3835478
20
28.5032158
40
0.3100442
50
59.4458246
51
90.007047
0
ARC
8
DEFAULT_255_2_778
10
15.3836006
20
28.5032452
40
0.309992
50
359.9936936
51
59.4514691
0
ARC
8
DEFAULT_255_2_778
10
15.3819758
20
28.5032134
40
0.3116168
50
358.3259634
51
359.999584
0
ARC
8
DEFAULT_255_2_778
10
15.3819967
20
28.4850069
40
0.3115959
50
0.0004209
51
1.6741148
0
ARC
8
DEFAULT_255_2_778
10
15.3834749
20
28.4850467
40
0.3101178
50
300.5617833
51
359.9930648
0
ARC
8
DEFAULT_255_2_778
10
15.3835477
20
28.4850043
40
0.3100443
50
269.9929715
51
300.5541913
0
ARC
8
DEFAULT_255_2_778
10
15.3834708
20
28.4850017
40
0.3100417
50
239.4456884
51
270.0071708
0
ARC
8
DEFAULT_255_2_778
10
15.3835443
20
28.4850467
40
0.3101178
50
180.0069352
51
239.4382167
0
ARC
8
DEFAULT_255_2_778
10
15.3850225
20
28.4850069
40
0.3115959
50
178.3258852
51
179.9995791
0
ARC
8
DEFAULT_255_2_778
10
15.3850434
20
25.9632134
40
0.3116168
50
180.000416
51
181.6740366
0
ARC
8
DEFAULT_255_2_778
10
15.3834186
20
25.9632452
40
0.309992
50
120.5485309
51
180.0063064
0
ARC
8
DEFAULT_255_2_778
10
15.3834716
20
25.9632158
40
0.3100443
50
89.9929715
51
120.5541913
0
ARC
8
DEFAULT_255_2_778
10
15.3835478
20
25.9632158
40
0.3100442
50
59.4458246
51
90.007047
0
ARC
8
DEFAULT_255_2_778
10
15.3836006
20
25.9632452
40
0.309992
50
359.9936936
51
59.4514691
0
ARC
8
DEFAULT_255_2_778
10
15.3819758
20
25.9632134
40
0.3116168
50
358.3259634
51
359.999584
0
ARC
8
DEFAULT_255_2_778
10
15.3819967
20
25.9450069
40
0.3115959
50
0.0004209
51
1.6741148
0
ARC
8
DEFAULT_255_2_778
10
15.3834749
20
25.9450467
40
0.3101178
50
300.5617833
51
359.9930648
0
ARC
8
DEFAULT_255_2_778
10
15.3835477
20
25.9450043
40
0.3100443
50
269.9929715
51
300.5541913
0
ARC
8
DEFAULT_255_2_778
10
15.3834715
20
25.9450043
40
0.3100442
50
239.4458246
51
270.007047
0
ARC
8
DEFAULT_255_2_778
10
15.3835443
20
25.9450467
40
0.3101178
50
180.0069352
51
239.4382167
0
ARC
8
DEFAULT_255_2_778
10
15.3850225
20
25.9450069
40
0.3115959
50
178.3258852
51
179.9995791
0
ARC
8
DEFAULT_255_2_778
10
12.8435702
20
48.8140994
40
0.3100106
50
90.0019576
51
179.9980424
0
ARC
8
DEFAULT_255_2_778
10
12.8434703
20
48.8141208
40
0.3099892
50
359.998006
51
89.9834993
0
ARC
8
DEFAULT_255_2_778
10
12.8419968
20
48.8050069
40
0.3115958
50
0.0004209
51
1.6741149
0
ARC
8
DEFAULT_255_2_778
10
12.8437575
20
48.8049852
40
0.3098352
50
300.5319659
51
0.0044227
0
ARC
8
DEFAULT_255_2_778
10
12.8436156
20
48.8043169
40
0.3093319
50
269.9873218
51
300.6174975
0
LINE
8
DEFAULT_255_2_778
10
12.8435471
20
48.494985
11
12.8431999
21
48.4949852
0
ARC
8
DEFAULT_255_2_778
10
12.8435127
20
48.8047161
40
0.309731
50
239.4027549
51
269.9421378
0
ARC
8
DEFAULT_255_2_778
10
12.8434815
20
48.8051105
40
0.3100547
50
180.0160929
51
239.444817
0
ARC
8
DEFAULT_255_2_778
10
12.8449927
20
48.8050143
40
0.3115658
50
178.3270895
51
179.9983191
0
ARC
8
DEFAULT_255_2_778
10
12.8435702
20
46.2740994
40
0.3100106
50
90.0019576
51
179.9980424
0
ARC
8
DEFAULT_255_2_778
10
12.8434703
20
46.2741208
40
0.3099892
50
359.998006
51
89.9834993
0
ARC
8
DEFAULT_255_2_778
10
12.8419967
20
46.2650069
40
0.3115959
50
0.0004209
51
1.6741148
0
ARC
8
DEFAULT_255_2_778
10
12.8434749
20
46.2650467
40
0.3101178
50
300.5617833
51
359.9930648
0
ARC
8
DEFAULT_255_2_778
10
12.8436303
20
46.2647022
40
0.3097422
50
269.9846063
51
300.5694205
0
LINE
8
DEFAULT_255_2_778
10
12.8435471
20
45.95496
11
12.8431999
21
45.9549602
0
ARC
8
DEFAULT_255_2_778
10
12.8434982
20
46.2651027
40
0.3101426
50
239.4508142
51
269.9448892
0
ARC
8
DEFAULT_255_2_778
10
12.8437643
20
46.265172
40
0.3103375
50
180.0274243
51
239.4150118
0
ARC
8
DEFAULT_255_2_778
10
12.8449927
20
46.2650143
40
0.3115659
50
178.3270896
51
179.9983191
0
ARC
8
DEFAULT_255_2_778
10
12.8435702
20
51.3540994
40
0.3100106
50
90.0019576
51
179.9980424
0
ARC
8
DEFAULT_255_2_778
10
12.8434703
20
51.3541208
40
0.3099892
50
359.998006
51
89.9834993
0
ARC
8
DEFAULT_255_2_778
10
12.8419967
20
51.3450069
40
0.3115959
50
0.0004209
51
1.6741148
0
ARC
8
DEFAULT_255_2_778
10
12.8434749
20
51.3450467
40
0.3101178
50
300.5617833
51
359.9930648
0
ARC
8
DEFAULT_255_2_778
10
12.8436303
20
51.3447022
40
0.3097422
50
269.9846063
51
300.5694205
0
LINE
8
DEFAULT_255_2_778
10
12.8435471
20
51.03496
11
12.8431999
21
51.0349602
0
ARC
8
DEFAULT_255_2_778
10
12.8434982
20
51.3451027
40
0.3101426
50
239.4508142
51
269.9448892
0
ARC
8
DEFAULT_255_2_778
10
12.8437643
20
51.345172
40
0.3103375
50
180.0274243
51
239.4150118
0
ARC
8
DEFAULT_255_2_778
10
12.8449927
20
51.3450143
40
0.3115659
50
178.3270896
51
179.9983191
0
ARC
8
DEFAULT_255_2_778
10
12.8435702
20
53.8940994
40
0.3100106
50
90.0019576
51
179.9980424
0
ARC
8
DEFAULT_255_2_778
10
12.8434703
20
53.8941208
40
0.3099892
50
359.998006
51
89.9834993
0
ARC
8
DEFAULT_255_2_778
10
12.8419967
20
53.8850069
40
0.3115959
50
0.0004209
51
1.6741148
0
ARC
8
DEFAULT_255_2_778
10
12.8434749
20
53.8850467
40
0.3101178
50
300.5617833
51
359.9930648
0
ARC
8
DEFAULT_255_2_778
10
12.8436291
20
53.8847063
40
0.3097463
50
269.9848451
51
300.5692446
0
LINE
8
DEFAULT_255_2_778
10
12.8435471
20
53.57496
11
12.8431999
21
53.5749602
0
ARC
8
DEFAULT_255_2_778
10
12.8434982
20
53.8851027
40
0.3101426
50
239.4508142
51
269.9448892
0
ARC
8
DEFAULT_255_2_778
10
12.8437643
20
53.885172
40
0.3103375
50
180.0274243
51
239.4150118
0
ARC
8
DEFAULT_255_2_778
10
12.8449927
20
53.8850143
40
0.3115659
50
178.3270896
51
179.9983191
0
ARC
8
DEFAULT_255_2_778
10
12.8435702
20
33.5740994
40
0.3100106
50
90.0019576
51
179.9980424
0
ARC
8
DEFAULT_255_2_778
10
12.8434703
20
33.5741208
40
0.3099892
50
359.998006
51
89.9834993
0
ARC
8
DEFAULT_255_2_778
10
12.8419967
20
33.5650069
40
0.3115959
50
0.0004209
51
1.6741148
0
ARC
8
DEFAULT_255_2_778
10
12.8434749
20
33.5650467
40
0.3101178
50
300.5617833
51
359.9930648
0
ARC
8
DEFAULT_255_2_778
10
12.8436305
20
33.5647011
40
0.3097411
50
269.984579
51
300.5695012
0
LINE
8
DEFAULT_255_2_778
10
12.8435471
20
33.25496
11
12.8431999
21
33.2549602
0
ARC
8
DEFAULT_255_2_778
10
12.8434982
20
33.5651027
40
0.3101426
50
239.4508142
51
269.9448892
0
ARC
8
DEFAULT_255_2_778
10
12.8437643
20
33.565172
40
0.3103375
50
180.0274243
51
239.4150118
0
ARC
8
DEFAULT_255_2_778
10
12.8449927
20
33.5650143
40
0.3115659
50
178.3270896
51
179.9983191
0
ARC
8
DEFAULT_255_2_778
10
12.8435702
20
28.4940994
40
0.3100106
50
90.0019576
51
179.9980424
0
ARC
8
DEFAULT_255_2_778
10
12.8434703
20
28.4941208
40
0.3099892
50
359.998006
51
89.9834993
0
ARC
8
DEFAULT_255_2_778
10
12.8419967
20
28.4850069
40
0.3115959
50
0.0004209
51
1.6741148
0
ARC
8
DEFAULT_255_2_778
10
12.8434749
20
28.4850467
40
0.3101178
50
300.5617833
51
359.9930648
0
ARC
8
DEFAULT_255_2_778
10
12.8436297
20
28.4847037
40
0.3097438
50
269.9847213
51
300.5693808
0
LINE
8
DEFAULT_255_2_778
10
12.8435471
20
28.17496
11
12.8431999
21
28.1749602
0
ARC
8
DEFAULT_255_2_778
10
12.8434982
20
28.4851027
40
0.3101426
50
239.4508142
51
269.9448892
0
ARC
8
DEFAULT_255_2_778
10
12.8437643
20
28.485172
40
0.3103375
50
180.0274243
51
239.4150118
0
ARC
8
DEFAULT_255_2_778
10
12.8449927
20
28.4850143
40
0.3115659
50
178.3270896
51
179.9983191
0
ARC
8
DEFAULT_255_2_778
10
12.8435702
20
25.9540994
40
0.3100106
50
90.0019576
51
179.9980424
0
ARC
8
DEFAULT_255_2_778
10
12.8434703
20
25.9541208
40
0.3099892
50
359.998006
51
89.9834993
0
ARC
8
DEFAULT_255_2_778
10
12.8419967
20
25.9450069
40
0.3115959
50
0.0004209
51
1.6741148
0
ARC
8
DEFAULT_255_2_778
10
12.8434749
20
25.9450467
40
0.3101178
50
300.5617833
51
359.9930648
0
ARC
8
DEFAULT_255_2_778
10
12.8436297
20
25.9447037
40
0.3097438
50
269.9847213
51
300.5693808
0
LINE
8
DEFAULT_255_2_778
10
12.8435471
20
25.63496
11
12.8431999
21
25.6349602
0
ARC
8
DEFAULT_255_2_778
10
12.8434982
20
25.9451027
40
0.3101426
50
239.4508142
51
269.9448892
0
ARC
8
DEFAULT_255_2_778
10
12.8437643
20
25.945172
40
0.3103375
50
180.0274243
51
239.4150118
0
ARC
8
DEFAULT_255_2_778
10
12.8449927
20
25.9450143
40
0.3115659
50
178.3270896
51
179.9983191
0
ARC
8
DEFAULT_255_2_778
10
12.8435702
20
31.0340994
40
0.3100106
50
90.0019576
51
179.9980424
0
ARC
8
DEFAULT_255_2_778
10
12.8434703
20
31.0341208
40
0.3099892
50
359.998006
51
89.9834993
0
ARC
8
DEFAULT_255_2_778
10
12.8419967
20
31.0250069
40
0.3115959
50
0.0004209
51
1.6741148
0
ARC
8
DEFAULT_255_2_778
10
12.8434749
20
31.0250467
40
0.3101178
50
300.5617833
51
359.9930648
0
ARC
8
DEFAULT_255_2_778
10
12.8436297
20
31.0247041
40
0.3097441
50
269.9847298
51
300.5693556
0
LINE
8
DEFAULT_255_2_778
10
12.8435471
20
30.71496
11
12.8431999
21
30.7149602
0
ARC
8
DEFAULT_255_2_778
10
12.8434982
20
31.0251027
40
0.3101426
50
239.4508142
51
269.9448892
0
ARC
8
DEFAULT_255_2_778
10
12.8437643
20
31.025172
40
0.3103375
50
180.0274243
51
239.4150118
0
ARC
8
DEFAULT_255_2_778
10
12.8449927
20
31.0250143
40
0.3115659
50
178.3270896
51
179.9983191
0
ARC
8
DEFAULT_255_2_778
10
15.3850434
20
58.9832134
40
0.3116168
50
180.000416
51
181.6740366
0
ARC
8
DEFAULT_255_2_778
10
15.3834186
20
58.9832452
40
0.309992
50
120.5485309
51
180.0063064
0
ARC
8
DEFAULT_255_2_778
10
15.383471
20
58.9832173
40
0.3100427
50
89.9928564
51
120.554231
0
ARC
8
DEFAULT_255_2_778
10
15.3835482
20
58.9832169
40
0.3100431
50
59.4457942
51
90.007135
0
ARC
8
DEFAULT_255_2_778
10
15.3836006
20
58.9832452
40
0.309992
50
359.9936936
51
59.4514691
0
ARC
8
DEFAULT_255_2_778
10
15.3819758
20
58.9832134
40
0.3116168
50
358.3259634
51
359.999584
0
ARC
8
DEFAULT_255_2_778
10
15.3819967
20
58.9650069
40
0.3115959
50
0.0004209
51
1.6741148
0
ARC
8
DEFAULT_255_2_778
10
15.3834749
20
58.9650467
40
0.3101178
50
300.5617833
51
359.9930648
0
ARC
8
DEFAULT_255_2_778
10
15.3835481
20
58.9650042
40
0.310044
50
269.9928922
51
300.5541252
0
ARC
8
DEFAULT_255_2_778
10
15.3834712
20
58.9650042
40
0.3100442
50
239.4458748
51
270.0071078
0
ARC
8
DEFAULT_255_2_778
10
15.3835443
20
58.9650467
40
0.3101178
50
180.0069352
51
239.4382167
0
ARC
8
DEFAULT_255_2_778
10
15.3850225
20
58.9650069
40
0.3115959
50
178.3258852
51
179.9995791
0
ARC
8
DEFAULT_255_2_778
10
15.3850434
20
56.4432134
40
0.3116168
50
180.000416
51
181.6740366
0
ARC
8
DEFAULT_255_2_778
10
15.3834186
20
56.4432452
40
0.309992
50
120.5485309
51
180.0063064
0
ARC
8
DEFAULT_255_2_778
10
15.3834718
20
56.4432143
40
0.3100456
50
89.9930072
51
120.5540854
0
ARC
8
DEFAULT_255_2_778
10
15.3835482
20
56.4432169
40
0.3100431
50
59.4457942
51
90.007135
0
ARC
8
DEFAULT_255_2_778
10
15.3836006
20
56.4432452
40
0.309992
50
359.9936936
51
59.4514691
0
ARC
8
DEFAULT_255_2_778
10
15.3819758
20
56.4432134
40
0.3116168
50
358.3259634
51
359.999584
0
ARC
8
DEFAULT_255_2_778
10
15.3819967
20
56.4250069
40
0.3115959
50
0.0004209
51
1.6741148
0
ARC
8
DEFAULT_255_2_778
10
15.3834749
20
56.4250467
40
0.3101178
50
300.5617833
51
359.9930648
0
ARC
8
DEFAULT_255_2_778
10
15.3835475
20
56.4250057
40
0.3100456
50
269.9930072
51
300.5540854
0
ARC
8
DEFAULT_255_2_778
10
15.3834716
20
56.4250054
40
0.3100454
50
239.4459052
51
270.0070198
0
ARC
8
DEFAULT_255_2_778
10
15.3835443
20
56.4250467
40
0.3101178
50
180.0069352
51
239.4382167
0
ARC
8
DEFAULT_255_2_778
10
15.3850225
20
56.4250069
40
0.3115959
50
178.3258852
51
179.9995791
0
ARC
8
DEFAULT_255_2_778
10
15.3850434
20
51.3632134
40
0.3116168
50
180.000416
51
181.6740366
0
ARC
8
DEFAULT_255_2_778
10
15.3834186
20
51.3632452
40
0.309992
50
120.5485309
51
180.0063064
0
ARC
8
DEFAULT_255_2_778
10
15.3834718
20
51.3632143
40
0.3100456
50
89.9930072
51
120.5540854
0
ARC
8
DEFAULT_255_2_778
10
15.3835482
20
51.3632169
40
0.3100431
50
59.4457942
51
90.007135
0
ARC
8
DEFAULT_255_2_778
10
15.3836006
20
51.3632452
40
0.309992
50
359.9936936
51
59.4514691
0
ARC
8
DEFAULT_255_2_778
10
15.3819758
20
51.3632134
40
0.3116168
50
358.3259634
51
359.999584
0
ARC
8
DEFAULT_255_2_778
10
15.3819967
20
51.3450069
40
0.3115959
50
0.0004209
51
1.6741148
0
ARC
8
DEFAULT_255_2_778
10
15.3834749
20
51.3450467
40
0.3101178
50
300.5617833
51
359.9930648
0
ARC
8
DEFAULT_255_2_778
10
15.3835483
20
51.3450028
40
0.3100427
50
269.9928564
51
300.554231
0
ARC
8
DEFAULT_255_2_778
10
15.383471
20
51.3450031
40
0.3100431
50
239.4457942
51
270.007135
0
ARC
8
DEFAULT_255_2_778
10
15.3835443
20
51.3450467
40
0.3101178
50
180.0069352
51
239.4382167
0
ARC
8
DEFAULT_255_2_778
10
15.3850225
20
51.3450069
40
0.3115959
50
178.3258852
51
179.9995791
0
ARC
8
DEFAULT_255_2_778
10
15.3850434
20
53.9032134
40
0.3116168
50
180.000416
51
181.6740366
0
ARC
8
DEFAULT_255_2_778
10
15.3834186
20
53.9032452
40
0.309992
50
120.5485309
51
180.0063064
0
ARC
8
DEFAULT_255_2_778
10
15.3834716
20
53.9032147
40
0.3100453
50
89.9929802
51
120.5540948
0
ARC
8
DEFAULT_255_2_778
10
15.3835475
20
53.9032143
40
0.3100457
50
59.4459146
51
90.0069928
0
ARC
8
DEFAULT_255_2_778
10
15.3836006
20
53.9032452
40
0.309992
50
359.9936936
51
59.4514691
0
ARC
8
DEFAULT_255_2_778
10
15.3819758
20
53.9032134
40
0.3116168
50
358.3259634
51
359.999584
0
ARC
8
DEFAULT_255_2_778
10
15.3819967
20
53.8850069
40
0.3115959
50
0.0004209
51
1.6741148
0
ARC
8
DEFAULT_255_2_778
10
15.3834749
20
53.8850467
40
0.3101178
50
300.5617833
51
359.9930648
0
ARC
8
DEFAULT_255_2_778
10
15.383547
20
53.8850069
40
0.3100468
50
269.9930952
51
300.5540551
0
ARC
8
DEFAULT_255_2_778
10
15.3834714
20
53.8850039
40
0.3100439
50
239.4457994
51
270.0070555
0
ARC
8
DEFAULT_255_2_778
10
15.3835443
20
53.8850467
40
0.3101178
50
180.0069352
51
239.4382167
0
ARC
8
DEFAULT_255_2_778
10
15.3850225
20
53.8850069
40
0.3115959
50
178.3258852
51
179.9995791
0
ARC
8
DEFAULT_255_2_778
10
12.8435702
20
23.4140994
40
0.3100106
50
90.0019576
51
179.9980424
0
ARC
8
DEFAULT_255_2_778
10
12.8434703
20
23.4141208
40
0.3099892
50
359.998006
51
89.9834993
0
ARC
8
DEFAULT_255_2_778
10
12.8419968
20
23.4050069
40
0.3115958
50
0.0004209
51
1.6741149
0
ARC
8
DEFAULT_255_2_778
10
12.8437575
20
23.4049852
40
0.3098352
50
300.5319659
51
0.0044227
0
ARC
8
DEFAULT_255_2_778
10
12.8436156
20
23.4043169
40
0.3093319
50
269.9873218
51
300.6174975
0
LINE
8
DEFAULT_255_2_778
10
12.8435471
20
23.094985
11
12.8431999
21
23.0949852
0
ARC
8
DEFAULT_255_2_778
10
12.8435127
20
23.4047161
40
0.309731
50
239.4027549
51
269.9421378
0
ARC
8
DEFAULT_255_2_778
10
12.8434815
20
23.4051105
40
0.3100547
50
180.0160929
51
239.444817
0
ARC
8
DEFAULT_255_2_778
10
12.8449927
20
23.4050143
40
0.3115658
50
178.3270895
51
179.9983191
0
ARC
8
DEFAULT_255_2_778
10
15.3850434
20
48.8232134
40
0.3116168
50
180.000416
51
181.6740366
0
ARC
8
DEFAULT_255_2_778
10
15.3834186
20
48.8232452
40
0.309992
50
120.5485309
51
180.0063064
0
ARC
8
DEFAULT_255_2_778
10
15.383471
20
48.8232169
40
0.310043
50
89.992865
51
120.5542058
0
ARC
8
DEFAULT_255_2_778
10
15.3835483
20
48.8232173
40
0.3100428
50
59.445769
51
90.0071436
0
ARC
8
DEFAULT_255_2_778
10
15.3836006
20
48.8232452
40
0.309992
50
359.9936936
51
59.4514691
0
ARC
8
DEFAULT_255_2_778
10
15.3819758
20
48.8232134
40
0.3116168
50
358.3259634
51
359.999584
0
ARC
8
DEFAULT_255_2_778
10
15.3819968
20
48.8050069
40
0.3115958
50
0.0004209
51
1.6741149
0
ARC
8
DEFAULT_255_2_778
10
15.3837575
20
48.8049852
40
0.3098352
50
300.5319659
51
0.0044227
0
ARC
8
DEFAULT_255_2_778
10
15.3835335
20
48.8046169
40
0.3096319
50
269.9955812
51
300.6022883
0
ARC
8
DEFAULT_255_2_778
10
15.3834857
20
48.8046169
40
0.3096319
50
239.3977117
51
270.0044188
0
ARC
8
DEFAULT_255_2_778
10
15.3832618
20
48.8049852
40
0.3098351
50
179.9955773
51
239.4680341
0
ARC
8
DEFAULT_255_2_778
10
15.3850224
20
48.8050069
40
0.3115958
50
178.3258851
51
179.9995791
0
LINE
8
DEFAULT_255_2_778
10
20.5385596
20
93.35811
11
20.5385596
21
95.84811
0
LINE
8
DEFAULT_255_2_778
10
20.5385596
20
95.84811
11
20.5451596
21
97.06541
0
LINE
8
DEFAULT_255_2_778
10
3.5525596
20
97.04421
11
3.5318596
21
97.06491
0
LINE
8
DEFAULT_255_2_778
10
3.5318596
20
97.06491
11
20.5451596
21
97.06491
0
LINE
8
DEFAULT_255_2_778
10
20.5451596
20
97.06491
11
20.5244596
21
97.04421
0
LINE
8
DEFAULT_255_2_778
10
3.3038596
20
71.50691
11
3.3038596
21
70.10701
0
LINE
8
DEFAULT_255_2_778
10
4.9683596
20
70.10701
11
4.9683596
21
71.50691
0
LINE
8
DEFAULT_255_2_778
10
5.5220596
20
70.10701
11
5.3538596
21
70.10701
0
LINE
8
DEFAULT_255_2_778
10
5.3538596
20
70.10701
11
5.3538596
21
71.50691
0
LINE
8
DEFAULT_255_2_778
10
5.3538596
20
71.50691
11
5.5220596
21
71.50691
0
LINE
8
DEFAULT_255_2_778
10
3.4361596
20
69.97471
11
4.8360596
21
69.97471
0
LINE
8
DEFAULT_255_2_778
10
4.8360596
20
72.19301
11
4.8360596
21
72.02471
0
LINE
8
DEFAULT_255_2_778
10
4.8360596
20
72.02471
11
3.4361596
21
72.02471
0
LINE
8
DEFAULT_255_2_778
10
3.4361596
20
72.02471
11
3.4361596
21
72.19301
0
LINE
8
DEFAULT_255_2_778
10
2.7500596
20
71.69291
11
2.7500596
21
69.92101
0
LINE
8
DEFAULT_255_2_778
10
3.2501596
20
69.42091
11
5.0220596
21
69.42091
0
LINE
8
DEFAULT_255_2_778
10
5.5220596
20
69.92101
11
5.5220596
21
71.69291
0
LINE
8
DEFAULT_255_2_778
10
5.0220596
20
72.19301
11
3.2501596
21
72.19301
0
LINE
8
DEFAULT_255_2_778
10
4.9683596
20
71.50691
11
5.1680596
21
71.50691
0
LINE
8
DEFAULT_255_2_778
10
4.8360596
20
71.83901
11
4.8360596
21
72.02441
0
LINE
8
DEFAULT_255_2_778
10
5.3538596
20
71.50671
11
5.1683596
21
71.50671
0
LINE
8
DEFAULT_255_2_778
10
5.1683596
20
71.50671
11
5.1683596
21
70.10671
0
LINE
8
DEFAULT_255_2_778
10
5.1683596
20
70.10671
11
5.3538596
21
70.10671
0
LINE
8
DEFAULT_255_2_778
10
4.8360596
20
69.58901
11
4.8360596
21
69.42071
0
LINE
8
DEFAULT_255_2_778
10
3.4361596
20
71.63891
11
4.8360596
21
71.63891
0
LINE
8
DEFAULT_255_2_778
10
4.8360596
20
71.63891
11
4.8360596
21
71.83871
0
LINE
8
DEFAULT_255_2_778
10
4.8360596
20
71.83871
11
3.4361596
21
71.83871
0
LINE
8
DEFAULT_255_2_778
10
3.4361596
20
71.83871
11
3.4361596
21
71.63891
0
LINE
8
DEFAULT_255_2_778
10
3.3038596
20
71.50671
11
3.1040596
21
71.50671
0
LINE
8
DEFAULT_255_2_778
10
3.4361596
20
71.83871
11
3.4361596
21
72.02421
0
LINE
8
DEFAULT_255_2_778
10
2.9183596
20
71.50641
11
3.1037596
21
71.50641
0
LINE
8
DEFAULT_255_2_778
10
3.1037596
20
71.50641
11
3.1037596
21
70.10651
0
LINE
8
DEFAULT_255_2_778
10
3.1037596
20
70.10651
11
3.3035596
21
70.10651
0
LINE
8
DEFAULT_255_2_778
10
3.4358596
20
69.97421
11
3.4358596
21
69.77441
0
LINE
8
DEFAULT_255_2_778
10
3.1037596
20
70.10651
11
2.9183596
21
70.10651
0
LINE
8
DEFAULT_255_2_778
10
2.9183596
20
70.10651
11
2.9183596
21
71.50641
0
LINE
8
DEFAULT_255_2_778
10
2.9183596
20
71.50641
11
2.7500596
21
71.50641
0
LINE
8
DEFAULT_255_2_778
10
2.7500596
20
70.10651
11
2.9183596
21
70.10651
0
LINE
8
DEFAULT_255_2_778
10
3.4361596
20
69.58871
11
3.4361596
21
69.77421
0
LINE
8
DEFAULT_255_2_778
10
3.4361596
20
69.77421
11
4.8360596
21
69.77421
0
LINE
8
DEFAULT_255_2_778
10
4.8360596
20
69.77421
11
4.8360596
21
69.97391
0
LINE
8
DEFAULT_255_2_778
10
4.9683596
20
70.10621
11
5.1680596
21
70.10621
0
LINE
8
DEFAULT_255_2_778
10
4.8360596
20
69.77421
11
4.8360596
21
69.58871
0
LINE
8
DEFAULT_255_2_778
10
4.8360596
20
69.58871
11
3.4361596
21
69.58871
0
LINE
8
DEFAULT_255_2_778
10
3.4361596
20
69.58871
11
3.4361596
21
69.42041
0
LINE
8
DEFAULT_255_2_778
10
12.5335596
20
58.97411
11
12.5335596
21
58.97411
0
LINE
8
DEFAULT_255_2_778
10
12.5335596
20
56.43411
11
12.5335596
21
56.43411
0
LINE
8
DEFAULT_255_2_778
10
12.5335596
20
61.51411
11
12.5335596
21
61.51411
0
LINE
8
DEFAULT_255_2_778
10
15.0735596
20
61.51411
11
15.0735596
21
61.51411
0
LINE
8
DEFAULT_255_2_778
10
12.5335596
20
15.79411
11
12.5335596
21
15.79411
0
LINE
8
DEFAULT_255_2_778
10
12.5335596
20
13.25411
11
12.5335596
21
13.25411
0
LINE
8
DEFAULT_255_2_778
10
12.5335596
20
18.33411
11
12.5335596
21
18.33411
0
LINE
8
DEFAULT_255_2_778
10
12.5335596
20
20.87411
11
12.5335596
21
20.87411
0
LINE
8
DEFAULT_255_2_778
10
12.5335596
20
41.19411
11
12.5335596
21
41.19411
0
LINE
8
DEFAULT_255_2_778
10
12.5335596
20
36.11411
11
12.5335596
21
36.11411
0
LINE
8
DEFAULT_255_2_778
10
12.5335596
20
43.73411
11
12.5335596
21
43.73411
0
LINE
8
DEFAULT_255_2_778
10
12.5335596
20
38.65411
11
12.5335596
21
38.65411
0
LINE
8
DEFAULT_255_2_778
10
15.0735596
20
15.79411
11
15.0735596
21
15.79411
0
LINE
8
DEFAULT_255_2_778
10
15.0735596
20
20.87411
11
15.0735596
21
20.87411
0
LINE
8
DEFAULT_255_2_778
10
15.0735596
20
18.33411
11
15.0735596
21
18.33411
0
LINE
8
DEFAULT_255_2_778
10
15.0735596
20
13.25411
11
15.0735596
21
13.25411
0
LINE
8
DEFAULT_255_2_778
10
15.0735596
20
43.73411
11
15.0735596
21
43.73411
0
LINE
8
DEFAULT_255_2_778
10
15.0735596
20
38.65411
11
15.0735596
21
38.65411
0
LINE
8
DEFAULT_255_2_778
10
15.0735596
20
46.27411
11
15.0735596
21
46.27411
0
LINE
8
DEFAULT_255_2_778
10
15.0735596
20
41.19411
11
15.0735596
21
41.19411
0
LINE
8
DEFAULT_255_2_778
10
15.0735596
20
33.57411
11
15.0735596
21
33.57411
0
LINE
8
DEFAULT_255_2_778
10
15.0735596
20
36.11411
11
15.0735596
21
36.11411
0
LINE
8
DEFAULT_255_2_778
10
15.0735596
20
31.03411
11
15.0735596
21
31.03411
0
LINE
8
DEFAULT_255_2_778
10
15.0735596
20
23.41411
11
15.0735596
21
23.41411
0
LINE
8
DEFAULT_255_2_778
10
15.0735596
20
28.49411
11
15.0735596
21
28.49411
0
LINE
8
DEFAULT_255_2_778
10
15.0735596
20
25.95411
11
15.0735596
21
25.95411
0
LINE
8
DEFAULT_255_2_778
10
12.5335596
20
48.81411
11
12.5335596
21
48.81411
0
LINE
8
DEFAULT_255_2_778
10
12.5335596
20
46.27411
11
12.5335596
21
46.27411
0
LINE
8
DEFAULT_255_2_778
10
12.5335596
20
51.35411
11
12.5335596
21
51.35411
0
LINE
8
DEFAULT_255_2_778
10
12.5335596
20
53.89411
11
12.5335596
21
53.89411
0
LINE
8
DEFAULT_255_2_778
10
12.5335596
20
33.57411
11
12.5335596
21
33.57411
0
LINE
8
DEFAULT_255_2_778
10
12.5335596
20
28.49411
11
12.5335596
21
28.49411
0
LINE
8
DEFAULT_255_2_778
10
12.5335596
20
25.95411
11
12.5335596
21
25.95411
0
LINE
8
DEFAULT_255_2_778
10
12.5335596
20
31.03411
11
12.5335596
21
31.03411
0
LINE
8
DEFAULT_255_2_778
10
15.0735596
20
58.97411
11
15.0735596
21
58.97411
0
LINE
8
DEFAULT_255_2_778
10
15.0735596
20
56.43411
11
15.0735596
21
56.43411
0
LINE
8
DEFAULT_255_2_778
10
15.0735596
20
51.35411
11
15.0735596
21
51.35411
0
LINE
8
DEFAULT_255_2_778
10
15.0735596
20
53.89411
11
15.0735596
21
53.89411
0
LINE
8
DEFAULT_255_2_778
10
12.5335596
20
23.41411
11
12.5335596
21
23.41411
0
LINE
8
DEFAULT_255_2_778
10
15.0735596
20
48.81411
11
15.0735596
21
48.81411
0
ARC
8
DEFAULT_255_2_778
10
11.0389105
20
36.6790501
40
1.0003636
50
144.6038901
51
180.0036418
0
ARC
8
DEFAULT_255_2_778
10
11.0388355
20
34.0169988
40
1.0002885
50
180.000704
51
215.3974703
0
LINE
8
DEFAULT_255_2_778
10
18.003547
20
12.9442865
11
18.203547
21
12.9442865
0
LINE
8
DEFAULT_255_2_778
10
18.203547
20
13.5641865
11
18.003547
21
13.5641865
0
LINE
8
DEFAULT_255_2_778
10
18.003547
20
18.0242865
11
18.203547
21
18.0242865
0
LINE
8
DEFAULT_255_2_778
10
18.203547
20
18.6441865
11
18.003547
21
18.6441865
0
LINE
8
DEFAULT_255_2_778
10
18.003547
20
15.4842865
11
18.203547
21
15.4842865
0
LINE
8
DEFAULT_255_2_778
10
18.203547
20
16.1041865
11
18.003547
21
16.1041865
0
LINE
8
DEFAULT_255_2_778
10
18.003547
20
19.3482865
11
18.203547
21
19.3482865
0
LINE
8
DEFAULT_255_2_778
10
18.003547
20
19.3212865
11
18.203547
21
19.3212865
0
LINE
8
DEFAULT_255_2_778
10
18.203547
20
19.1214865
11
18.003547
21
19.1214865
0
LINE
8
DEFAULT_255_2_778
10
18.003547
20
25.6442865
11
18.203547
21
25.6442865
0
LINE
8
DEFAULT_255_2_778
10
18.203547
20
26.2641865
11
18.003547
21
26.2641865
0
LINE
8
DEFAULT_255_2_778
10
18.003547
20
28.1842865
11
18.203547
21
28.1842865
0
LINE
8
DEFAULT_255_2_778
10
18.203547
20
28.8041865
11
18.003547
21
28.8041865
0
LINE
8
DEFAULT_255_2_778
10
18.003547
20
30.7242865
11
18.203547
21
30.7242865
0
LINE
8
DEFAULT_255_2_778
10
18.003547
20
23.1042865
11
18.203547
21
23.1042865
0
LINE
8
DEFAULT_255_2_778
10
18.203547
20
23.7241865
11
18.003547
21
23.7241865
0
LINE
8
DEFAULT_255_2_778
10
18.003547
20
22.3480865
11
18.203547
21
22.3480865
0
LINE
8
DEFAULT_255_2_778
10
18.203547
20
22.3750865
11
18.003547
21
22.3750865
0
LINE
8
DEFAULT_255_2_778
10
18.003547
20
22.5748865
11
18.203547
21
22.5748865
0
LINE
8
DEFAULT_255_2_778
10
18.003547
20
40.8839865
11
18.203547
21
40.8839865
0
LINE
8
DEFAULT_255_2_778
10
18.003547
20
43.4239865
11
18.203547
21
43.4239865
0
LINE
8
DEFAULT_255_2_778
10
18.003547
20
48.5039865
11
18.203547
21
48.5039865
0
LINE
8
DEFAULT_255_2_778
10
18.203547
20
49.1239865
11
18.003547
21
49.1239865
0
LINE
8
DEFAULT_255_2_778
10
18.203547
20
44.0439865
11
18.003547
21
44.0439865
0
LINE
8
DEFAULT_255_2_778
10
18.003547
20
45.9639865
11
18.203547
21
45.9639865
0
LINE
8
DEFAULT_255_2_778
10
18.203547
20
46.5839865
11
18.003547
21
46.5839865
0
LINE
8
DEFAULT_255_2_778
10
18.203547
20
41.5039865
11
18.003547
21
41.5039865
0
LINE
8
DEFAULT_255_2_778
10
18.003547
20
41.9179865
11
18.203547
21
41.9179865
0
LINE
8
DEFAULT_255_2_778
10
10.038547
20
36.6789865
11
10.038547
21
34.0169865
0
LINE
8
DEFAULT_255_2_778
10
18.203547
20
69.9815865
11
18.003547
21
69.9815865
0
LINE
8
DEFAULT_255_2_778
10
18.203547
20
66.1815865
11
18.003547
21
66.1815865
0
LINE
8
DEFAULT_255_2_778
10
18.203547
20
4.7866865
11
18.003547
21
4.7866865
0
LINE
8
DEFAULT_255_2_778
10
18.203547
20
8.5865865
11
18.003547
21
8.5865865
0
LINE
8
DEFAULT_255_2_778
10
10.963547
20
39.6991865
11
11.923447
21
39.6991865
0
LINE
8
DEFAULT_255_2_778
10
11.923447
20
39.6991865
11
11.923447
21
35.0692865
0
LINE
8
DEFAULT_255_2_778
10
11.923447
20
35.0692865
11
10.963547
21
35.0692865
0
LINE
8
DEFAULT_255_2_778
10
10.223447
20
39.6991865
11
10.223447
21
35.0692865
0
LINE
8
DEFAULT_255_2_778
10
10.563447
20
10.2891865
11
10.563447
21
35.0692865
0
LINE
8
DEFAULT_255_2_778
10
10.563447
20
35.0692865
11
10.963547
21
35.0692865
0
LINE
8
DEFAULT_255_2_778
10
10.963547
20
35.0692865
11
10.963547
21
10.4124865
0
LINE
8
DEFAULT_255_2_778
10
10.563447
20
35.0692865
11
10.223447
21
35.0692865
0
LINE
8
DEFAULT_255_2_778
10
10.223447
20
35.0692865
11
10.223447
21
10.2891865
0
LINE
8
DEFAULT_255_2_778
10
10.963547
20
64.3559865
11
10.963547
21
39.6991865
0
LINE
8
DEFAULT_255_2_778
10
10.963547
20
39.6991865
11
10.563447
21
39.6991865
0
LINE
8
DEFAULT_255_2_778
10
10.563447
20
39.6991865
11
10.563447
21
64.4792865
0
LINE
8
DEFAULT_255_2_778
10
10.563447
20
39.6991865
11
10.223447
21
39.6991865
0
LINE
8
DEFAULT_255_2_778
10
10.223447
20
39.6991865
11
10.223447
21
64.4792865
0
LINE
8
DEFAULT_255_2_778
10
18.003547
20
35.8042865
11
18.203547
21
35.8042865
0
LINE
8
DEFAULT_255_2_778
10
18.203547
20
36.4241865
11
18.003547
21
36.4241865
0
LINE
8
DEFAULT_255_2_778
10
18.003547
20
33.2642865
11
18.203547
21
33.2642865
0
LINE
8
DEFAULT_255_2_778
10
18.203547
20
33.8841865
11
18.003547
21
33.8841865
0
LINE
8
DEFAULT_255_2_778
10
18.003547
20
38.3442865
11
18.203547
21
38.3442865
0
LINE
8
DEFAULT_255_2_778
10
18.203547
20
38.9641865
11
18.003547
21
38.9641865
0
LINE
8
DEFAULT_255_2_778
10
18.203547
20
31.3441865
11
18.003547
21
31.3441865
0
LINE
8
DEFAULT_255_2_778
10
18.003547
20
10.2891865
11
18.003547
21
20.5642865
0
LINE
8
DEFAULT_255_2_778
10
18.003547
20
20.5642865
11
18.203547
21
20.5642865
0
LINE
8
DEFAULT_255_2_778
10
18.203547
20
20.5642865
11
18.203547
21
21.1841865
0
LINE
8
DEFAULT_255_2_778
10
18.203547
20
21.1841865
11
18.003547
21
21.1841865
0
LINE
8
DEFAULT_255_2_778
10
18.003547
20
21.1841865
11
18.003547
21
37.0742865
0
LINE
8
DEFAULT_255_2_778
10
18.003547
20
37.0742865
11
18.203547
21
37.0742865
0
LINE
8
DEFAULT_255_2_778
10
18.203547
20
37.0742865
11
18.203547
21
37.6941865
0
LINE
8
DEFAULT_255_2_778
10
18.203547
20
37.6941865
11
18.003547
21
37.6941865
0
LINE
8
DEFAULT_255_2_778
10
18.003547
20
37.6941865
11
18.003547
21
53.5842865
0
LINE
8
DEFAULT_255_2_778
10
18.003547
20
53.5842865
11
18.203547
21
53.5842865
0
LINE
8
DEFAULT_255_2_778
10
18.203547
20
53.5842865
11
18.203547
21
54.2041865
0
LINE
8
DEFAULT_255_2_778
10
18.203547
20
54.2041865
11
18.003547
21
54.2041865
0
LINE
8
DEFAULT_255_2_778
10
18.003547
20
54.2041865
11
18.003547
21
64.4792865
0
LINE
8
DEFAULT_255_2_778
10
17.663547
20
64.4792865
11
17.663547
21
10.2891865
0
LINE
8
DEFAULT_255_2_778
10
17.263547
20
10.4124865
11
17.263547
21
64.3559865
0
LINE
8
DEFAULT_255_2_778
10
12.638647
20
65.4693865
11
12.638647
21
65.0843865
0
LINE
8
DEFAULT_255_2_778
10
12.638647
20
65.0843865
11
10.223447
21
65.0843865
0
LINE
8
DEFAULT_255_2_778
10
10.223447
20
65.0843865
11
10.223447
21
69.6193865
0
LINE
8
DEFAULT_255_2_778
10
10.223447
20
69.6193865
11
11.378347
21
69.6193865
0
LINE
8
DEFAULT_255_2_778
10
11.378347
20
69.6193865
11
11.378347
21
66.6641865
0
LINE
8
DEFAULT_255_2_778
10
11.378347
20
66.6641865
11
11.983547
21
66.6641865
0
LINE
8
DEFAULT_255_2_778
10
12.638647
20
65.0841865
11
12.638647
21
64.8840865
0
LINE
8
DEFAULT_255_2_778
10
12.638647
20
64.8840865
11
10.963547
21
64.8840865
0
LINE
8
DEFAULT_255_2_778
10
10.963547
20
64.8840865
11
10.963547
21
64.3557865
0
LINE
8
DEFAULT_255_2_778
10
10.963547
20
64.3557865
11
10.563447
21
64.4790865
0
LINE
8
DEFAULT_255_2_778
10
10.563447
20
64.4790865
11
10.223447
21
64.4790865
0
LINE
8
DEFAULT_255_2_778
10
10.223447
20
64.4790865
11
10.223447
21
65.0841865
0
LINE
8
DEFAULT_255_2_778
10
12.638647
20
72.2056865
11
12.638647
21
72.5191865
0
LINE
8
DEFAULT_255_2_778
10
12.638647
20
72.5191865
11
10.223447
21
72.5191865
0
LINE
8
DEFAULT_255_2_778
10
10.223447
20
72.5191865
11
10.223447
21
69.6190865
0
LINE
8
DEFAULT_255_2_778
10
18.003547
20
40.2770865
11
18.183447
21
40.2754865
0
LINE
8
DEFAULT_255_2_778
10
18.183447
20
39.0607865
11
18.003547
21
39.0591865
0
LINE
8
DEFAULT_255_2_778
10
18.003547
20
51.0439865
11
18.203547
21
51.0439865
0
LINE
8
DEFAULT_255_2_778
10
18.203547
20
51.6639865
11
18.003547
21
51.6639865
0
LINE
8
DEFAULT_255_2_778
10
18.003547
20
56.1239865
11
18.203547
21
56.1239865
0
LINE
8
DEFAULT_255_2_778
10
18.203547
20
56.7439865
11
18.003547
21
56.7439865
0
LINE
8
DEFAULT_255_2_778
10
18.003547
20
61.2039865
11
18.203547
21
61.2039865
0
LINE
8
DEFAULT_255_2_778
10
18.203547
20
61.8239865
11
18.003547
21
61.8239865
0
LINE
8
DEFAULT_255_2_778
10
18.003547
20
58.6639865
11
18.203547
21
58.6639865
0
LINE
8
DEFAULT_255_2_778
10
18.203547
20
59.2839865
11
18.003547
21
59.2839865
0
LINE
8
DEFAULT_255_2_778
10
18.203547
20
2.2196865
11
18.075747
21
2.2185865
0
LINE
8
DEFAULT_255_2_778
10
18.149847
20
2.4122865
11
18.203847
21
2.4127865
0
LINE
8
DEFAULT_255_2_778
10
18.203847
20
72.1680865
11
18.203847
21
73.4179865
0
LINE
8
DEFAULT_255_2_778
10
18.203847
20
54.2039865
11
18.203847
21
67.4463865
0
LINE
8
DEFAULT_255_2_778
10
18.203847
20
37.6939865
11
18.203847
21
53.5839865
0
LINE
8
DEFAULT_255_2_778
10
18.203847
20
21.1839865
11
18.203847
21
37.0739865
0
LINE
8
DEFAULT_255_2_778
10
18.203847
20
7.3215865
11
18.203847
21
20.5639865
0
LINE
8
DEFAULT_255_2_778
10
15.588947
20
9.6840865
11
15.588947
21
9.8840865
0
LINE
8
DEFAULT_255_2_778
10
15.588947
20
9.8840865
11
17.264047
21
9.8840865
0
LINE
8
DEFAULT_255_2_778
10
17.264047
20
9.8840865
11
17.264047
21
10.4124865
0
LINE
8
DEFAULT_255_2_778
10
17.264047
20
10.4124865
11
17.664147
21
10.2891865
0
LINE
8
DEFAULT_255_2_778
10
17.664147
20
10.2891865
11
18.004047
21
10.2891865
0
LINE
8
DEFAULT_255_2_778
10
18.004047
20
10.2891865
11
18.004047
21
9.6840865
0
LINE
8
DEFAULT_255_2_778
10
10.224047
20
5.1491865
11
10.224047
21
9.6840865
0
LINE
8
DEFAULT_255_2_778
10
12.638847
20
9.2990865
11
12.638847
21
9.8840865
0
LINE
8
DEFAULT_255_2_778
10
12.638847
20
9.8840865
11
10.963747
21
9.8840865
0
LINE
8
DEFAULT_255_2_778
10
10.963747
20
9.8840865
11
10.963747
21
10.4124865
0
LINE
8
DEFAULT_255_2_778
10
10.963747
20
10.4124865
11
10.563747
21
10.2891865
0
LINE
8
DEFAULT_255_2_778
10
10.563747
20
10.2891865
11
10.223747
21
10.2891865
0
LINE
8
DEFAULT_255_2_778
10
10.223747
20
10.2891865
11
10.223747
21
9.6840865
0
LINE
8
DEFAULT_255_2_778
10
10.223747
20
9.6840865
11
12.638847
21
9.6840865
0
LINE
8
DEFAULT_255_2_778
10
18.003847
20
69.6190865
11
18.003847
21
72.5191865
0
LINE
8
DEFAULT_255_2_778
10
18.003847
20
72.5191865
11
15.588747
21
72.5191865
0
LINE
8
DEFAULT_255_2_778
10
15.588747
20
72.5191865
11
15.588747
21
72.2056865
0
LINE
8
DEFAULT_255_2_778
10
12.638647
20
2.5627865
11
12.638647
21
2.2492865
0
LINE
8
DEFAULT_255_2_778
10
12.638647
20
2.2492865
11
10.223447
21
2.2492865
0
LINE
8
DEFAULT_255_2_778
10
10.223447
20
2.2492865
11
10.223447
21
5.1493865
0
LINE
8
DEFAULT_255_2_778
10
10.223447
20
5.1493865
11
11.378347
21
5.1493865
0
LINE
8
DEFAULT_255_2_778
10
11.378347
20
5.1493865
11
11.378347
21
4.9091865
0
LINE
8
DEFAULT_255_2_778
10
11.378347
20
4.9091865
11
11.983547
21
4.9091865
0
LINE
8
DEFAULT_255_2_778
10
18.003547
20
5.1493865
11
18.003547
21
6.0518865
0
LINE
8
DEFAULT_255_2_778
10
18.003547
20
6.0518865
11
18.203547
21
6.0518865
0
LINE
8
DEFAULT_255_2_778
10
18.203547
20
6.0518865
11
18.203547
21
7.3218865
0
LINE
8
DEFAULT_255_2_778
10
18.203547
20
7.3218865
11
18.003547
21
7.3218865
0
LINE
8
DEFAULT_255_2_778
10
18.003547
20
7.3218865
11
18.003547
21
9.6843865
0
LINE
8
DEFAULT_255_2_778
10
18.003547
20
9.6843865
11
15.588447
21
9.6843865
0
LINE
8
DEFAULT_255_2_778
10
15.588447
20
9.6843865
11
15.588447
21
9.2993865
0
LINE
8
DEFAULT_255_2_778
10
18.003547
20
65.0843865
11
18.003547
21
64.4792865
0
LINE
8
DEFAULT_255_2_778
10
18.003547
20
64.4792865
11
17.663547
21
64.4792865
0
LINE
8
DEFAULT_255_2_778
10
17.663547
20
64.4792865
11
17.263547
21
64.3559865
0
LINE
8
DEFAULT_255_2_778
10
17.263547
20
64.3559865
11
17.263547
21
64.8843865
0
LINE
8
DEFAULT_255_2_778
10
17.263547
20
64.8843865
11
15.588447
21
64.8843865
0
LINE
8
DEFAULT_255_2_778
10
15.588447
20
64.8843865
11
15.588447
21
65.0843865
0
LINE
8
DEFAULT_255_2_778
10
15.588447
20
65.4693865
11
15.588447
21
65.0843865
0
LINE
8
DEFAULT_255_2_778
10
15.588447
20
65.0843865
11
18.003547
21
65.0843865
0
LINE
8
DEFAULT_255_2_778
10
18.003547
20
65.0843865
11
18.003547
21
67.4468865
0
LINE
8
DEFAULT_255_2_778
10
18.003547
20
67.4468865
11
18.203547
21
67.4468865
0
LINE
8
DEFAULT_255_2_778
10
18.203547
20
67.4468865
11
18.203547
21
68.7168865
0
LINE
8
DEFAULT_255_2_778
10
18.203547
20
68.7168865
11
18.003547
21
68.7168865
0
LINE
8
DEFAULT_255_2_778
10
18.003547
20
68.7168865
11
18.003547
21
69.6193865
0
LINE
8
DEFAULT_255_2_778
10
18.003547
20
69.6193865
11
16.848647
21
69.6193865
0
LINE
8
DEFAULT_255_2_778
10
16.848647
20
69.6193865
11
16.848647
21
66.6641865
0
LINE
8
DEFAULT_255_2_778
10
16.848647
20
66.6641865
11
16.243547
21
66.6641865
0
LINE
8
DEFAULT_255_2_778
10
15.588447
20
2.5627865
11
15.588447
21
2.2492865
0
LINE
8
DEFAULT_255_2_778
10
15.588447
20
2.2492865
11
18.003547
21
2.2492865
0
LINE
8
DEFAULT_255_2_778
10
18.003547
20
2.2492865
11
18.003547
21
5.1493865
0
LINE
8
DEFAULT_255_2_778
10
18.003547
20
5.1493865
11
16.848647
21
5.1493865
0
LINE
8
DEFAULT_255_2_778
10
16.848647
20
5.1493865
11
16.848647
21
4.9091865
0
LINE
8
DEFAULT_255_2_778
10
16.848647
20
4.9091865
11
16.243547
21
4.9091865
0
ARC
8
DEFAULT_255_2_778
10
1.9077964
20
100.9206369
40
0.997531
50
90.0005783
51
168.1391981
0
ARC
8
DEFAULT_255_2_778
10
1.9077087
20
100.8471791
40
1.0709889
50
89.8473115
51
89.9958504
0
ARC
8
DEFAULT_255_2_778
10
21.6132227
20
100.9226235
40
0.782733
50
15.0344412
51
27.6663924
0
ARC
8
DEFAULT_255_2_778
10
21.9079505
20
101.050496
40
0.4629303
50
30.5881377
51
51.4950406
0
ARC
8
DEFAULT_255_2_778
10
21.9046494
20
101.0625163
40
0.4556903
50
50.2291809
51
71.0325508
0
ARC
8
DEFAULT_255_2_778
10
21.8421133
20
100.7624135
40
0.7607945
50
73.9258617
51
86.4695079
0
ARC
8
DEFAULT_255_2_778
10
22.5136698
20
101.602867
40
0.6299496
50
183.4809166
51
187.3970783
0
ARC
8
DEFAULT_255_2_778
10
22.5136294
20
101.6028557
40
0.6299086
50
180.0000093
51
183.4801134
0
ARC
8
DEFAULT_255_2_778
10
22.5121908
20
101.6030355
40
0.6284701
50
149.93749
51
180.0163951
0
ARC
8
DEFAULT_255_2_778
10
22.1696172
20
100.8466227
40
1.0712453
50
90.004149
51
90.1526665
0
ARC
8
DEFAULT_255_2_778
10
22.169545
20
100.9204537
40
0.9974143
50
11.8612278
51
90.0003101
0
ARC
8
DEFAULT_255_2_778
10
20.7716292
20
102.1108393
40
1.1702508
50
49.0466892
51
90.0061835
0
ARC
8
DEFAULT_255_2_778
10
20.7715038
20
102.110688
40
1.1704021
50
90.0000474
51
94.93969
0
ARC
8
DEFAULT_255_2_778
10
20.7716837
20
102.1088744
40
1.1722245
50
94.9408148
51
101.4759046
0
ARC
8
DEFAULT_255_2_778
10
3.3052934
20
102.1094536
40
1.1716465
50
78.5209237
51
85.0386007
0
ARC
8
DEFAULT_255_2_778
10
3.3054966
20
102.1114926
40
1.1695976
50
85.0398787
51
89.9999774
0
ARC
8
DEFAULT_255_2_778
10
3.3055527
20
102.1104209
40
1.1706692
50
90.0027258
51
130.945663
0
ARC
8
DEFAULT_255_2_778
10
3.7097362
20
100.8879006
40
1.3245973
50
93.1754084
51
130.9761322
0
ARC
8
DEFAULT_255_2_778
10
3.7090419
20
100.8856261
40
1.3258608
50
130.8890254
51
173.1293171
0
ARC
8
DEFAULT_255_2_778
10
3.727561
20
100.8830147
40
1.3445594
50
173.1132405
51
174.881781
0
ARC
8
DEFAULT_255_2_778
10
20.3688218
20
100.8859604
40
1.3247182
50
5.0671673
51
42.8643399
0
ARC
8
DEFAULT_255_2_778
10
20.3666876
20
100.8867367
40
1.325756
50
42.7770056
51
85.0206985
0
ARC
8
DEFAULT_255_2_778
10
20.3646777
20
100.8677984
40
1.3447971
50
85.0054218
51
86.7736907
0
ARC
8
DEFAULT_255_2_778
10
18.0375906
20
105.1052754
40
1.7569171
50
269.9993858
51
310.9279156
0
ARC
8
DEFAULT_255_2_778
10
18.0375731
20
105.104115
40
1.7557567
50
265.0670915
51
269.999957
0
ARC
8
DEFAULT_255_2_778
10
18.0378285
20
105.1065985
40
1.7582528
50
258.5456734
51
265.0657591
0
ARC
8
DEFAULT_255_2_778
10
16.4393972
20
105.1065985
40
1.7582528
50
274.9342409
51
281.4543266
0
ARC
8
DEFAULT_255_2_778
10
16.4396525
20
105.104115
40
1.7557566
50
270.000043
51
274.9329085
0
ARC
8
DEFAULT_255_2_778
10
16.439635
20
105.1052754
40
1.7569171
50
229.0720844
51
270.0006142
0
ARC
8
DEFAULT_255_2_778
10
7.6373906
20
105.1052754
40
1.7569171
50
269.9993858
51
310.9279156
0
ARC
8
DEFAULT_255_2_778
10
7.6373731
20
105.104115
40
1.7557567
50
265.0670915
51
269.999957
0
ARC
8
DEFAULT_255_2_778
10
7.6376285
20
105.1065985
40
1.7582528
50
258.5456734
51
265.0657591
0
ARC
8
DEFAULT_255_2_778
10
6.0391976
20
105.1065928
40
1.7582472
50
274.930239
51
281.454348
0
ARC
8
DEFAULT_255_2_778
10
6.0394522
20
105.1040815
40
1.7557232
50
270.000022
51
274.929007
0
ARC
8
DEFAULT_255_2_778
10
6.0394846
20
105.1056765
40
1.7573182
50
229.0769668
51
269.9989634
0
LINE
8
DEFAULT_255_2_778
10
1.1358628
20
101.1256642
11
1.1363267
21
101.1271338
0
ARC
8
DEFAULT_255_2_778
10
2.6367732
20
100.7147575
40
1.5560828
50
151.9428547
51
164.6325017
0
ARC
8
DEFAULT_255_2_778
10
2.0668667
20
100.9625311
40
0.9379136
50
127.7265917
51
148.9235821
0
ARC
8
DEFAULT_255_2_778
10
2.0813061
20
100.975881
40
0.936395
50
107.5554299
51
128.9253103
0
ARC
8
DEFAULT_255_2_778
10
2.1966868
20
100.3726062
40
1.5480483
50
93.4296049
51
104.8911906
0
LINE
8
DEFAULT_255_2_778
10
2.1040792
20
101.9178821
11
2.1092628
21
101.9183642
0
ARC
8
DEFAULT_255_2_778
10
1.5665051
20
101.6036982
40
0.627376
50
0.0065693
51
30.1031825
0
ARC
8
DEFAULT_255_2_778
10
1.566714
20
101.6037766
40
0.6271672
50
355.5705804
51
359.9994176
0
ARC
8
DEFAULT_255_2_778
10
1.5661084
20
101.6038167
40
0.6277742
50
352.5357529
51
355.5711926
0
ARC
8
DEFAULT_255_2_778
10
0.2369206
20
121.8553541
40
20.4265379
50
275.4703065
51
275.4826566
0
ARC
8
DEFAULT_255_2_778
10
3.7754476
20
84.8956298
40
16.7021895
50
95.4670326
51
95.4944655
0
ARC
8
DEFAULT_255_2_778
10
2.222084
20
100.814066
40
0.7085004
50
93.7116035
51
105.2972345
0
ARC
8
DEFAULT_255_2_778
10
2.1755906
20
101.0597863
40
0.4596541
50
107.7887017
51
129.3631193
0
ARC
8
DEFAULT_255_2_778
10
2.1673346
20
101.0528537
40
0.4599041
50
128.0200124
51
149.5012305
0
ARC
8
DEFAULT_255_2_778
10
2.4406302
20
100.933442
40
0.7568381
50
152.2134356
51
164.663014
0
ARC
8
DEFAULT_255_2_778
10
27.9299407
20
92.9714876
40
27.4602739
50
162.7084368
51
162.7251711
0
ARC
8
DEFAULT_255_2_778
10
21.873876
20
100.375851
40
1.5453983
50
74.0109025
51
86.4984212
0
ARC
8
DEFAULT_255_2_778
10
21.9994675
20
100.9808202
40
0.9303714
50
50.6111379
51
71.1825307
0
ARC
8
DEFAULT_255_2_778
10
22.0137271
20
100.9651191
40
0.933693
50
31.0470873
51
51.8989387
0
ARC
8
DEFAULT_255_2_778
10
21.4495871
20
100.717643
40
1.5466656
50
15.2960769
51
28.1219801
0
LINE
8
DEFAULT_255_2_778
10
2.1782628
20
100.4618642
11
2.1785601
21
100.4634079
0
ARC
8
DEFAULT_255_2_778
10
18.0636114
20
97.4067987
40
16.1764556
50
169.0678607
51
169.1082415
0
ARC
8
DEFAULT_255_2_778
10
2.9834778
20
100.3435426
40
0.8133877
50
159.4874247
51
170.7275974
0
ARC
8
DEFAULT_255_2_778
10
2.5751214
20
100.489684
40
0.3797639
50
132.4578091
51
158.5492495
0
ARC
8
DEFAULT_255_2_778
10
2.6970858
20
100.3251932
40
0.5838326
50
121.1498995
51
130.3909073
0
ARC
8
DEFAULT_255_2_778
10
31.6980502
20
55.0088147
40
54.3854097
50
122.5967086
51
122.6021243
0
ARC
8
DEFAULT_255_2_778
10
-4.300894
20
111.3055727
40
12.4371086
50
302.5975699
51
302.6082362
0
ARC
8
DEFAULT_255_2_778
10
21.5175446
20
100.5220667
40
0.348656
50
27.4085266
51
55.3728166
0
ARC
8
DEFAULT_255_2_778
10
21.3720427
20
100.4094479
40
0.5306936
50
12.2958405
51
30.9734014
0
ARC
8
DEFAULT_255_2_778
10
21.0697694
20
100.3741365
40
0.8340881
50
6.0166944
51
10.2435113
0
ARC
8
DEFAULT_255_2_778
10
22.8903801
20
98.4511477
40
1.0958563
50
54.7042439
51
69.1532075
0
ARC
8
DEFAULT_255_2_778
10
22.3451802
20
98.4181147
40
1.4995826
50
359.9942475
51
38.2046164
0
ARC
8
DEFAULT_255_2_778
10
1.7558713
20
98.4181642
40
1.5236085
50
179.8687082
51
179.9999999
0
ARC
8
DEFAULT_255_2_778
10
1.7261045
20
98.4191752
40
1.4938397
50
141.6931899
51
179.9048703
0
LINE
8
DEFAULT_255_2_778
10
0.5538846
20
99.345165
11
0.5539628
21
99.3452642
0
ARC
8
DEFAULT_255_2_778
10
1.1725803
20
98.48343
40
1.0608703
50
110.7535041
51
125.6704751
0
ARC
8
DEFAULT_255_2_778
10
3.7083871
20
101.1168296
40
1.3249035
50
137.1386752
51
174.9322051
0
ARC
8
DEFAULT_255_2_778
10
3.7103713
20
101.1177878
40
1.3257077
50
94.9809242
51
137.2273619
0
ARC
8
DEFAULT_255_2_778
10
3.7122944
20
101.0996344
40
1.3439595
50
93.2260333
51
94.9954048
0
ARC
8
DEFAULT_255_2_778
10
20.3691606
20
101.1171342
40
1.3246819
50
5.0684443
51
42.8679213
0
ARC
8
DEFAULT_255_2_778
10
20.3666454
20
101.1175866
40
1.3262191
50
42.7796711
51
85.0119336
0
ARC
8
DEFAULT_255_2_778
10
20.3646677
20
101.0990512
40
1.3448563
50
84.9966569
51
86.7648726
0
ARC
8
DEFAULT_255_2_778
10
12.0385184
20
41.735676
40
61.0559632
50
82.0903029
51
90.000017
0
LINE
8
DEFAULT_255_2_778
10
12.0385003
20
102.7916392
11
12.0332533
21
102.7916389
0
ARC
8
DEFAULT_255_2_778
10
12.0385201
20
41.734046
40
61.0575931
50
90.0049423
51
97.9095915
0
ARC
8
DEFAULT_255_2_778
10
12.0383176
20
41.9600881
40
61.0624761
50
89.9999341
51
97.9087631
0
ARC
8
DEFAULT_255_2_778
10
12.0410066
20
57.2977375
40
45.7248268
50
89.9901551
51
90.0032815
0
ARC
8
DEFAULT_255_2_778
10
12.0383819
20
41.9568256
40
61.0657386
50
82.0914479
51
89.9901656
0
ARC
8
DEFAULT_255_2_778
10
1.834846
20
98.5273728
40
1.6013698
50
140.6762149
51
169.5449415
0
ARC
8
DEFAULT_255_2_778
10
2.7782114
20
98.3999136
40
2.552614
50
170.5740063
51
174.2227215
0
ARC
8
DEFAULT_255_2_778
10
1.9443239
20
98.5254137
40
1.7108185
50
175.5933452
51
179.5705347
0
ARC
8
DEFAULT_255_2_778
10
-17.5398191
20
98.8661485
40
17.7763972
50
358.910242
51
358.9430368
0
ARC
8
DEFAULT_255_2_778
10
20.2138906
20
92.4739546
40
0.1991095
50
44.8041033
51
90.0079781
0
ARC
8
DEFAULT_255_2_778
10
20.2146652
20
92.4730545
40
0.1991978
50
0.3664799
51
45.1448057
0
ARC
8
DEFAULT_255_2_778
10
20.2140079
20
92.4730642
40
0.1998549
50
0.0000017
51
0.3625146
0
ARC
8
DEFAULT_255_2_778
10
3.8636351
20
76.1218737
40
0.1991095
50
224.8041033
51
270.0079781
0
ARC
8
DEFAULT_255_2_778
10
3.8629139
20
76.1227958
40
0.199251
50
179.9803266
51
225.1383677
0
ARC
8
DEFAULT_255_2_778
10
20.2146115
20
76.1227961
40
0.1992513
50
314.8616087
51
0.0195724
0
ARC
8
DEFAULT_255_2_778
10
20.2138903
20
76.1218746
40
0.1991104
50
269.9921018
51
315.1957678
0
ARC
8
DEFAULT_255_2_778
10
3.8623029
20
92.4733625
40
0.1989401
50
134.7837935
51
180.0283124
0
ARC
8
DEFAULT_255_2_778
10
3.8633413
20
92.4744795
40
0.1988845
50
90.3580794
51
135.2228241
0
ARC
8
DEFAULT_255_2_778
10
3.8633628
20
92.4735093
40
0.1998549
50
90.0000017
51
90.3625146
0
ARC
8
DEFAULT_255_2_778
10
3.8755029
20
92.4598625
40
0.1989401
50
134.7837935
51
180.0283124
0
ARC
8
DEFAULT_255_2_778
10
3.8765645
20
92.4609241
40
0.1989401
50
89.9716876
51
135.2162065
0
ARC
8
DEFAULT_255_2_778
10
3.8765948
20
76.1353155
40
0.1992513
50
224.8616087
51
270.0195724
0
ARC
8
DEFAULT_255_2_778
10
3.8756724
20
76.1360364
40
0.1991096
50
179.9920219
51
225.1958967
0
ARC
8
DEFAULT_255_2_778
10
20.2009407
20
76.1360671
40
0.1994221
50
314.8820013
51
359.9991466
0
ARC
8
DEFAULT_255_2_778
10
20.2003597
20
76.1354867
40
0.1994227
50
270.0008933
51
315.1179445
0
ARC
8
DEFAULT_255_2_778
10
20.2003904
20
92.4607541
40
0.19911
50
44.8041779
51
90.0079381
0
ARC
8
DEFAULT_255_2_778
10
20.2011117
20
92.4598324
40
0.1992512
50
359.9803869
51
45.138406
0
ARC
8
DEFAULT_255_2_778
10
16.0434684
20
70.1841698
40
0.2000945
50
0.027031
51
90.0015954
0
ARC
8
DEFAULT_255_2_778
10
12.1834717
20
70.1842554
40
0.2000087
50
90.0025383
51
179.9974963
0
LINE
8
DEFAULT_255_2_778
10
12.8626628
20
65.4693642
11
12.8628789
21
65.4693635
0
ARC
8
DEFAULT_255_2_778
10
12.843631
20
65.6104938
40
0.1424368
50
277.7663162
51
304.8566241
0
ARC
8
DEFAULT_255_2_778
10
12.5207001
20
66.1429112
40
0.7649034
50
301.9117083
51
312.3316675
0
ARC
8
DEFAULT_255_2_778
10
12.2672006
20
66.443133
40
1.1576513
50
311.6004414
51
312.1428396
0
ARC
8
DEFAULT_255_2_778
10
15.9157765
20
71.9375063
40
0.328073
50
358.682693
51
37.3343089
0
ARC
8
DEFAULT_255_2_778
10
16.0383566
20
72.0331163
40
0.1726324
50
36.7767182
51
88.2054037
0
ARC
8
DEFAULT_255_2_778
10
12.1977669
20
72.0112458
40
0.1949439
50
94.2078683
51
159.7384005
0
ARC
8
DEFAULT_255_2_778
10
12.3382269
20
71.932756
40
0.3547752
50
155.6991045
51
180.450889
0
ARC
8
DEFAULT_255_2_778
10
15.1833539
20
63.5392731
40
0.2000089
50
270.0025627
51
359.9974373
0
ARC
8
DEFAULT_255_2_778
10
13.0433719
20
63.5389732
40
0.200009
50
180.0025728
51
269.9974129
0
LINE
8
DEFAULT_255_2_778
10
15.3645628
20
65.4685642
11
15.3643474
21
65.4685635
0
ARC
8
DEFAULT_255_2_778
10
15.3836587
20
65.6095823
40
0.1423349
50
235.1237507
51
262.2023341
0
ARC
8
DEFAULT_255_2_778
10
15.7071813
20
66.1427593
40
0.7657568
50
227.6702508
51
238.0775063
0
ARC
8
DEFAULT_255_2_778
10
15.9601249
20
66.4423327
40
1.157651
50
227.8571604
51
228.3995586
0
ARC
8
DEFAULT_255_2_778
10
12.1832572
20
65.6681585
40
0.2000944
50
180.0269964
51
270.0016097
0
ARC
8
DEFAULT_255_2_778
10
16.043254
20
65.6683729
40
0.2000087
50
270.0025383
51
359.9974963
0
ARC
8
DEFAULT_255_2_778
10
12.1837077
20
4.5829091
40
0.1999449
50
179.9842058
51
270.0157942
0
ARC
8
DEFAULT_255_2_778
10
16.0437539
20
4.5829731
40
0.2000089
50
270.0025627
51
359.9974373
0
ARC
8
DEFAULT_255_2_778
10
15.9157789
20
2.8304833
40
0.3280715
50
322.6814859
51
1.3240779
0
ARC
8
DEFAULT_255_2_778
10
16.038373
20
2.7349409
40
0.172661
50
271.788849
51
323.232551
0
ARC
8
DEFAULT_255_2_778
10
12.1977669
20
2.7567826
40
0.1949439
50
200.2615995
51
265.7921317
0
ARC
8
DEFAULT_255_2_778
10
12.3382269
20
2.8352723
40
0.3547752
50
179.549111
51
204.3008955
0
ARC
8
DEFAULT_255_2_778
10
15.1833541
20
11.2287554
40
0.2000087
50
0.0025037
51
89.9975106
0
ARC
8
DEFAULT_255_2_778
10
13.0434571
20
11.22897
40
0.2000942
50
90.0269965
51
180.0016788
0
ARC
8
DEFAULT_255_2_778
10
15.3643215
20
9.2773036
40
0.0215619
50
89.358788
51
90.2149913
0
ARC
8
DEFAULT_255_2_778
10
15.3835416
20
9.1579409
40
0.1422403
50
97.7986965
51
124.8995368
0
ARC
8
DEFAULT_255_2_778
10
15.7089931
20
8.6220739
40
0.7689625
50
121.9424341
51
132.2956963
0
ARC
8
DEFAULT_255_2_778
10
15.9695785
20
8.3134499
40
1.1727038
50
131.5657191
51
132.1002563
0
ARC
8
DEFAULT_255_2_778
10
16.043254
20
9.0988554
40
0.2000087
50
0.0025037
51
89.9974617
0
ARC
8
DEFAULT_255_2_778
10
12.1834717
20
9.0985554
40
0.2000087
50
90.0025383
51
179.9974963
0
ARC
8
DEFAULT_255_2_778
10
12.8624045
20
9.27645
40
0.0216155
50
89.786602
51
90.6406823
0
ARC
8
DEFAULT_255_2_778
10
12.843184
20
9.1571409
40
0.1422403
50
55.1004632
51
82.2013035
0
ARC
8
DEFAULT_255_2_778
10
12.5177326
20
8.6212739
40
0.7689625
50
47.7043037
51
58.0575659
0
ARC
8
DEFAULT_255_2_778
10
12.2571472
20
8.3126499
40
1.1727038
50
47.8997437
51
48.4342809
0
ARC
8
DEFAULT_255_2_778
10
10.0387641
20
33.4537785
40
0.5000013
50
180.0016373
51
266.996188
0
ARC
8
DEFAULT_255_2_778
10
10.0387641
20
37.2425499
40
0.5000013
50
93.003812
51
179.9983627
0
ARC
8
DEFAULT_255_2_778
10
23.7292629
20
87.4051488
40
0.0652725
50
358.3588474
51
11.770786
0
ARC
8
DEFAULT_255_2_778
10
21.0382215
20
87.3009732
40
2.7581852
50
0.8260007
51
2.1256941
0
ARC
8
DEFAULT_255_2_778
10
8.9864132
20
87.0918362
40
14.8117983
50
0.5173491
51
0.9628488
0
ARC
8
DEFAULT_255_2_778
10
-15.5369092
20
86.8567988
40
39.3362456
50
0.2777176
51
0.5371567
0
ARC
8
DEFAULT_255_2_778
10
-47.5694698
20
86.6953381
40
71.3692128
50
0.0602631
51
0.2826909
0
ARC
8
DEFAULT_255_2_778
10
-63.6781381
20
86.668632
40
87.477901
50
359.9998246
51
0.0666577
0
ARC
8
DEFAULT_255_2_778
10
23.8570291
20
85.931576
40
0.0652388
50
178.358475
51
191.7737513
0
ARC
8
DEFAULT_255_2_778
10
26.5466433
20
86.0357222
40
2.7567244
50
180.8261251
51
182.1262223
0
ARC
8
DEFAULT_255_2_778
10
38.5935204
20
86.2448115
40
14.8054061
50
180.5173951
51
180.9630213
0
ARC
8
DEFAULT_255_2_778
10
63.1122139
20
86.4798263
40
39.3252245
50
180.2777098
51
180.5372076
0
ARC
8
DEFAULT_255_2_778
10
95.1583017
20
86.6413468
40
71.371719
50
180.060243
51
180.2826817
0
ARC
8
DEFAULT_255_2_778
10
111.2971955
20
86.6680945
40
87.5106327
50
179.9998234
51
180.0666454
0
ARC
8
DEFAULT_255_2_778
10
22.2799398
20
98.3500575
40
1.4936244
50
359.9235338
51
29.8146024
0
ARC
8
DEFAULT_255_2_778
10
22.2729855
20
98.3472078
40
1.5010754
50
29.7770009
51
82.1106683
0
ARC
8
DEFAULT_255_2_778
10
22.273712
20
98.3343893
40
1.513675
50
82.2045077
51
90.0018606
0
ARC
8
DEFAULT_255_2_778
10
22.2161357
20
97.9397666
40
1.9145088
50
77.7726148
51
87.0650454
0
ARC
8
DEFAULT_255_2_778
10
15.1417998
20
60.6273314
40
39.8910428
50
79.1714462
51
79.192722
0
ARC
8
DEFAULT_255_2_778
10
22.2853081
20
98.3688193
40
1.4809507
50
64.2816608
51
72.8556504
0
ARC
8
DEFAULT_255_2_778
10
22.2358914
20
98.2656209
40
1.5953702
50
56.9112913
51
64.2910442
0
ARC
8
DEFAULT_255_2_778
10
22.6546882
20
100.4401389
40
0.7429755
50
67.3204057
51
90.0015386
0
LINE
8
DEFAULT_255_2_778
10
22.6546683
20
101.1831143
11
22.6544117
21
101.1831142
0
ARC
8
DEFAULT_255_2_778
10
22.6546617
20
100.4399207
40
0.7431936
50
90.0192737
51
112.6161216
0
ARC
8
DEFAULT_255_2_778
10
1.6813438
20
99.8249316
40
0.1245245
50
359.8079014
51
10.7995441
0
ARC
8
DEFAULT_255_2_778
10
-0.8732341
20
99.7024905
40
2.6818791
50
1.3687563
51
2.6078175
0
ARC
8
DEFAULT_255_2_778
10
-8.6836636
20
99.4965478
40
10.4950172
50
1.0141435
51
1.4742087
0
ARC
8
DEFAULT_255_2_778
10
-27.4547385
20
99.1621869
40
29.2690699
50
0.6954428
51
1.0182058
0
ARC
8
DEFAULT_255_2_778
10
-63.9029161
20
98.7040395
40
65.7201253
50
0.5404792
51
0.7091521
0
ARC
8
DEFAULT_255_2_778
10
-120.317776
20
98.1688406
40
122.1375239
50
0.4101896
51
0.5418929
0
ARC
8
DEFAULT_255_2_778
10
-196.579742
20
97.612804
40
198.4015165
50
0.328505
51
0.4130935
0
ARC
8
DEFAULT_255_2_778
10
-276.43314
20
97.1490448
40
278.256261
50
0.2706877
51
0.329723
0
ARC
8
DEFAULT_255_2_778
10
-368.9497136
20
96.7142406
40
370.7738562
50
0.2061193
51
0.2703348
0
ARC
8
DEFAULT_255_2_778
10
-479.7598082
20
96.3134773
40
481.5846756
50
0.1474589
51
0.2063723
0
ARC
8
DEFAULT_255_2_778
10
-590.3397637
20
96.0275257
40
592.1650007
50
0.0890142
51
0.1475902
0
ARC
8
DEFAULT_255_2_778
10
-673.763504
20
95.8925737
40
675.58885
50
0.0438929
51
0.0894676
0
ARC
8
DEFAULT_255_2_778
10
-725.3262479
20
95.8506871
40
727.1516108
50
359.999817
51
0.0440809
0
ARC
8
DEFAULT_255_2_778
10
1.7972499
20
98.3500608
40
1.4935884
50
150.184754
51
180.0765939
0
ARC
8
DEFAULT_255_2_778
10
1.8042703
20
98.347148
40
1.5011282
50
97.8872517
51
150.2215203
0
ARC
8
DEFAULT_255_2_778
10
1.8036129
20
98.3340589
40
1.5140054
50
89.9981122
51
97.7946378
0
ARC
8
DEFAULT_255_2_778
10
2.0761324
20
97.5435163
40
2.3518851
50
105.6632703
51
111.8749317
0
ARC
8
DEFAULT_255_2_778
10
1.7521176
20
98.434471
40
1.4047057
50
113.1504101
51
121.7346081
0
ARC
8
DEFAULT_255_2_778
10
1.9090863
20
98.1671866
40
1.7146073
50
121.4977912
51
122.463903
0
ARC
8
DEFAULT_255_2_778
10
1.9015054
20
98.1777731
40
1.701606
50
122.4398708
51
126.4408987
0
ARC
8
DEFAULT_255_2_778
10
1.4221608
20
100.4396859
40
0.7431408
50
89.9960454
51
112.6595057
0
LINE
8
DEFAULT_255_2_778
10
1.4222121
20
101.1828267
11
1.4225584
21
101.1828266
0
ARC
8
DEFAULT_255_2_778
10
1.4222712
20
100.4398208
40
0.7430059
50
67.3784591
51
89.9778523
0
ARC
8
DEFAULT_255_2_778
10
12.5387391
20
0.1481668
40
0.5001974
50
90.0201886
51
169.2851496
0
ARC
8
DEFAULT_255_2_778
10
18.5062637
20
2.4563511
40
1.0070878
50
270.0739095
51
278.3988887
0
ARC
8
DEFAULT_255_2_778
10
18.6190084
20
1.7096312
40
0.2519205
50
277.837865
51
303.5846847
0
ARC
8
DEFAULT_255_2_778
10
18.657434
20
1.6340249
40
0.167966
50
306.9335649
51
337.543229
0
ARC
8
DEFAULT_255_2_778
10
18.472584
20
1.7030486
40
0.3652283
50
338.6132947
51
354.0776532
0
ARC
8
DEFAULT_255_2_778
10
17.5934794
20
1.7994175
40
1.2495947
50
353.8416058
51
358.2635314
0
ARC
8
DEFAULT_255_2_778
10
17.5916988
20
1.7995264
40
1.2513779
50
358.2610155
51
359.7315893
0
ARC
8
DEFAULT_255_2_778
10
22.2451362
20
1.427784
40
1.5938675
50
270.4431175
51
298.8531936
0
ARC
8
DEFAULT_255_2_778
10
22.241804
20
1.4351455
40
1.6019233
50
298.8305232
51
351.8511541
0
ARC
8
DEFAULT_255_2_778
10
22.2294819
20
1.4341407
40
1.6139809
50
351.9484663
51
359.9901834
0
ARC
8
DEFAULT_255_2_778
10
-23.6218522
20
0.6345048
40
45.88629
50
359.000981
51
359.9998868
0
ARC
8
DEFAULT_255_2_778
10
-23.6218522
20
0.6343235
40
45.8862901
50
0.0001132
51
0.999019
0
ARC
8
DEFAULT_255_2_778
10
1.8330632
20
1.4482193
40
0.0996003
50
180.0316925
51
225.1849854
0
ARC
8
DEFAULT_255_2_778
10
1.8336866
20
1.4481701
40
0.100006
50
224.9117504
51
269.9291142
0
ARC
8
DEFAULT_255_2_778
10
10.0426488
20
1.7855446
40
1.0081869
50
180.0784511
51
188.3943385
0
ARC
8
DEFAULT_255_2_778
10
9.2948299
20
1.6727186
40
0.2519205
50
187.837865
51
213.5846847
0
ARC
8
DEFAULT_255_2_778
10
9.2189822
20
1.6342675
40
0.1677578
50
216.9761216
51
247.6030312
0
ARC
8
DEFAULT_255_2_778
10
9.2876353
20
1.8151773
40
0.3612206
50
248.4685017
51
264.1092896
0
ARC
8
DEFAULT_255_2_778
10
12.542962
20
0.1476021
40
0.5041997
50
169.3405859
51
179.9247637
0
ARC
8
DEFAULT_255_2_778
10
17.1851276
20
2.6698556
40
0.9980355
50
313.6971288
51
0.0406784
0
ARC
8
DEFAULT_255_2_778
10
17.1843437
20
2.6677997
40
0.9970926
50
273.9404106
51
313.8113106
0
ARC
8
DEFAULT_255_2_778
10
13.5382748
20
1.1744783
40
0.499988
50
270.984188
51
359.9869177
0
ARC
8
DEFAULT_255_2_778
10
1.8315354
20
1.441505
40
1.5935417
50
241.5278255
51
270.0621091
0
ARC
8
DEFAULT_255_2_778
10
1.8350058
20
1.4491564
40
1.6019223
50
188.3271222
51
241.5491811
0
ARC
8
DEFAULT_255_2_778
10
1.8473928
20
1.4481111
40
1.6140299
50
180.0087661
51
188.2267248
0
ARC
8
DEFAULT_255_2_778
10
1.8270239
20
1.4323882
40
1.5936617
50
179.9469339
51
208.3620929
0
ARC
8
DEFAULT_255_2_778
10
1.8346517
20
1.4358531
40
1.60202
50
208.3415455
51
261.2406832
0
ARC
8
DEFAULT_255_2_778
10
1.8338144
20
1.4482656
40
1.6141625
50
261.3371523
51
269.5012236
0
LINE
8
DEFAULT_255_2_778
10
1.9105628
20
101.9181642
11
2.6444628
21
101.9181642
0
LINE
8
DEFAULT_255_2_778
10
2.4306628
20
101.5220642
11
2.1885628
21
101.5220642
0
LINE
8
DEFAULT_255_2_778
10
21.9682628
20
101.9178642
11
22.1667628
21
101.9178642
0
LINE
8
DEFAULT_255_2_778
10
21.8886628
20
101.5217642
11
21.6465628
21
101.5217642
0
LINE
8
DEFAULT_255_2_778
10
21.5386628
20
101.9178642
11
21.5386628
21
102.9946642
0
LINE
8
DEFAULT_255_2_778
10
20.5384628
20
103.2576642
11
3.5384628
21
103.2576642
0
LINE
8
DEFAULT_255_2_778
10
2.5383628
20
102.9946642
11
2.5383628
21
101.9181642
0
LINE
8
DEFAULT_255_2_778
10
2.3883628
20
101.0029642
11
2.3883628
21
100.5689642
0
LINE
8
DEFAULT_255_2_778
10
2.3883628
20
100.5689642
11
21.6883628
21
100.5689642
0
LINE
8
DEFAULT_255_2_778
10
21.6883628
20
100.5689642
11
21.6883628
21
101.0029642
0
LINE
8
DEFAULT_255_2_778
10
21.6883628
20
100.5689642
11
21.6883628
21
100.1885642
0
LINE
8
DEFAULT_255_2_778
10
21.6883628
20
100.1885642
11
2.3886628
21
100.1885642
0
LINE
8
DEFAULT_255_2_778
10
2.3886628
20
100.1885642
11
2.3886628
21
100.5689642
0
LINE
8
DEFAULT_255_2_778
10
21.6886628
20
101.9183642
11
21.6886628
21
104.1197642
0
LINE
8
DEFAULT_255_2_778
10
21.6886628
20
104.1197642
11
19.1885628
21
104.1197642
0
LINE
8
DEFAULT_255_2_778
10
19.1885628
20
104.1197642
11
19.1885628
21
103.7778642
0
LINE
8
DEFAULT_255_2_778
10
17.6886628
20
103.3833642
11
16.7885628
21
103.3833642
0
LINE
8
DEFAULT_255_2_778
10
15.2886628
20
103.7778642
11
15.2886628
21
104.1197642
0
LINE
8
DEFAULT_255_2_778
10
15.2886628
20
104.1197642
11
12.7885628
21
104.1197642
0
LINE
8
DEFAULT_255_2_778
10
12.7885628
20
104.1197642
11
12.7885628
21
103.5146642
0
LINE
8
DEFAULT_255_2_778
10
12.7885628
20
103.5146642
11
12.7314628
21
103.4391642
0
LINE
8
DEFAULT_255_2_778
10
12.7314628
20
103.4391642
11
12.5689628
21
103.3751642
0
LINE
8
DEFAULT_255_2_778
10
12.5689628
20
103.3751642
11
12.3255628
21
103.3323642
0
LINE
8
DEFAULT_255_2_778
10
12.3255628
20
103.3323642
11
12.0384628
21
103.3172642
0
LINE
8
DEFAULT_255_2_778
10
12.0384628
20
103.3172642
11
11.7514628
21
103.3323642
0
LINE
8
DEFAULT_255_2_778
10
11.7514628
20
103.3323642
11
11.5079628
21
103.3751642
0
LINE
8
DEFAULT_255_2_778
10
11.5079628
20
103.3751642
11
11.3455628
21
103.4391642
0
LINE
8
DEFAULT_255_2_778
10
11.3455628
20
103.4391642
11
11.2883628
21
103.5146642
0
LINE
8
DEFAULT_255_2_778
10
11.2883628
20
103.5146642
11
11.2883628
21
104.1197642
0
LINE
8
DEFAULT_255_2_778
10
11.2883628
20
104.1197642
11
8.7883628
21
104.1197642
0
LINE
8
DEFAULT_255_2_778
10
8.7883628
20
104.1197642
11
8.7883628
21
103.7778642
0
LINE
8
DEFAULT_255_2_778
10
7.2884628
20
103.3833642
11
6.3883628
21
103.3833642
0
LINE
8
DEFAULT_255_2_778
10
4.8883628
20
103.7778642
11
4.8883628
21
104.1197642
0
LINE
8
DEFAULT_255_2_778
10
4.8883628
20
104.1197642
11
2.3886628
21
104.1197642
0
LINE
8
DEFAULT_255_2_778
10
2.3886628
20
104.1197642
11
2.3886628
21
101.9181642
0
LINE
8
DEFAULT_255_2_778
10
2.3886628
20
104.1197642
11
2.3886628
21
104.2747642
0
LINE
8
DEFAULT_255_2_778
10
2.3886628
20
104.2747642
11
4.8886628
21
104.2747642
0
LINE
8
DEFAULT_255_2_778
10
4.8886628
20
104.2747642
11
2.3886628
21
104.2747642
0
LINE
8
DEFAULT_255_2_778
10
4.8886628
20
104.2747642
11
4.8886628
21
104.1197642
0
LINE
8
DEFAULT_255_2_778
10
15.2886628
20
104.1197642
11
15.2886628
21
104.2747642
0
LINE
8
DEFAULT_255_2_778
10
15.2886628
20
104.2747642
11
12.7885628
21
104.2747642
0
LINE
8
DEFAULT_255_2_778
10
12.7885628
20
104.2747642
11
12.7885628
21
104.1197642
0
LINE
8
DEFAULT_255_2_778
10
11.2886628
20
104.1197642
11
11.2886628
21
104.2747642
0
LINE
8
DEFAULT_255_2_778
10
11.2886628
20
104.2747642
11
8.7886628
21
104.2747642
0
LINE
8
DEFAULT_255_2_778
10
8.7886628
20
104.2747642
11
8.7886628
21
104.1197642
0
LINE
8
DEFAULT_255_2_778
10
0.5542628
20
99.3450642
11
0.9320628
21
101.1256642
0
LINE
8
DEFAULT_255_2_778
10
0.9320628
20
101.1256642
11
1.1358628
21
101.1256642
0
LINE
8
DEFAULT_255_2_778
10
21.4327628
20
101.9183642
11
21.9682628
21
101.9183642
0
LINE
8
DEFAULT_255_2_778
10
22.9414628
20
101.1256642
11
23.1451628
21
101.1256642
0
LINE
8
DEFAULT_255_2_778
10
23.1451628
20
101.1256642
11
23.5229628
21
99.3450642
0
LINE
8
DEFAULT_255_2_778
10
2.1285628
20
99.8527642
11
2.1782628
21
100.4618642
0
LINE
8
DEFAULT_255_2_778
10
21.6888628
20
100.8240642
11
21.7156628
21
100.8089642
0
LINE
8
DEFAULT_255_2_778
10
21.8992628
20
100.4615642
11
21.9116628
21
100.3075642
0
LINE
8
DEFAULT_255_2_778
10
21.9116628
20
100.3075642
11
21.9487628
21
99.8525642
0
LINE
8
DEFAULT_255_2_778
10
1.7964628
20
99.8522642
11
2.1256628
21
99.8527642
0
LINE
8
DEFAULT_255_2_778
10
21.9513628
20
99.8527642
11
22.2805628
21
99.8522642
0
LINE
8
DEFAULT_255_2_778
10
21.9135628
20
100.3366642
11
21.6883628
21
100.3374642
0
LINE
8
DEFAULT_255_2_778
10
2.3883628
20
100.3374642
11
2.1623628
21
100.3366642
0
LINE
8
DEFAULT_255_2_778
10
21.9153628
20
100.2589642
11
21.6883628
21
100.2589642
0
LINE
8
DEFAULT_255_2_778
10
2.3883628
20
100.2589642
11
2.1613628
21
100.2589642
0
LINE
8
DEFAULT_255_2_778
10
21.6883628
20
100.1885642
11
21.6883628
21
99.8620642
0
LINE
8
DEFAULT_255_2_778
10
2.3753628
20
99.9482642
11
2.3886628
21
100.1882642
0
LINE
8
DEFAULT_255_2_778
10
2.3886628
20
101.0029642
11
2.3886628
21
101.2338642
0
LINE
8
DEFAULT_255_2_778
10
21.6886628
20
101.0031642
11
21.6886628
21
101.2341642
0
LINE
8
DEFAULT_255_2_778
10
20.4405628
20
102.4417642
11
20.4405628
21
102.2107642
0
LINE
8
DEFAULT_255_2_778
10
3.6363628
20
102.2107642
11
3.6363628
21
102.4417642
0
LINE
8
DEFAULT_255_2_778
10
2.1597628
20
100.1282642
11
2.3687628
21
100.1282642
0
LINE
8
DEFAULT_255_2_778
10
2.3687628
20
100.1282642
11
2.3753628
21
99.8482642
0
LINE
8
DEFAULT_255_2_778
10
21.6886628
20
104.1197642
11
21.6886628
21
104.2747642
0
LINE
8
DEFAULT_255_2_778
10
21.6886628
20
104.2747642
11
19.1885628
21
104.2747642
0
LINE
8
DEFAULT_255_2_778
10
19.1885628
20
104.2747642
11
19.1885628
21
104.1197642
0
LINE
8
DEFAULT_255_2_778
10
3.8636628
20
92.6730642
11
20.2135628
21
92.6730642
0
LINE
8
DEFAULT_255_2_778
10
20.2135628
20
92.6730642
11
20.2003628
21
92.6598642
0
LINE
8
DEFAULT_255_2_778
10
20.2003628
20
92.6598642
11
3.8768628
21
92.6598642
0
LINE
8
DEFAULT_255_2_778
10
3.8768628
20
92.6598642
11
3.8636628
21
92.6730642
0
LINE
8
DEFAULT_255_2_778
10
3.5387628
20
92.7979642
11
3.5387628
21
75.7979642
0
LINE
8
DEFAULT_255_2_778
10
3.5387628
20
75.7979642
11
20.5387628
21
75.7979642
0
LINE
8
DEFAULT_255_2_778
10
20.5387628
20
75.7979642
11
20.5387628
21
92.7981642
0
LINE
8
DEFAULT_255_2_778
10
20.5387628
20
92.7981642
11
3.5387628
21
92.7979642
0
LINE
8
DEFAULT_255_2_778
10
20.2138628
20
75.9227642
11
3.8636628
21
75.9227642
0
LINE
8
DEFAULT_255_2_778
10
3.8636628
20
75.9227642
11
3.8768628
21
75.9360642
0
LINE
8
DEFAULT_255_2_778
10
3.8768628
20
75.9360642
11
20.2003628
21
75.9360642
0
LINE
8
DEFAULT_255_2_778
10
20.2003628
20
75.9360642
11
20.2135628
21
75.9227642
0
LINE
8
DEFAULT_255_2_778
10
3.6633628
20
76.1228642
11
3.6633628
21
92.4732642
0
LINE
8
DEFAULT_255_2_778
10
3.6633628
20
92.4732642
11
3.6765628
21
92.4600642
0
LINE
8
DEFAULT_255_2_778
10
3.6765628
20
92.4600642
11
3.6765628
21
76.1365642
0
LINE
8
DEFAULT_255_2_778
10
3.6765628
20
76.1365642
11
3.6633628
21
76.1228642
0
LINE
8
DEFAULT_255_2_778
10
20.4136628
20
92.4730642
11
20.4136628
21
76.1230642
0
LINE
8
DEFAULT_255_2_778
10
20.4136628
20
76.1230642
11
20.4003628
21
76.1363642
0
LINE
8
DEFAULT_255_2_778
10
20.4003628
20
76.1363642
11
20.4003628
21
92.4597642
0
LINE
8
DEFAULT_255_2_778
10
20.4003628
20
92.4597642
11
20.4136628
21
92.4730642
0
LINE
8
DEFAULT_255_2_778
10
16.2435628
20
70.0659642
11
16.2435628
21
70.1842642
0
LINE
8
DEFAULT_255_2_778
10
16.0434628
20
70.3842642
11
12.1834628
21
70.3842642
0
LINE
8
DEFAULT_255_2_778
10
11.9834628
20
70.1842642
11
11.9834628
21
70.0659642
0
LINE
8
DEFAULT_255_2_778
10
15.5884628
20
72.5189642
11
12.6385628
21
72.5189642
0
LINE
8
DEFAULT_255_2_778
10
12.6385628
20
64.8838642
11
12.6385628
21
63.0188642
0
LINE
8
DEFAULT_255_2_778
10
12.6385628
20
63.0188642
11
15.5886628
21
63.0188642
0
LINE
8
DEFAULT_255_2_778
10
15.5886628
20
63.0188642
11
15.5886628
21
64.8838642
0
LINE
8
DEFAULT_255_2_778
10
11.9837628
20
68.4062642
11
11.9837628
21
65.6688642
0
LINE
8
DEFAULT_255_2_778
10
11.9837628
20
65.6688642
11
11.9876628
21
65.6524642
0
LINE
8
DEFAULT_255_2_778
10
11.9876628
20
65.6524642
11
11.9990628
21
65.6365642
0
LINE
8
DEFAULT_255_2_778
10
11.9990628
20
65.6365642
11
12.0175628
21
65.6220642
0
LINE
8
DEFAULT_255_2_778
10
12.0175628
20
65.6220642
11
12.0728628
21
65.5987642
0
LINE
8
DEFAULT_255_2_778
10
12.0728628
20
65.5987642
11
12.1448628
21
65.5860642
0
LINE
8
DEFAULT_255_2_778
10
12.1448628
20
65.5860642
11
12.1837628
21
65.5844642
0
LINE
8
DEFAULT_255_2_778
10
12.1837628
20
65.5844642
11
12.1837628
21
68.3218642
0
LINE
8
DEFAULT_255_2_778
10
12.1837628
20
68.3218642
11
16.0437628
21
68.3218642
0
LINE
8
DEFAULT_255_2_778
10
16.0437628
20
68.3218642
11
16.0437628
21
68.8359642
0
LINE
8
DEFAULT_255_2_778
10
16.0437628
20
68.8359642
11
12.1834628
21
68.8359642
0
LINE
8
DEFAULT_255_2_778
10
12.1834628
20
68.8359642
11
12.1834628
21
70.1871642
0
LINE
8
DEFAULT_255_2_778
10
12.1834628
20
70.1871642
11
16.0434628
21
70.1871642
0
LINE
8
DEFAULT_255_2_778
10
16.0434628
20
70.1871642
11
16.0434628
21
68.8359642
0
LINE
8
DEFAULT_255_2_778
10
16.0434628
20
68.8359642
11
16.1199628
21
68.8266642
0
LINE
8
DEFAULT_255_2_778
10
16.1199628
20
68.8266642
11
16.1546628
21
68.8155642
0
LINE
8
DEFAULT_255_2_778
10
16.1546628
20
68.8155642
11
16.1850628
21
68.8004642
0
LINE
8
DEFAULT_255_2_778
10
16.1850628
20
68.8004642
11
16.2099628
21
68.7822642
0
LINE
8
DEFAULT_255_2_778
10
16.2099628
20
68.7822642
11
16.2284628
21
68.7613642
0
LINE
8
DEFAULT_255_2_778
10
16.2284628
20
68.7613642
11
16.2398628
21
68.7385642
0
LINE
8
DEFAULT_255_2_778
10
16.2398628
20
68.7385642
11
16.2437628
21
68.7150642
0
LINE
8
DEFAULT_255_2_778
10
16.2437628
20
68.7150642
11
16.2437628
21
68.4065642
0
LINE
8
DEFAULT_255_2_778
10
16.2437628
20
68.4065642
11
16.2398628
21
68.3901642
0
LINE
8
DEFAULT_255_2_778
10
16.2398628
20
68.3901642
11
16.2284628
21
68.3742642
0
LINE
8
DEFAULT_255_2_778
10
16.2284628
20
68.3742642
11
16.2099628
21
68.3596642
0
LINE
8
DEFAULT_255_2_778
10
16.2099628
20
68.3596642
11
16.1546628
21
68.3363642
0
LINE
8
DEFAULT_255_2_778
10
16.1546628
20
68.3363642
11
16.0826628
21
68.3236642
0
LINE
8
DEFAULT_255_2_778
10
16.0826628
20
68.3236642
11
16.0437628
21
68.3221642
0
LINE
8
DEFAULT_255_2_778
10
16.0437628
20
68.3221642
11
16.0437628
21
65.5847642
0
LINE
8
DEFAULT_255_2_778
10
16.0437628
20
65.5847642
11
15.1838628
21
65.5847642
0
LINE
8
DEFAULT_255_2_778
10
15.1838628
20
65.5847642
11
15.1838628
21
63.6278642
0
LINE
8
DEFAULT_255_2_778
10
15.1838628
20
63.6278642
11
13.0439628
21
63.6278642
0
LINE
8
DEFAULT_255_2_778
10
13.0439628
20
63.6278642
11
13.0439628
21
65.5847642
0
LINE
8
DEFAULT_255_2_778
10
13.0439628
20
65.5847642
11
12.1840628
21
65.5847642
0
LINE
8
DEFAULT_255_2_778
10
12.1840628
20
65.5847642
11
12.1840628
21
65.4693642
0
LINE
8
DEFAULT_255_2_778
10
12.1840628
20
65.4693642
11
12.8626628
21
65.4693642
0
LINE
8
DEFAULT_255_2_778
10
16.2437628
20
70.1845642
11
16.2437628
21
71.9299642
0
LINE
8
DEFAULT_255_2_778
10
16.0437628
20
72.2056642
11
16.0437628
21
72.2056642
0
LINE
8
DEFAULT_255_2_778
10
16.0437628
20
72.2056642
11
15.3838628
21
72.2056642
0
LINE
8
DEFAULT_255_2_778
10
15.3838628
20
72.2056642
11
15.3838628
21
72.3691642
0
LINE
8
DEFAULT_255_2_778
10
15.3838628
20
72.3691642
11
12.8438628
21
72.3691642
0
LINE
8
DEFAULT_255_2_778
10
12.8438628
20
72.3691642
11
12.8438628
21
72.2056642
0
LINE
8
DEFAULT_255_2_778
10
12.8438628
20
72.2056642
11
12.1834628
21
72.2056642
0
LINE
8
DEFAULT_255_2_778
10
11.9834628
20
71.9299642
11
11.9834628
21
70.1845642
0
LINE
8
DEFAULT_255_2_778
10
15.1833628
20
63.3392642
11
15.1833628
21
63.6278642
0
LINE
8
DEFAULT_255_2_778
10
15.1833628
20
63.6278642
11
15.2597628
21
63.6342642
0
LINE
8
DEFAULT_255_2_778
10
15.2597628
20
63.6342642
11
15.3246628
21
63.6524642
0
LINE
8
DEFAULT_255_2_778
10
15.3246628
20
63.6524642
11
15.3494628
21
63.6651642
0
LINE
8
DEFAULT_255_2_778
10
15.3494628
20
63.6651642
11
15.3680628
21
63.6797642
0
LINE
8
DEFAULT_255_2_778
10
15.3680628
20
63.6797642
11
15.3793628
21
63.6956642
0
LINE
8
DEFAULT_255_2_778
10
15.3793628
20
63.6956642
11
15.3833628
21
63.7120642
0
LINE
8
DEFAULT_255_2_778
10
15.3833628
20
63.7120642
11
15.3833628
21
65.4688642
0
LINE
8
DEFAULT_255_2_778
10
13.0433628
20
63.3389642
11
13.0433628
21
63.6276642
0
LINE
8
DEFAULT_255_2_778
10
13.0433628
20
63.6276642
11
12.9669628
21
63.6339642
0
LINE
8
DEFAULT_255_2_778
10
12.9669628
20
63.6339642
11
12.9020628
21
63.6522642
0
LINE
8
DEFAULT_255_2_778
10
12.9020628
20
63.6522642
11
12.8772628
21
63.6649642
0
LINE
8
DEFAULT_255_2_778
10
12.8772628
20
63.6649642
11
12.8586628
21
63.6794642
0
LINE
8
DEFAULT_255_2_778
10
12.8586628
20
63.6794642
11
12.8473628
21
63.6953642
0
LINE
8
DEFAULT_255_2_778
10
12.8473628
20
63.6953642
11
12.8433628
21
63.7117642
0
LINE
8
DEFAULT_255_2_778
10
12.8433628
20
63.7117642
11
12.8433628
21
65.4685642
0
LINE
8
DEFAULT_255_2_778
10
16.0432628
20
65.4685642
11
15.3645628
21
65.4685642
0
LINE
8
DEFAULT_255_2_778
10
15.1833628
20
63.3384642
11
13.0433628
21
63.3384642
0
LINE
8
DEFAULT_255_2_778
10
12.8433628
20
63.0185642
11
12.8433628
21
63.7117642
0
LINE
8
DEFAULT_255_2_778
10
15.3833628
20
63.7117642
11
15.3833628
21
63.0185642
0
LINE
8
DEFAULT_255_2_778
10
12.1834628
20
72.2051642
11
12.1834628
21
70.1866642
0
LINE
8
DEFAULT_255_2_778
10
12.1834628
20
70.1866642
11
12.1070628
21
70.1773642
0
LINE
8
DEFAULT_255_2_778
10
12.1070628
20
70.1773642
11
12.0723628
21
70.1662642
0
LINE
8
DEFAULT_255_2_778
10
12.0723628
20
70.1662642
11
12.0419628
21
70.1511642
0
LINE
8
DEFAULT_255_2_778
10
12.0419628
20
70.1511642
11
12.0170628
21
70.1329642
0
LINE
8
DEFAULT_255_2_778
10
12.0170628
20
70.1329642
11
11.9985628
21
70.1120642
0
LINE
8
DEFAULT_255_2_778
10
11.9985628
20
70.1120642
11
11.9871628
21
70.0892642
0
LINE
8
DEFAULT_255_2_778
10
11.9871628
20
70.0892642
11
11.9831628
21
70.0657642
0
LINE
8
DEFAULT_255_2_778
10
11.9831628
20
70.0657642
11
11.9831628
21
68.7144642
0
LINE
8
DEFAULT_255_2_778
10
11.9831628
20
68.7144642
11
11.9871628
21
68.7380642
0
LINE
8
DEFAULT_255_2_778
10
11.9871628
20
68.7380642
11
11.9985628
21
68.7607642
0
LINE
8
DEFAULT_255_2_778
10
11.9985628
20
68.7607642
11
12.0170628
21
68.7816642
0
LINE
8
DEFAULT_255_2_778
10
12.0170628
20
68.7816642
11
12.0419628
21
68.7999642
0
LINE
8
DEFAULT_255_2_778
10
12.0419628
20
68.7999642
11
12.0723628
21
68.8150642
0
LINE
8
DEFAULT_255_2_778
10
12.0723628
20
68.8150642
11
12.1443628
21
68.8330642
0
LINE
8
DEFAULT_255_2_778
10
12.1443628
20
68.8330642
11
12.1832628
21
68.8354642
0
LINE
8
DEFAULT_255_2_778
10
12.1832628
20
68.8354642
11
12.1832628
21
68.3213642
0
LINE
8
DEFAULT_255_2_778
10
12.1832628
20
68.3213642
11
12.1067628
21
68.3276642
0
LINE
8
DEFAULT_255_2_778
10
12.1067628
20
68.3276642
11
12.0419628
21
68.3459642
0
LINE
8
DEFAULT_255_2_778
10
12.0419628
20
68.3459642
11
12.0170628
21
68.3586642
0
LINE
8
DEFAULT_255_2_778
10
12.0170628
20
68.3586642
11
11.9985628
21
68.3731642
0
LINE
8
DEFAULT_255_2_778
10
11.9985628
20
68.3731642
11
11.9871628
21
68.3890642
0
LINE
8
DEFAULT_255_2_778
10
11.9871628
20
68.3890642
11
11.9831628
21
68.4054642
0
LINE
8
DEFAULT_255_2_778
10
11.9831628
20
68.4054642
11
11.9831628
21
68.7139642
0
LINE
8
DEFAULT_255_2_778
10
16.2432628
20
68.4054642
11
16.2432628
21
65.6680642
0
LINE
8
DEFAULT_255_2_778
10
16.2432628
20
65.6680642
11
16.2392628
21
65.6516642
0
LINE
8
DEFAULT_255_2_778
10
16.2392628
20
65.6516642
11
16.2278628
21
65.6357642
0
LINE
8
DEFAULT_255_2_778
10
16.2278628
20
65.6357642
11
16.2093628
21
65.6212642
0
LINE
8
DEFAULT_255_2_778
10
16.2093628
20
65.6212642
11
16.1540628
21
65.5979642
0
LINE
8
DEFAULT_255_2_778
10
16.1540628
20
65.5979642
11
16.0821628
21
65.5852642
0
LINE
8
DEFAULT_255_2_778
10
16.0821628
20
65.5852642
11
16.0432628
21
65.5836642
0
LINE
8
DEFAULT_255_2_778
10
16.0432628
20
65.5836642
11
16.0432628
21
65.4683642
0
LINE
8
DEFAULT_255_2_778
10
16.0432628
20
72.2048642
11
16.0432628
21
70.1863642
0
LINE
8
DEFAULT_255_2_778
10
16.0432628
20
70.1863642
11
16.1196628
21
70.1771642
0
LINE
8
DEFAULT_255_2_778
10
16.1196628
20
70.1771642
11
16.1543628
21
70.1659642
0
LINE
8
DEFAULT_255_2_778
10
16.1543628
20
70.1659642
11
16.1847628
21
70.1509642
0
LINE
8
DEFAULT_255_2_778
10
16.1847628
20
70.1509642
11
16.2096628
21
70.1326642
0
LINE
8
DEFAULT_255_2_778
10
16.2096628
20
70.1326642
11
16.2281628
21
70.1117642
0
LINE
8
DEFAULT_255_2_778
10
16.2281628
20
70.1117642
11
16.2395628
21
70.0889642
0
LINE
8
DEFAULT_255_2_778
10
16.2395628
20
70.0889642
11
16.2435628
21
70.0654642
0
LINE
8
DEFAULT_255_2_778
10
16.2435628
20
70.0654642
11
16.2435628
21
68.7142642
0
LINE
8
DEFAULT_255_2_778
10
11.3783628
20
69.6183642
11
11.3783628
21
69.8585642
0
LINE
8
DEFAULT_255_2_778
10
11.3783628
20
69.8585642
11
11.9834628
21
69.8585642
0
LINE
8
DEFAULT_255_2_778
10
11.9834628
20
69.6632642
11
11.3783628
21
69.6632642
0
LINE
8
DEFAULT_255_2_778
10
16.2435628
20
69.8585642
11
16.8486628
21
69.8585642
0
LINE
8
DEFAULT_255_2_778
10
16.8486628
20
69.8585642
11
16.8486628
21
69.6183642
0
LINE
8
DEFAULT_255_2_778
10
16.8486628
20
69.6632642
11
16.2435628
21
69.6632642
0
LINE
8
DEFAULT_255_2_778
10
12.8436628
20
73.4171642
11
12.8436628
21
72.5181642
0
LINE
8
DEFAULT_255_2_778
10
12.8436628
20
11.7481642
11
12.8436628
21
11.2282642
0
LINE
8
DEFAULT_255_2_778
10
15.3836628
20
11.2282642
11
15.3836628
21
11.7481642
0
LINE
8
DEFAULT_255_2_778
10
11.9837628
20
4.7011642
11
11.9837628
21
4.5829642
0
LINE
8
DEFAULT_255_2_778
10
12.1837628
20
4.3829642
11
16.0437628
21
4.3829642
0
LINE
8
DEFAULT_255_2_778
10
16.2437628
20
4.5829642
11
16.2437628
21
4.7011642
0
LINE
8
DEFAULT_255_2_778
10
12.6388628
20
2.2482642
11
15.5889628
21
2.2482642
0
LINE
8
DEFAULT_255_2_778
10
15.5889628
20
9.8833642
11
15.5889628
21
11.7483642
0
LINE
8
DEFAULT_255_2_778
10
15.5889628
20
11.7483642
11
12.6385628
21
11.7483642
0
LINE
8
DEFAULT_255_2_778
10
12.6385628
20
11.7483642
11
12.6385628
21
9.8833642
0
LINE
8
DEFAULT_255_2_778
10
11.9834628
20
6.0524642
11
11.9834628
21
4.7011642
0
LINE
8
DEFAULT_255_2_778
10
11.9834628
20
4.7011642
11
11.9874628
21
4.6776642
0
LINE
8
DEFAULT_255_2_778
10
11.9874628
20
4.6776642
11
11.9987628
21
4.6548642
0
LINE
8
DEFAULT_255_2_778
10
11.9987628
20
4.6548642
11
12.0173628
21
4.6339642
0
LINE
8
DEFAULT_255_2_778
10
12.0173628
20
4.6339642
11
12.0421628
21
4.6157642
0
LINE
8
DEFAULT_255_2_778
10
12.0421628
20
4.6157642
11
12.0726628
21
4.6006642
0
LINE
8
DEFAULT_255_2_778
10
12.0726628
20
4.6006642
11
12.1445628
21
4.5826642
0
LINE
8
DEFAULT_255_2_778
10
12.1445628
20
4.5826642
11
16.0434628
21
4.5802642
0
LINE
8
DEFAULT_255_2_778
10
16.0434628
20
4.5802642
11
16.0434628
21
6.4455642
0
LINE
8
DEFAULT_255_2_778
10
16.0434628
20
6.4455642
11
12.1834628
21
6.4455642
0
LINE
8
DEFAULT_255_2_778
10
12.1834628
20
6.4455642
11
12.1834628
21
5.9315642
0
LINE
8
DEFAULT_255_2_778
10
12.1834628
20
5.9315642
11
16.0823628
21
5.9338642
0
LINE
8
DEFAULT_255_2_778
10
16.0823628
20
5.9338642
11
16.1543628
21
5.9518642
0
LINE
8
DEFAULT_255_2_778
10
16.1543628
20
5.9518642
11
16.1847628
21
5.9669642
0
LINE
8
DEFAULT_255_2_778
10
16.1847628
20
5.9669642
11
16.2096628
21
5.9852642
0
LINE
8
DEFAULT_255_2_778
10
16.2096628
20
5.9852642
11
16.2281628
21
6.0061642
0
LINE
8
DEFAULT_255_2_778
10
16.2281628
20
6.0061642
11
16.2395628
21
6.0288642
0
LINE
8
DEFAULT_255_2_778
10
16.2395628
20
6.0288642
11
16.2435628
21
6.0524642
0
LINE
8
DEFAULT_255_2_778
10
16.2435628
20
6.0524642
11
16.2435628
21
6.3609642
0
LINE
8
DEFAULT_255_2_778
10
16.2435628
20
6.3609642
11
16.2395628
21
6.3773642
0
LINE
8
DEFAULT_255_2_778
10
16.2395628
20
6.3773642
11
16.2281628
21
6.3932642
0
LINE
8
DEFAULT_255_2_778
10
16.2281628
20
6.3932642
11
16.2096628
21
6.4077642
0
LINE
8
DEFAULT_255_2_778
10
16.2096628
20
6.4077642
11
16.1543628
21
6.4310642
0
LINE
8
DEFAULT_255_2_778
10
16.1543628
20
6.4310642
11
16.0823628
21
6.4437642
0
LINE
8
DEFAULT_255_2_778
10
16.0823628
20
6.4437642
11
16.0434628
21
6.4453642
0
LINE
8
DEFAULT_255_2_778
10
16.0434628
20
6.4453642
11
16.0434628
21
9.1827642
0
LINE
8
DEFAULT_255_2_778
10
16.0434628
20
9.1827642
11
15.1835628
21
9.1827642
0
LINE
8
DEFAULT_255_2_778
10
15.1835628
20
9.1827642
11
15.1835628
21
11.1395642
0
LINE
8
DEFAULT_255_2_778
10
15.1835628
20
11.1395642
11
13.0436628
21
11.1395642
0
LINE
8
DEFAULT_255_2_778
10
13.0436628
20
11.1395642
11
13.0436628
21
9.1827642
0
LINE
8
DEFAULT_255_2_778
10
13.0436628
20
9.1827642
11
12.1837628
21
9.1827642
0
LINE
8
DEFAULT_255_2_778
10
12.1837628
20
9.1827642
11
12.1837628
21
6.4453642
0
LINE
8
DEFAULT_255_2_778
10
12.1837628
20
6.4453642
11
12.1072628
21
6.4389642
0
LINE
8
DEFAULT_255_2_778
10
12.1072628
20
6.4389642
11
12.0424628
21
6.4207642
0
LINE
8
DEFAULT_255_2_778
10
12.0424628
20
6.4207642
11
12.0175628
21
6.4080642
0
LINE
8
DEFAULT_255_2_778
10
12.0175628
20
6.4080642
11
11.9990628
21
6.3934642
0
LINE
8
DEFAULT_255_2_778
10
11.9990628
20
6.3934642
11
11.9876628
21
6.3775642
0
LINE
8
DEFAULT_255_2_778
10
11.9876628
20
6.3775642
11
11.9837628
21
6.3611642
0
LINE
8
DEFAULT_255_2_778
10
11.9837628
20
6.3611642
11
11.9837628
21
6.0526642
0
LINE
8
DEFAULT_255_2_778
10
11.9837628
20
6.0526642
11
11.9876628
21
6.0291642
0
LINE
8
DEFAULT_255_2_778
10
11.9876628
20
6.0291642
11
11.9990628
21
6.0063642
0
LINE
8
DEFAULT_255_2_778
10
11.9990628
20
6.0063642
11
12.0175628
21
5.9854642
0
LINE
8
DEFAULT_255_2_778
10
12.0175628
20
5.9854642
11
12.0424628
21
5.9672642
0
LINE
8
DEFAULT_255_2_778
10
12.0424628
20
5.9672642
11
12.0728628
21
5.9521642
0
LINE
8
DEFAULT_255_2_778
10
12.0728628
20
5.9521642
11
12.1448628
21
5.9341642
0
LINE
8
DEFAULT_255_2_778
10
12.1448628
20
5.9341642
11
12.1837628
21
5.9317642
0
LINE
8
DEFAULT_255_2_778
10
12.1837628
20
5.9317642
11
12.1837628
21
2.5623642
0
LINE
8
DEFAULT_255_2_778
10
16.2437628
20
4.5834642
11
16.2437628
21
2.8380642
0
LINE
8
DEFAULT_255_2_778
10
16.2437628
20
2.8380642
11
16.2437628
21
2.8380642
0
LINE
8
DEFAULT_255_2_778
10
16.0437628
20
2.5623642
11
15.3838628
21
2.5623642
0
LINE
8
DEFAULT_255_2_778
10
15.3838628
20
2.5623642
11
15.3838628
21
2.3987642
0
LINE
8
DEFAULT_255_2_778
10
15.3838628
20
2.3987642
11
12.8438628
21
2.3987642
0
LINE
8
DEFAULT_255_2_778
10
12.8438628
20
2.3987642
11
12.8438628
21
2.5623642
0
LINE
8
DEFAULT_255_2_778
10
12.8438628
20
2.5623642
11
12.1834628
21
2.5623642
0
LINE
8
DEFAULT_255_2_778
10
12.1834628
20
2.5623642
11
12.1834628
21
2.5623642
0
LINE
8
DEFAULT_255_2_778
10
11.9834628
20
2.8380642
11
11.9834628
21
4.5834642
0
LINE
8
DEFAULT_255_2_778
10
15.3833628
20
11.0554642
11
15.3833628
21
11.2287642
0
LINE
8
DEFAULT_255_2_778
10
15.1833628
20
11.4287642
11
15.1833628
21
11.1400642
0
LINE
8
DEFAULT_255_2_778
10
15.1833628
20
11.1400642
11
15.2597628
21
11.1337642
0
LINE
8
DEFAULT_255_2_778
10
15.2597628
20
11.1337642
11
15.3246628
21
11.1154642
0
LINE
8
DEFAULT_255_2_778
10
15.3246628
20
11.1154642
11
15.3494628
21
11.1027642
0
LINE
8
DEFAULT_255_2_778
10
15.3494628
20
11.1027642
11
15.3680628
21
11.0882642
0
LINE
8
DEFAULT_255_2_778
10
15.3680628
20
11.0882642
11
15.3793628
21
11.0723642
0
LINE
8
DEFAULT_255_2_778
10
15.3793628
20
11.0723642
11
15.3833628
21
11.0559642
0
LINE
8
DEFAULT_255_2_778
10
15.3833628
20
11.0559642
11
15.3833628
21
9.2991642
0
LINE
8
DEFAULT_255_2_778
10
12.8433628
20
9.2991642
11
12.8433628
21
11.0559642
0
LINE
8
DEFAULT_255_2_778
10
12.8433628
20
11.0559642
11
12.8473628
21
11.0723642
0
LINE
8
DEFAULT_255_2_778
10
12.8473628
20
11.0723642
11
12.8586628
21
11.0882642
0
LINE
8
DEFAULT_255_2_778
10
12.8586628
20
11.0882642
11
12.8772628
21
11.1027642
0
LINE
8
DEFAULT_255_2_778
10
12.8772628
20
11.1027642
11
12.9325628
21
11.1260642
0
LINE
8
DEFAULT_255_2_778
10
12.9325628
20
11.1260642
11
13.0044628
21
11.1387642
0
LINE
8
DEFAULT_255_2_778
10
13.0044628
20
11.1387642
11
13.0433628
21
11.1403642
0
LINE
8
DEFAULT_255_2_778
10
13.0433628
20
11.1403642
11
13.0433628
21
11.4290642
0
LINE
8
DEFAULT_255_2_778
10
12.8433628
20
11.2289642
11
12.8433628
21
11.0556642
0
LINE
8
DEFAULT_255_2_778
10
16.0432628
20
9.2988642
11
15.3645628
21
9.2988642
0
LINE
8
DEFAULT_255_2_778
10
15.1833628
20
11.4290642
11
13.0433628
21
11.4290642
0
LINE
8
DEFAULT_255_2_778
10
16.2432628
20
6.3617642
11
16.2432628
21
9.0991642
0
LINE
8
DEFAULT_255_2_778
10
16.2432628
20
9.0991642
11
16.2392628
21
9.1155642
0
LINE
8
DEFAULT_255_2_778
10
16.2392628
20
9.1155642
11
16.2278628
21
9.1313642
0
LINE
8
DEFAULT_255_2_778
10
16.2278628
20
9.1313642
11
16.2093628
21
9.1459642
0
LINE
8
DEFAULT_255_2_778
10
16.2093628
20
9.1459642
11
16.1540628
21
9.1692642
0
LINE
8
DEFAULT_255_2_778
10
16.1540628
20
9.1692642
11
16.0821628
21
9.1819642
0
LINE
8
DEFAULT_255_2_778
10
16.0821628
20
9.1819642
11
16.0432628
21
9.1835642
0
LINE
8
DEFAULT_255_2_778
10
16.0432628
20
9.1835642
11
16.0432628
21
9.2988642
0
LINE
8
DEFAULT_255_2_778
10
16.0432628
20
2.5623642
11
16.0432628
21
4.5808642
0
LINE
8
DEFAULT_255_2_778
10
16.0432628
20
4.5808642
11
16.1196628
21
4.5900642
0
LINE
8
DEFAULT_255_2_778
10
16.1196628
20
4.5900642
11
16.1543628
21
4.6011642
0
LINE
8
DEFAULT_255_2_778
10
16.1543628
20
4.6011642
11
16.1847628
21
4.6162642
0
LINE
8
DEFAULT_255_2_778
10
16.1847628
20
4.6162642
11
16.2096628
21
4.6345642
0
LINE
8
DEFAULT_255_2_778
10
16.2096628
20
4.6345642
11
16.2281628
21
4.6554642
0
LINE
8
DEFAULT_255_2_778
10
16.2281628
20
4.6554642
11
16.2395628
21
4.6781642
0
LINE
8
DEFAULT_255_2_778
10
16.2395628
20
4.6781642
11
16.2435628
21
4.7017642
0
LINE
8
DEFAULT_255_2_778
10
16.2435628
20
4.7017642
11
16.2435628
21
6.0529642
0
LINE
8
DEFAULT_255_2_778
10
11.9834628
20
8.1037642
11
11.3783628
21
8.1037642
0
LINE
8
DEFAULT_255_2_778
10
11.3783628
20
8.1037642
11
11.3783628
21
5.1486642
0
LINE
8
DEFAULT_255_2_778
10
11.3783628
20
5.1036642
11
11.9834628
21
5.1036642
0
LINE
8
DEFAULT_255_2_778
10
16.8486628
20
5.1486642
11
16.8486628
21
8.1037642
0
LINE
8
DEFAULT_255_2_778
10
16.8486628
20
8.1037642
11
16.2435628
21
8.1037642
0
LINE
8
DEFAULT_255_2_778
10
16.2435628
20
5.1036642
11
16.8486628
21
5.1036642
0
LINE
8
DEFAULT_255_2_778
10
11.9834628
20
6.3611642
11
11.9834628
21
9.0985642
0
LINE
8
DEFAULT_255_2_778
10
11.9834628
20
9.0985642
11
11.9874628
21
9.1149642
0
LINE
8
DEFAULT_255_2_778
10
11.9874628
20
9.1149642
11
11.9987628
21
9.1308642
0
LINE
8
DEFAULT_255_2_778
10
11.9987628
20
9.1308642
11
12.0173628
21
9.1454642
0
LINE
8
DEFAULT_255_2_778
10
12.0173628
20
9.1454642
11
12.0421628
21
9.1581642
0
LINE
8
DEFAULT_255_2_778
10
12.0421628
20
9.1581642
11
12.1070628
21
9.1763642
0
LINE
8
DEFAULT_255_2_778
10
12.1070628
20
9.1763642
11
12.1834628
21
9.1827642
0
LINE
8
DEFAULT_255_2_778
10
12.1834628
20
9.1827642
11
12.1834628
21
9.2980642
0
LINE
8
DEFAULT_255_2_778
10
12.1834628
20
9.2980642
11
12.8621628
21
9.2980642
0
LINE
8
DEFAULT_255_2_778
10
18.2032628
20
68.7155642
11
18.2032628
21
72.1670642
0
LINE
8
DEFAULT_255_2_778
10
18.2032628
20
72.1670642
11
18.8433628
21
72.1670642
0
LINE
8
DEFAULT_255_2_778
10
18.2032628
20
73.1671642
11
18.8433628
21
73.1671642
0
LINE
8
DEFAULT_255_2_778
10
1.8335628
20
66.3070642
11
1.8335628
21
66.5570642
0
LINE
8
DEFAULT_255_2_778
10
2.3335628
20
66.5570642
11
2.3335628
21
66.3070642
0
LINE
8
DEFAULT_255_2_778
10
10.2234628
20
5.1552642
11
9.0333628
21
5.1967642
0
LINE
8
DEFAULT_255_2_778
10
9.0333628
20
7.8534642
11
10.2234628
21
7.8534642
0
LINE
8
DEFAULT_255_2_778
10
10.2234628
20
4.4781642
11
9.0333628
21
4.5093642
0
LINE
8
DEFAULT_255_2_778
10
3.5384628
20
95.8480642
11
1.8253628
21
95.8480642
0
LINE
8
DEFAULT_255_2_778
10
1.8253628
20
95.8480642
11
1.8253628
21
66.5568642
0
LINE
8
DEFAULT_255_2_778
10
1.8253628
20
66.5568642
11
6.9883628
21
66.5568642
0
LINE
8
DEFAULT_255_2_778
10
6.9883628
20
66.5568642
11
6.9883628
21
73.4179642
0
LINE
8
DEFAULT_255_2_778
10
6.9883628
20
73.4179642
11
22.2519628
21
73.4179642
0
LINE
8
DEFAULT_255_2_778
10
22.2519628
20
73.4179642
11
22.2519628
21
95.8480642
0
LINE
8
DEFAULT_255_2_778
10
22.2519628
20
95.8480642
11
20.5384628
21
95.8480642
0
LINE
8
DEFAULT_255_2_778
10
10.2237628
20
32.9433642
11
10.0125628
21
32.9544642
0
LINE
8
DEFAULT_255_2_778
10
9.5387628
20
33.4537642
11
9.5387628
21
37.2425642
0
LINE
8
DEFAULT_255_2_778
10
10.0125628
20
37.7418642
11
10.2237628
21
37.7529642
0
LINE
8
DEFAULT_255_2_778
10
19.7836628
20
73.1679642
11
19.7836628
21
73.4179642
0
LINE
8
DEFAULT_255_2_778
10
23.5936628
20
73.4179642
11
23.5936628
21
73.1679642
0
LINE
8
DEFAULT_255_2_778
10
22.2437628
20
73.1679642
11
22.2437628
21
73.4179642
0
LINE
8
DEFAULT_255_2_778
10
22.2556628
20
72.9179642
11
22.2556628
21
73.1679642
0
LINE
8
DEFAULT_255_2_778
10
22.2556628
20
73.1679642
11
19.0938628
21
73.1679642
0
LINE
8
DEFAULT_255_2_778
10
23.5938628
20
72.9179642
11
23.5938628
21
73.1679642
0
LINE
8
DEFAULT_255_2_778
10
23.5938628
20
73.1679642
11
22.2556628
21
73.1679642
0
LINE
8
DEFAULT_255_2_778
10
0.4836628
20
66.5570642
11
0.4836628
21
66.0570642
0
LINE
8
DEFAULT_255_2_778
10
1.7334628
20
66.3070642
11
0.4836628
21
66.3070642
0
LINE
8
DEFAULT_255_2_778
10
9.0336628
20
40.3553642
11
10.2237628
21
40.3450642
0
LINE
8
DEFAULT_255_2_778
10
10.2237628
20
38.9914642
11
9.0336628
21
38.9811642
0
LINE
8
DEFAULT_255_2_778
10
13.7648628
20
0.6483642
11
13.7648628
21
0.7287642
0
LINE
8
DEFAULT_255_2_778
10
18.7750628
20
1.5984642
11
18.7750628
21
1.5211642
0
LINE
8
DEFAULT_255_2_778
10
0.3253628
20
66.5570642
11
0.2335628
21
66.5570642
0
LINE
8
DEFAULT_255_2_778
10
0.3036628
20
98.3480642
11
0.2335628
21
98.4181642
0
LINE
8
DEFAULT_255_2_778
10
0.2335628
20
98.4181642
11
0.2335628
21
1.4481642
0
LINE
8
DEFAULT_255_2_778
10
0.2335628
20
1.4481642
11
1.7334628
21
1.4481642
0
LINE
8
DEFAULT_255_2_778
10
23.8436628
20
73.4182642
11
23.7518628
21
73.4182642
0
LINE
8
DEFAULT_255_2_778
10
23.7865628
20
86.6683642
11
23.7931628
21
87.4184642
0
LINE
8
DEFAULT_255_2_778
10
23.7997628
20
86.6683642
11
23.7931628
21
85.9182642
0
LINE
8
DEFAULT_255_2_778
10
23.7865628
20
86.6683642
11
23.7865628
21
86.6683642
0
LINE
8
DEFAULT_255_2_778
10
23.7518628
20
95.8483642
11
23.7735628
21
98.3480642
0
LINE
8
DEFAULT_255_2_778
10
22.2736628
20
99.8480642
11
22.2778628
21
99.8522642
0
LINE
8
DEFAULT_255_2_778
10
22.2778628
20
99.8522642
11
22.3141628
21
99.8517642
0
LINE
8
DEFAULT_255_2_778
10
22.6361628
20
99.8080642
11
22.7218628
21
99.7839642
0
LINE
8
DEFAULT_255_2_778
10
23.1068628
20
99.6022642
11
23.2102628
21
99.5286642
0
LINE
8
DEFAULT_255_2_778
10
23.2102628
20
99.5286642
11
23.2592628
21
99.4897642
0
LINE
8
DEFAULT_255_2_778
10
23.2592628
20
99.4897642
11
23.2790628
21
99.4741642
0
LINE
8
DEFAULT_255_2_778
10
23.2790628
20
99.4741642
11
22.9411628
21
101.1256642
0
LINE
8
DEFAULT_255_2_778
10
22.3688628
20
101.1259642
11
22.4432628
21
100.7597642
0
LINE
8
DEFAULT_255_2_778
10
22.4432628
20
100.7597642
11
22.6361628
21
99.8083642
0
LINE
8
DEFAULT_255_2_778
10
1.8253628
20
66.5570642
11
0.3253628
21
66.5570642
0
LINE
8
DEFAULT_255_2_778
10
0.3253628
20
66.5570642
11
0.3253628
21
95.8480642
0
LINE
8
DEFAULT_255_2_778
10
7.0336628
20
66.5568642
11
6.9883628
21
66.5568642
0
LINE
8
DEFAULT_255_2_778
10
7.0931628
20
73.4179642
11
7.0931628
21
73.1679642
0
LINE
8
DEFAULT_255_2_778
10
22.2521628
20
73.4179642
11
23.7521628
21
73.4179642
0
LINE
8
DEFAULT_255_2_778
10
23.7521628
20
73.4179642
11
23.7521628
21
95.8483642
0
LINE
8
DEFAULT_255_2_778
10
23.7521628
20
95.8483642
11
22.2521628
21
95.8483642
0
LINE
8
DEFAULT_255_2_778
10
22.2521628
20
95.8483642
11
22.2738628
21
99.8482642
0
LINE
8
DEFAULT_255_2_778
10
22.2738628
20
99.8482642
11
1.8036628
21
99.8482642
0
LINE
8
DEFAULT_255_2_778
10
1.8253628
20
95.8483642
11
0.3253628
21
95.8483642
0
LINE
8
DEFAULT_255_2_778
10
0.3253628
20
95.8483642
11
0.3036628
21
98.3480642
0
LINE
8
DEFAULT_255_2_778
10
1.8036628
20
99.8480642
11
1.7993628
21
99.8522642
0
LINE
8
DEFAULT_255_2_778
10
1.7993628
20
99.8522642
11
1.4411628
21
99.8080642
0
LINE
8
DEFAULT_255_2_778
10
0.8907628
20
99.5466642
11
0.8296628
21
99.4992642
0
LINE
8
DEFAULT_255_2_778
10
0.8296628
20
99.4992642
11
0.8018628
21
99.4767642
0
LINE
8
DEFAULT_255_2_778
10
0.8018628
20
99.4767642
11
0.7979628
21
99.4738642
0
LINE
8
DEFAULT_255_2_778
10
0.7979628
20
99.4738642
11
1.1358628
21
101.1254642
0
LINE
8
DEFAULT_255_2_778
10
1.7080628
20
101.1256642
11
1.5152628
21
100.1739642
0
LINE
8
DEFAULT_255_2_778
10
1.5152628
20
100.1739642
11
1.4411628
21
99.8077642
0
LINE
8
DEFAULT_255_2_778
10
3.5321628
20
97.0651642
11
3.5387628
21
95.8477642
0
LINE
8
DEFAULT_255_2_778
10
3.5387628
20
95.8477642
11
3.5387628
21
93.3577642
0
LINE
8
DEFAULT_255_2_778
10
3.5387628
20
93.3577642
11
20.5387628
21
93.3577642
0
LINE
8
DEFAULT_255_2_778
10
20.5387628
20
93.3577642
11
20.5247628
21
93.3718642
0
LINE
8
DEFAULT_255_2_778
10
20.5247628
20
93.3718642
11
3.5525628
21
93.3718642
0
LINE
8
DEFAULT_255_2_778
10
3.5525628
20
93.3718642
11
3.5384628
21
93.3577642
0
LINE
8
DEFAULT_255_2_778
10
12.0384628
20
0.6477642
11
12.5385628
21
0.6477642
0
LINE
8
DEFAULT_255_2_778
10
23.8436628
20
72.9181642
11
23.8436628
21
98.4181642
0
LINE
8
DEFAULT_255_2_778
10
23.8436628
20
98.4181642
11
23.7735628
21
98.3480642
0
LINE
8
DEFAULT_255_2_778
10
18.2837628
20
1.4481642
11
18.2837628
21
1.5981642
0
LINE
8
DEFAULT_255_2_778
10
18.3480628
20
-0.1996358
11
12.0387628
21
-0.2547358
0
LINE
8
DEFAULT_255_2_778
10
18.3437628
20
1.4484642
11
14.2384628
21
1.4484642
0
LINE
8
DEFAULT_255_2_778
10
14.2384628
20
1.4484642
11
14.2384628
21
0.6483642
0
LINE
8
DEFAULT_255_2_778
10
14.2384628
20
0.6483642
11
12.5385628
21
0.6483642
0
LINE
8
DEFAULT_255_2_778
10
12.0472628
20
0.2411642
11
18.3435628
21
0.2961642
0
LINE
8
DEFAULT_255_2_778
10
18.3435628
20
0.2961642
11
18.3435628
21
1.4484642
0
LINE
8
DEFAULT_255_2_778
10
18.3435628
20
1.4484642
11
18.5075628
21
1.4492642
0
LINE
8
DEFAULT_255_2_778
10
18.8430628
20
1.7936642
11
18.8435628
21
1.9484642
0
LINE
8
DEFAULT_255_2_778
10
18.8435628
20
1.4092642
11
18.8435628
21
73.1682642
0
LINE
8
DEFAULT_255_2_778
10
18.8435628
20
73.1682642
11
19.0936628
21
73.1682642
0
LINE
8
DEFAULT_255_2_778
10
19.0936628
20
73.1682642
11
19.0936628
21
72.9181642
0
LINE
8
DEFAULT_255_2_778
10
19.0936628
20
72.9181642
11
19.3436628
21
72.9181642
0
LINE
8
DEFAULT_255_2_778
10
19.3436628
20
72.9181642
11
19.3436628
21
1.4087642
0
LINE
8
DEFAULT_255_2_778
10
19.3436628
20
1.4087642
11
18.8435628
21
1.4087642
0
LINE
8
DEFAULT_255_2_778
10
18.8435628
20
1.4087642
11
18.8435628
21
0.9861642
0
LINE
8
DEFAULT_255_2_778
10
18.8435628
20
0.9861642
11
18.8435628
21
0.6279642
0
LINE
8
DEFAULT_255_2_778
10
18.8435628
20
0.6279642
11
18.8435628
21
0.3884642
0
LINE
8
DEFAULT_255_2_778
10
18.8435628
20
0.3884642
11
18.8435628
21
0.3043642
0
LINE
8
DEFAULT_255_2_778
10
18.8435628
20
0.3043642
11
19.3436628
21
-0.1912358
0
LINE
8
DEFAULT_255_2_778
10
19.3436628
20
-0.1912358
11
19.2679628
21
-0.1920358
0
LINE
8
DEFAULT_255_2_778
10
19.2679628
20
-0.1920358
11
19.0520628
21
-0.1938358
0
LINE
8
DEFAULT_255_2_778
10
19.0520628
20
-0.1938358
11
18.7290628
21
-0.1967358
0
LINE
8
DEFAULT_255_2_778
10
18.7290628
20
-0.1967358
11
18.3480628
21
-0.2002358
0
LINE
8
DEFAULT_255_2_778
10
18.3480628
20
-0.2002358
11
18.3437628
21
0.2953642
0
LINE
8
DEFAULT_255_2_778
10
18.3437628
20
0.2953642
11
18.5350628
21
0.2987642
0
LINE
8
DEFAULT_255_2_778
10
18.5350628
20
0.2987642
11
18.6972628
21
0.3017642
0
LINE
8
DEFAULT_255_2_778
10
18.6972628
20
0.3017642
11
18.7615628
21
0.3027642
0
LINE
8
DEFAULT_255_2_778
10
18.7615628
20
0.3027642
11
18.8075628
21
0.3035642
0
LINE
8
DEFAULT_255_2_778
10
18.8075628
20
0.3035642
11
18.8435628
21
0.3040642
0
LINE
8
DEFAULT_255_2_778
10
19.3436628
20
72.9181642
11
22.2574628
21
72.9181642
0
LINE
8
DEFAULT_255_2_778
10
22.2574628
20
72.9181642
11
22.2574628
21
1.4343642
0
LINE
8
DEFAULT_255_2_778
10
22.2574628
20
1.4343642
11
19.3436628
21
1.4089642
0
LINE
8
DEFAULT_255_2_778
10
19.3436628
20
1.4089642
11
19.3444628
21
1.0843642
0
LINE
8
DEFAULT_255_2_778
10
19.3444628
20
1.0843642
11
19.3449628
21
0.7811642
0
LINE
8
DEFAULT_255_2_778
10
19.3449628
20
0.7811642
11
19.3454628
21
0.2778642
0
LINE
8
DEFAULT_255_2_778
10
19.3454628
20
0.2778642
11
19.3449628
21
-0.0623358
0
LINE
8
DEFAULT_255_2_778
10
19.3449628
20
-0.0623358
11
19.3444628
21
-0.1576358
0
LINE
8
DEFAULT_255_2_778
10
19.3444628
20
-0.1576358
11
19.3436628
21
-0.1909358
0
LINE
8
DEFAULT_255_2_778
10
19.3436628
20
-0.1909358
11
22.2574628
21
-0.1655358
0
LINE
8
DEFAULT_255_2_778
10
22.2574628
20
1.4343642
11
23.8434628
21
1.4343642
0
LINE
8
DEFAULT_255_2_778
10
23.8434628
20
1.4343642
11
23.8434628
21
72.9181642
0
LINE
8
DEFAULT_255_2_778
10
23.8434628
20
72.9181642
11
22.2574628
21
72.9181642
0
LINE
8
DEFAULT_255_2_778
10
18.2035628
20
6.0516642
11
18.2035628
21
1.5981642
0
LINE
8
DEFAULT_255_2_778
10
18.2035628
20
1.5981642
11
18.8194628
21
1.5981642
0
LINE
8
DEFAULT_255_2_778
10
14.2384628
20
1.4481642
11
9.5336628
21
1.4481642
0
LINE
8
DEFAULT_255_2_778
10
12.0387628
20
-0.1517358
11
9.5336628
21
-0.1517358
0
LINE
8
DEFAULT_255_2_778
10
9.0336628
20
0.3482642
11
9.5336628
21
0.3482642
0
LINE
8
DEFAULT_255_2_778
10
9.5336628
20
0.3482642
11
9.5336628
21
-0.1517358
0
LINE
8
DEFAULT_255_2_778
10
9.5336628
20
-0.1517358
11
1.8335628
21
-0.1517358
0
LINE
8
DEFAULT_255_2_778
10
1.8335628
20
-0.1517358
11
1.8335628
21
1.3481642
0
LINE
8
DEFAULT_255_2_778
10
1.8335628
20
1.3481642
11
8.5335628
21
1.3481642
0
LINE
8
DEFAULT_255_2_778
10
8.5335628
20
1.3481642
11
8.5335628
21
-0.1517358
0
LINE
8
DEFAULT_255_2_778
10
8.5335628
20
-0.1517358
11
9.0336628
21
0.3482642
0
LINE
8
DEFAULT_255_2_778
10
9.0336628
20
0.3482642
11
9.0336628
21
1.3483642
0
LINE
8
DEFAULT_255_2_778
10
9.0336628
20
1.3483642
11
8.5335628
21
1.3483642
0
LINE
8
DEFAULT_255_2_778
10
8.5335628
20
1.3483642
11
8.5335628
21
73.1679642
0
LINE
8
DEFAULT_255_2_778
10
8.5335628
20
73.1679642
11
7.0336628
21
73.1679642
0
LINE
8
DEFAULT_255_2_778
10
7.0336628
20
73.1679642
11
7.0336628
21
66.0570642
0
LINE
8
DEFAULT_255_2_778
10
7.0336628
20
66.0570642
11
1.7334628
21
66.0570642
0
LINE
8
DEFAULT_255_2_778
10
1.7334628
20
66.0570642
11
1.7334628
21
1.4481642
0
LINE
8
DEFAULT_255_2_778
10
9.0336628
20
1.9482642
11
9.0344628
21
1.7841642
0
LINE
8
DEFAULT_255_2_778
10
9.2505628
20
1.4558642
11
9.3788628
21
1.4486642
0
LINE
8
DEFAULT_255_2_778
10
9.3788628
20
1.4486642
11
9.5336628
21
1.4481642
0
LINE
8
DEFAULT_255_2_778
10
9.5336628
20
1.4481642
11
9.5336628
21
0.3482642
0
LINE
8
DEFAULT_255_2_778
10
9.5336628
20
0.3482642
11
12.0387628
21
0.3482642
0
LINE
8
DEFAULT_255_2_778
10
12.0387628
20
0.3482642
11
12.0387628
21
0.1482642
0
LINE
8
DEFAULT_255_2_778
10
0.2335628
20
66.0570642
11
1.7334628
21
66.0570642
0
LINE
8
DEFAULT_255_2_778
10
1.7334628
20
66.0570642
11
1.7334628
21
66.3070642
0
LINE
8
DEFAULT_255_2_778
10
1.7334628
20
66.3070642
11
7.0333628
21
66.3070642
0
LINE
8
DEFAULT_255_2_778
10
8.5332628
20
73.1679642
11
9.0333628
21
73.1679642
0
LINE
8
DEFAULT_255_2_778
10
9.0333628
20
73.1679642
11
9.0333628
21
1.3481642
0
LINE
8
DEFAULT_255_2_778
10
9.7069628
20
40.3493642
11
9.5381628
21
40.5181642
0
LINE
8
DEFAULT_255_2_778
10
9.5381628
20
40.5181642
11
9.5381628
21
73.4182642
0
LINE
8
DEFAULT_255_2_778
10
18.0032628
20
4.2744642
11
18.1831628
21
4.2696642
0
LINE
8
DEFAULT_255_2_778
10
18.1831628
20
4.2696642
11
18.1831628
21
2.6705642
0
LINE
8
DEFAULT_255_2_778
10
17.2528628
20
1.6730642
11
14.0382628
21
1.4481642
0
LINE
8
DEFAULT_255_2_778
10
14.0382628
20
1.4481642
11
14.0382628
21
1.1743642
0
LINE
8
DEFAULT_255_2_778
10
13.5468628
20
0.6745642
11
12.0382628
21
0.6480642
0
LINE
8
DEFAULT_255_2_778
10
12.0382628
20
0.6480642
11
12.0382628
21
0.3480642
0
LINE
8
DEFAULT_255_2_778
10
0.2333628
20
1.4478642
11
0.2333628
21
1.4338642
0
LINE
8
DEFAULT_255_2_778
10
1.8197628
20
-0.1658358
11
12.0387628
21
-0.2549358
0
LINE
8
DEFAULT_255_2_778
10
12.0387628
20
-0.2549358
11
12.0387628
21
0.1479642
0
ARC
8
DEFAULT_255_2_778
10
6.8952559
20
95.3017743
40
0.6882221
50
70.6313466
51
91.0764067
0
ARC
8
DEFAULT_255_2_778
10
6.9691445
20
95.5276942
40
0.4506138
50
48.2112649
51
69.9678105
0
ARC
8
DEFAULT_255_2_778
10
6.9816941
20
95.5468602
40
0.4279741
50
357.7120779
51
47.7540932
0
ARC
8
DEFAULT_255_2_778
10
6.9285754
20
95.516132
40
0.4809452
50
332.6635747
51
1.6255259
0
ARC
8
DEFAULT_255_2_778
10
7.0310469
20
95.4734456
40
0.3704279
50
310.6438742
51
331.2501854
0
ARC
8
DEFAULT_255_2_778
10
6.963448
20
95.5679594
40
0.4862817
50
278.6477666
51
309.433738
0
ARC
8
DEFAULT_255_2_778
10
6.8859749
20
95.9495576
40
0.8754016
50
269.623801
51
279.9055348
0
ARC
8
DEFAULT_255_2_778
10
6.8950662
20
95.6668501
40
0.4304636
50
268.3041425
51
292.79055
0
ARC
8
DEFAULT_255_2_778
10
6.9554511
20
95.5059146
40
0.2587879
50
294.2674687
51
311.2927777
0
ARC
8
DEFAULT_255_2_778
10
6.9428689
20
95.5069148
40
0.2679869
50
313.1731939
51
1.6766211
0
ARC
8
DEFAULT_255_2_778
10
6.7532172
20
95.5278103
40
0.45771
50
358.3656163
51
0.0081
0
ARC
8
DEFAULT_255_2_778
10
6.9286565
20
95.5407635
40
0.2825647
50
357.3856899
51
45.6367603
0
ARC
8
DEFAULT_255_2_778
10
6.910186
20
95.5024563
40
0.3231514
50
48.0451703
51
89.2860571
0
ARC
8
DEFAULT_255_2_778
10
6.8834929
20
95.2965951
40
0.5298787
50
86.6764125
51
88.8933037
0
LINE
8
DEFAULT_255_2_778
10
6.8802271
20
95.074175
11
6.5256271
21
95.074175
0
LINE
8
DEFAULT_255_2_778
10
6.5256271
20
95.074175
11
6.5256271
21
94.484975
0
LINE
8
DEFAULT_255_2_778
10
6.5256271
20
94.484975
11
6.3272271
21
94.484975
0
LINE
8
DEFAULT_255_2_778
10
6.3272271
20
94.484975
11
6.3272271
21
95.989875
0
LINE
8
DEFAULT_255_2_778
10
6.3272271
20
95.989875
11
6.8823271
21
95.989875
0
LINE
8
DEFAULT_255_2_778
10
6.8802271
20
95.074175
11
6.8802271
21
95.074175
0
LINE
8
DEFAULT_255_2_778
10
6.5256271
20
95.826675
11
6.5256271
21
95.236575
0
LINE
8
DEFAULT_255_2_778
10
6.5256271
20
95.236575
11
6.8823271
21
95.236575
0
LINE
8
DEFAULT_255_2_778
10
6.8937271
20
95.826375
11
6.5256271
21
95.826375
0
LINE
8
DEFAULT_255_2_778
10
6.5256271
20
95.826375
11
6.5256271
21
95.826675
0
ARC
8
DEFAULT_255_2_778
10
6.7708858
20
96.4210929
40
1.8292162
50
318.1706035
51
323.5099663
0
ARC
8
DEFAULT_255_2_778
10
7.6712684
20
95.7564747
40
0.7101082
50
323.4199637
51
331.2261412
0
ARC
8
DEFAULT_255_2_778
10
7.9803729
20
95.5862393
40
0.3572266
50
331.2946586
51
359.7790074
0
ARC
8
DEFAULT_255_2_778
10
8.0683064
20
95.5950398
40
0.2694828
50
357.8354195
51
42.7489932
0
ARC
8
DEFAULT_255_2_778
10
8.087043
20
95.6036464
40
0.2499637
50
44.2157001
51
92.555724
0
ARC
8
DEFAULT_255_2_778
10
8.0618713
20
95.5411864
40
0.3124899
50
87.4275177
51
125.1733766
0
ARC
8
DEFAULT_255_2_778
10
8.0308453
20
95.6002331
40
0.2465036
50
127.1850162
51
135.7757917
0
ARC
8
DEFAULT_255_2_778
10
8.0753715
20
95.5697785
40
0.2997951
50
137.5403279
51
180.2665324
0
ARC
8
DEFAULT_255_2_778
10
8.2781516
20
95.5463531
40
0.5030545
50
177.4899888
51
180.0218302
0
ARC
8
DEFAULT_255_2_778
10
8.0275906
20
95.5639847
40
0.4441515
50
134.2444288
51
182.2998303
0
ARC
8
DEFAULT_255_2_778
10
8.0405011
20
95.5335032
40
0.4751475
50
92.3239131
51
132.7949647
0
ARC
8
DEFAULT_255_2_778
10
8.0752308
20
95.2810491
40
0.7292127
50
89.9476648
51
94.2464994
0
ARC
8
DEFAULT_255_2_778
10
8.0891871
20
95.4563745
40
0.5540463
50
66.7301469
51
91.3745215
0
ARC
8
DEFAULT_255_2_778
10
8.1471364
20
95.6106812
40
0.3894747
50
48.0097004
51
65.5935925
0
ARC
8
DEFAULT_255_2_778
10
8.1548944
20
95.623005
40
0.375133
50
357.5947027
51
47.6311366
0
ARC
8
DEFAULT_255_2_778
10
8.0452531
20
95.620258
40
0.4846181
50
333.65666
51
358.4632472
0
ARC
8
DEFAULT_255_2_778
10
7.5407509
20
95.8543614
40
1.0407068
50
322.2954777
51
334.4318791
0
ARC
8
DEFAULT_255_2_778
10
6.8867401
20
96.3414399
40
1.8560935
50
317.1085583
51
322.7468394
0
LINE
8
DEFAULT_255_2_778
10
8.5989969
20
94.6410614
11
8.5989969
21
94.4849614
0
LINE
8
DEFAULT_255_2_778
10
8.5989969
20
94.4849614
11
7.6128969
21
94.4849614
0
LINE
8
DEFAULT_255_2_778
10
7.6128969
20
94.4849614
11
7.6128969
21
94.6225614
0
LINE
8
DEFAULT_255_2_778
10
7.6128969
20
94.6225614
11
8.1338969
21
95.2011614
0
LINE
8
DEFAULT_255_2_778
10
7.7750969
20
95.5461614
11
7.5837969
21
95.5461614
0
LINE
8
DEFAULT_255_2_778
10
8.2465969
20
95.0781614
11
7.8435969
21
94.6410614
0
LINE
8
DEFAULT_255_2_778
10
7.8435969
20
94.6410614
11
8.5989969
21
94.6410614
0
LINE
8
DEFAULT_255_2_778
10
8.5989969
20
94.6410614
11
8.5989969
21
94.6410614
0
LINE
8
DEFAULT_255_2_778
10
9.2188521
20
95.2022521
11
9.2188521
21
95.0461521
0
LINE
8
DEFAULT_255_2_778
10
9.2188521
20
95.0461521
11
8.7145521
21
95.0461521
0
LINE
8
DEFAULT_255_2_778
10
8.7145521
20
95.0461521
11
8.7145521
21
95.2022521
0
LINE
8
DEFAULT_255_2_778
10
8.7145521
20
95.2022521
11
9.2188521
21
95.2022521
0
LINE
8
DEFAULT_255_2_778
10
9.2188521
20
95.2022521
11
9.2188521
21
95.2022521
0
ARC
8
DEFAULT_255_2_778
10
9.8152912
20
95.6677098
40
0.3372656
50
268.6008808
51
301.8045423
0
ARC
8
DEFAULT_255_2_778
10
9.8564416
20
95.5850523
40
0.2454821
50
303.810034
51
311.7977412
0
ARC
8
DEFAULT_255_2_778
10
9.8595006
20
95.5781447
40
0.2383051
50
312.3563777
51
2.6216226
0
ARC
8
DEFAULT_255_2_778
10
9.781937
20
95.6017659
40
0.3158756
50
357.691931
51
27.2451078
0
ARC
8
DEFAULT_255_2_778
10
9.8766491
20
95.6332539
40
0.2177986
50
31.2903456
51
87.8088988
0
ARC
8
DEFAULT_255_2_778
10
9.8352233
20
95.4027285
40
0.450918
50
83.6652772
51
90.1609969
0
ARC
8
DEFAULT_255_2_778
10
9.8203027
20
95.5801107
40
0.2738746
50
87.1424219
51
132.2788973
0
ARC
8
DEFAULT_255_2_778
10
9.810196
20
95.6059238
40
0.2481739
50
134.5622844
51
182.4893365
0
ARC
8
DEFAULT_255_2_778
10
9.7544676
20
95.6037295
40
0.3836074
50
131.2264419
51
181.2823247
0
ARC
8
DEFAULT_255_2_778
10
9.815691
20
95.535519
40
0.475259
50
88.1769214
51
131.3582836
0
ARC
8
DEFAULT_255_2_778
10
9.8339541
20
95.3243002
40
0.6862445
50
89.9998178
51
90.2624565
0
ARC
8
DEFAULT_255_2_778
10
9.8470984
20
95.4540363
40
0.5566637
50
67.3094579
51
91.3528091
0
ARC
8
DEFAULT_255_2_778
10
9.9074469
20
95.6171947
40
0.3829225
50
47.1314345
51
66.222894
0
ARC
8
DEFAULT_255_2_778
10
9.8947915
20
95.6152557
40
0.3930339
50
0.9482819
51
45.9715116
0
ARC
8
DEFAULT_255_2_778
10
9.662869
20
95.5849214
40
0.6259873
50
359.9655266
51
3.3737663
0
ARC
8
DEFAULT_255_2_778
10
9.957951
20
95.5893205
40
0.3309397
50
323.9027373
51
359.1731505
0
ARC
8
DEFAULT_255_2_778
10
9.9104735
20
95.6127861
40
0.3832333
50
291.7134392
51
325.2500778
0
ARC
8
DEFAULT_255_2_778
10
9.9510126
20
94.9010037
40
0.3698675
50
37.5742298
51
74.1136828
0
ARC
8
DEFAULT_255_2_778
10
9.9502545
20
94.9155852
40
0.3617764
50
358.2195264
51
35.670383
0
ARC
8
DEFAULT_255_2_778
10
9.8887026
20
94.8884692
40
0.4234514
50
321.7237735
51
2.1485793
0
ARC
8
DEFAULT_255_2_778
10
9.9141128
20
94.8791924
40
0.3978469
50
311.8513296
51
320.5056252
0
ARC
8
DEFAULT_255_2_778
10
9.8637078
20
94.9466368
40
0.4817727
50
270.8897214
51
310.9648981
0
ARC
8
DEFAULT_255_2_778
10
9.8356348
20
95.1847933
40
0.7207486
50
269.9778575
51
272.8274987
0
ARC
8
DEFAULT_255_2_778
10
9.8215233
20
95.0195789
40
0.5557063
50
243.5438564
51
271.4263874
0
ARC
8
DEFAULT_255_2_778
10
9.7772017
20
94.9102361
40
0.4381619
50
229.1409947
51
242.3625098
0
ARC
8
DEFAULT_255_2_778
10
9.7386117
20
94.8681655
40
0.381101
50
177.9429795
51
229.3911443
0
ARC
8
DEFAULT_255_2_778
10
9.796103
20
94.8711704
40
0.2461783
50
177.5148463
51
226.8235865
0
ARC
8
DEFAULT_255_2_778
10
9.8203679
20
94.9140286
40
0.2942658
50
229.088703
51
272.9196059
0
ARC
8
DEFAULT_255_2_778
10
9.8484948
20
94.9446317
40
0.3247528
50
267.6813446
51
299.519676
0
ARC
8
DEFAULT_255_2_778
10
9.8925675
20
94.8501861
40
0.2210033
50
301.6418872
51
314.4220589
0
ARC
8
DEFAULT_255_2_778
10
9.8528304
20
94.8756172
40
0.2671895
50
316.6914559
51
0.3477521
0
ARC
8
DEFAULT_255_2_778
10
9.6492492
20
94.899824
40
0.4713071
50
357.2533225
51
0.0268337
0
ARC
8
DEFAULT_255_2_778
10
9.8677682
20
94.9158985
40
0.2532847
50
356.4113728
51
47.2012412
0
ARC
8
DEFAULT_255_2_778
10
9.8436427
20
94.8591137
40
0.312041
50
51.0378415
51
85.8861729
0
ARC
8
DEFAULT_255_2_778
10
9.8013725
20
94.5953943
40
0.5785804
50
83.5838854
51
89.4173312
0
LINE
8
DEFAULT_255_2_778
10
9.6633563
20
95.1744448
11
9.6633563
21
95.3305448
0
LINE
8
DEFAULT_255_2_778
10
9.6633563
20
95.3305448
11
9.8070563
21
95.3305448
0
LINE
8
DEFAULT_255_2_778
10
9.5622563
20
95.5951448
11
9.3709563
21
95.5951448
0
LINE
8
DEFAULT_255_2_778
10
9.3577563
20
94.8818448
11
9.5501563
21
94.8818448
0
LINE
8
DEFAULT_255_2_778
10
9.8072563
20
95.1739448
11
9.6636563
21
95.1739448
0
LINE
8
DEFAULT_255_2_778
10
9.6636563
20
95.1739448
11
9.6633563
21
95.1744448
0
ARC
8
DEFAULT_255_2_778
10
9.7317858
20
96.4210929
40
1.8292162
50
318.1706035
51
323.5099663
0
ARC
8
DEFAULT_255_2_778
10
10.6321684
20
95.7564747
40
0.7101082
50
323.4199637
51
331.2261412
0
ARC
8
DEFAULT_255_2_778
10
10.9412729
20
95.5862393
40
0.3572266
50
331.2946586
51
359.7790074
0
ARC
8
DEFAULT_255_2_778
10
11.0292064
20
95.5950398
40
0.2694828
50
357.8354195
51
42.7489932
0
ARC
8
DEFAULT_255_2_778
10
11.047943
20
95.6036464
40
0.2499637
50
44.2157001
51
92.555724
0
ARC
8
DEFAULT_255_2_778
10
11.0227713
20
95.5411864
40
0.3124899
50
87.4275177
51
125.1733766
0
ARC
8
DEFAULT_255_2_778
10
10.9917453
20
95.6002331
40
0.2465036
50
127.1850162
51
135.7757917
0
ARC
8
DEFAULT_255_2_778
10
11.0362715
20
95.5697785
40
0.2997951
50
137.5403279
51
180.2665324
0
ARC
8
DEFAULT_255_2_778
10
11.2390516
20
95.5463531
40
0.5030545
50
177.4899888
51
180.0218302
0
ARC
8
DEFAULT_255_2_778
10
10.9884906
20
95.5639847
40
0.4441515
50
134.2444288
51
182.2998303
0
ARC
8
DEFAULT_255_2_778
10
11.0014011
20
95.5335032
40
0.4751475
50
92.3239131
51
132.7949647
0
ARC
8
DEFAULT_255_2_778
10
11.0361308
20
95.2810491
40
0.7292127
50
89.9476648
51
94.2464994
0
ARC
8
DEFAULT_255_2_778
10
11.0500871
20
95.4563745
40
0.5540463
50
66.7301469
51
91.3745215
0
ARC
8
DEFAULT_255_2_778
10
11.1080364
20
95.6106812
40
0.3894747
50
48.0097004
51
65.5935925
0
ARC
8
DEFAULT_255_2_778
10
11.1157944
20
95.623005
40
0.375133
50
357.5947027
51
47.6311366
0
ARC
8
DEFAULT_255_2_778
10
11.0061531
20
95.620258
40
0.4846181
50
333.65666
51
358.4632472
0
ARC
8
DEFAULT_255_2_778
10
10.5016509
20
95.8543614
40
1.0407068
50
322.2954777
51
334.4318791
0
ARC
8
DEFAULT_255_2_778
10
9.8476401
20
96.3414399
40
1.8560935
50
317.1085583
51
322.7468394
0
LINE
8
DEFAULT_255_2_778
10
11.5598969
20
94.6410614
11
11.5598969
21
94.4849614
0
LINE
8
DEFAULT_255_2_778
10
11.5598969
20
94.4849614
11
10.5737969
21
94.4849614
0
LINE
8
DEFAULT_255_2_778
10
10.5737969
20
94.4849614
11
10.5737969
21
94.6225614
0
LINE
8
DEFAULT_255_2_778
10
10.5737969
20
94.6225614
11
11.0947969
21
95.2011614
0
LINE
8
DEFAULT_255_2_778
10
10.7359969
20
95.5461614
11
10.5446969
21
95.5461614
0
LINE
8
DEFAULT_255_2_778
10
11.2074969
20
95.0781614
11
10.8044969
21
94.6410614
0
LINE
8
DEFAULT_255_2_778
10
10.8044969
20
94.6410614
11
11.5598969
21
94.6410614
0
LINE
8
DEFAULT_255_2_778
10
11.5598969
20
94.6410614
11
11.5598969
21
94.6410614
0
ARC
8
DEFAULT_255_2_778
10
13.7594322
20
95.3054636
40
0.6845453
50
60.8097257
51
91.1333105
0
ARC
8
DEFAULT_255_2_778
10
13.8004046
20
95.3932844
40
0.587937
50
26.5385939
51
60.1214904
0
ARC
8
DEFAULT_255_2_778
10
13.6148409
20
95.3024753
40
0.7945238
50
359.8879916
51
26.4182339
0
ARC
8
DEFAULT_255_2_778
10
13.3625622
20
95.2839855
40
1.0469379
50
0.2183326
51
0.926927
0
ARC
8
DEFAULT_255_2_778
10
13.5727578
20
95.1780761
40
0.8368487
50
338.4115849
51
0.944798
0
ARC
8
DEFAULT_255_2_778
10
13.7269692
20
95.1274413
40
0.6748937
50
332.7929524
51
337.5916986
0
ARC
8
DEFAULT_255_2_778
10
13.8083008
20
95.0787664
40
0.5803381
50
299.3209011
51
333.395611
0
ARC
8
DEFAULT_255_2_778
10
13.7477494
20
95.207405
40
0.722221
50
270.1869734
51
298.5116683
0
ARC
8
DEFAULT_255_2_778
10
13.7275137
20
95.450396
40
0.9654725
50
270.5922156
51
271.3408718
0
ARC
8
DEFAULT_255_2_778
10
13.7422129
20
95.1616549
40
0.5147628
50
268.4726984
51
296.9556584
0
ARC
8
DEFAULT_255_2_778
10
13.7845495
20
95.0579639
40
0.4032523
50
298.2723515
51
318.3127299
0
ARC
8
DEFAULT_255_2_778
10
13.7054413
20
95.1151816
40
0.5004804
50
319.4441823
51
351.5030831
0
ARC
8
DEFAULT_255_2_778
10
13.3349393
20
95.190518
40
0.8782696
50
350.2135292
51
0.349476
0
ARC
8
DEFAULT_255_2_778
10
13.4363803
20
95.2964429
40
0.7769173
50
359.0583544
51
16.7830781
0
ARC
8
DEFAULT_255_2_778
10
13.7339356
20
95.3834504
40
0.4669205
50
17.1042586
51
39.7751168
0
ARC
8
DEFAULT_255_2_778
10
13.7789862
20
95.4091059
40
0.4159823
50
41.0292327
51
88.6940272
0
ARC
8
DEFAULT_255_2_778
10
13.7453185
20
95.1707366
40
0.6556648
50
86.2267036
51
89.4866688
0
LINE
8
DEFAULT_255_2_778
10
12.9685927
20
95.989875
11
12.9685927
21
94.484975
0
LINE
8
DEFAULT_255_2_778
10
12.9685927
20
94.484975
11
12.7690927
21
94.484975
0
LINE
8
DEFAULT_255_2_778
10
12.7690927
20
94.484975
11
12.0115927
21
95.644575
0
LINE
8
DEFAULT_255_2_778
10
12.0115927
20
95.644575
11
12.0115927
21
94.484975
0
LINE
8
DEFAULT_255_2_778
10
12.0115927
20
94.484975
11
11.8120927
21
94.484975
0
LINE
8
DEFAULT_255_2_778
10
11.8120927
20
94.484975
11
11.8120927
21
95.989875
0
LINE
8
DEFAULT_255_2_778
10
11.8120927
20
95.989875
11
12.0115927
21
95.989875
0
LINE
8
DEFAULT_255_2_778
10
12.0115927
20
95.989875
11
12.7711927
21
94.825175
0
LINE
8
DEFAULT_255_2_778
10
12.7711927
20
94.825175
11
12.7711927
21
95.989875
0
LINE
8
DEFAULT_255_2_778
10
12.7711927
20
95.989875
11
12.9685927
21
95.989875
0
LINE
8
DEFAULT_255_2_778
10
12.9685927
20
95.989875
11
12.9685927
21
95.989875
0
LINE
8
DEFAULT_255_2_778
10
13.7376927
20
94.484975
11
13.3212927
21
94.484975
0
LINE
8
DEFAULT_255_2_778
10
13.3212927
20
94.484975
11
13.3212927
21
95.989875
0
LINE
8
DEFAULT_255_2_778
10
13.3212927
20
95.989875
11
13.7458927
21
95.989875
0
LINE
8
DEFAULT_255_2_778
10
14.4094927
20
95.287975
11
14.4094927
21
95.191875
0
LINE
8
DEFAULT_255_2_778
10
13.7374927
20
94.484975
11
13.7376927
21
94.484975
0
LINE
8
DEFAULT_255_2_778
10
13.7511927
20
95.826375
11
13.5196927
21
95.826375
0
LINE
8
DEFAULT_255_2_778
10
13.5196927
20
95.826375
11
13.5196927
21
94.647075
0
LINE
8
DEFAULT_255_2_778
10
13.5196927
20
94.647075
11
13.7284927
21
94.647075
0
LINE
8
DEFAULT_255_2_778
10
14.2131927
20
95.195875
11
14.2131927
21
95.283675
0
LINE
8
DEFAULT_255_2_778
10
13.7511927
20
95.826375
11
13.7511927
21
95.826375
0
ARC
8
DEFAULT_255_2_778
10
15.0894912
20
95.6677098
40
0.3372656
50
268.6008808
51
301.8045423
0
ARC
8
DEFAULT_255_2_778
10
15.1306416
20
95.5850523
40
0.2454821
50
303.810034
51
311.7977412
0
ARC
8
DEFAULT_255_2_778
10
15.1337006
20
95.5781447
40
0.2383051
50
312.3563777
51
2.6216226
0
ARC
8
DEFAULT_255_2_778
10
15.056137
20
95.6017659
40
0.3158756
50
357.691931
51
27.2451078
0
ARC
8
DEFAULT_255_2_778
10
15.1508491
20
95.6332539
40
0.2177986
50
31.2903456
51
87.8088988
0
ARC
8
DEFAULT_255_2_778
10
15.1094233
20
95.4027285
40
0.450918
50
83.6652772
51
90.1609969
0
ARC
8
DEFAULT_255_2_778
10
15.0945027
20
95.5801107
40
0.2738746
50
87.1424219
51
132.2788973
0
ARC
8
DEFAULT_255_2_778
10
15.084396
20
95.6059238
40
0.2481739
50
134.5622844
51
182.4893365
0
ARC
8
DEFAULT_255_2_778
10
15.0286676
20
95.6037295
40
0.3836074
50
131.2264419
51
181.2823247
0
ARC
8
DEFAULT_255_2_778
10
15.089891
20
95.535519
40
0.475259
50
88.1769214
51
131.3582836
0
ARC
8
DEFAULT_255_2_778
10
15.1081541
20
95.3243002
40
0.6862445
50
89.9998178
51
90.2624565
0
ARC
8
DEFAULT_255_2_778
10
15.1212984
20
95.4540363
40
0.5566637
50
67.3094579
51
91.3528091
0
ARC
8
DEFAULT_255_2_778
10
15.1816469
20
95.6171947
40
0.3829225
50
47.1314345
51
66.222894
0
ARC
8
DEFAULT_255_2_778
10
15.1689915
20
95.6152557
40
0.3930339
50
0.9482819
51
45.9715116
0
ARC
8
DEFAULT_255_2_778
10
14.937069
20
95.5849214
40
0.6259873
50
359.9655266
51
3.3737663
0
ARC
8
DEFAULT_255_2_778
10
15.232151
20
95.5893205
40
0.3309397
50
323.9027373
51
359.1731505
0
ARC
8
DEFAULT_255_2_778
10
15.1846735
20
95.6127861
40
0.3832333
50
291.7134392
51
325.2500778
0
ARC
8
DEFAULT_255_2_778
10
15.2252126
20
94.9010037
40
0.3698675
50
37.5742298
51
74.1136828
0
ARC
8
DEFAULT_255_2_778
10
15.2244545
20
94.9155852
40
0.3617764
50
358.2195264
51
35.670383
0
ARC
8
DEFAULT_255_2_778
10
15.1629026
20
94.8884692
40
0.4234514
50
321.7237735
51
2.1485793
0
ARC
8
DEFAULT_255_2_778
10
15.1883128
20
94.8791924
40
0.3978469
50
311.8513296
51
320.5056252
0
ARC
8
DEFAULT_255_2_778
10
15.1379078
20
94.9466368
40
0.4817727
50
270.8897214
51
310.9648981
0
ARC
8
DEFAULT_255_2_778
10
15.1098348
20
95.1847933
40
0.7207486
50
269.9778575
51
272.8274987
0
ARC
8
DEFAULT_255_2_778
10
15.0957233
20
95.0195789
40
0.5557063
50
243.5438564
51
271.4263874
0
ARC
8
DEFAULT_255_2_778
10
15.0514017
20
94.9102361
40
0.4381619
50
229.1409947
51
242.3625098
0
ARC
8
DEFAULT_255_2_778
10
15.0128117
20
94.8681655
40
0.381101
50
177.9429795
51
229.3911443
0
ARC
8
DEFAULT_255_2_778
10
15.070303
20
94.8711704
40
0.2461783
50
177.5148463
51
226.8235865
0
ARC
8
DEFAULT_255_2_778
10
15.0945679
20
94.9140286
40
0.2942658
50
229.088703
51
272.9196059
0
ARC
8
DEFAULT_255_2_778
10
15.1226948
20
94.9446317
40
0.3247528
50
267.6813446
51
299.519676
0
ARC
8
DEFAULT_255_2_778
10
15.1667675
20
94.8501861
40
0.2210033
50
301.6418872
51
314.4220589
0
ARC
8
DEFAULT_255_2_778
10
15.1270304
20
94.8756172
40
0.2671895
50
316.6914559
51
0.3477521
0
ARC
8
DEFAULT_255_2_778
10
14.9234492
20
94.899824
40
0.4713071
50
357.2533225
51
0.0268337
0
ARC
8
DEFAULT_255_2_778
10
15.1419682
20
94.9158985
40
0.2532847
50
356.4113728
51
47.2012412
0
ARC
8
DEFAULT_255_2_778
10
15.1178427
20
94.8591137
40
0.312041
50
51.0378415
51
85.8861729
0
ARC
8
DEFAULT_255_2_778
10
15.0755725
20
94.5953943
40
0.5785804
50
83.5838854
51
89.4173312
0
LINE
8
DEFAULT_255_2_778
10
14.9375563
20
95.1744448
11
14.9375563
21
95.3305448
0
LINE
8
DEFAULT_255_2_778
10
14.9375563
20
95.3305448
11
15.0812563
21
95.3305448
0
LINE
8
DEFAULT_255_2_778
10
14.8364563
20
95.5951448
11
14.6451563
21
95.5951448
0
LINE
8
DEFAULT_255_2_778
10
14.6319563
20
94.8818448
11
14.8243563
21
94.8818448
0
LINE
8
DEFAULT_255_2_778
10
15.0814563
20
95.1739448
11
14.9378563
21
95.1739448
0
LINE
8
DEFAULT_255_2_778
10
14.9378563
20
95.1739448
11
14.9375563
21
95.1744448
0
LINE
8
DEFAULT_255_2_778
10
16.2655156
20
95.2022469
11
16.2655156
21
95.0461469
0
LINE
8
DEFAULT_255_2_778
10
16.2655156
20
95.0461469
11
15.7612156
21
95.0461469
0
LINE
8
DEFAULT_255_2_778
10
15.7612156
20
95.0461469
11
15.7612156
21
95.2022469
0
LINE
8
DEFAULT_255_2_778
10
15.7612156
20
95.2022469
11
16.2655156
21
95.2022469
0
LINE
8
DEFAULT_255_2_778
10
16.2655156
20
95.2022469
11
16.2655156
21
95.2022469
0
LINE
8
DEFAULT_255_2_778
10
17.0606156
20
95.9970469
11
17.0606156
21
94.4849469
0
LINE
8
DEFAULT_255_2_778
10
17.0606156
20
94.4849469
11
16.8682156
21
94.4849469
0
LINE
8
DEFAULT_255_2_778
10
16.8682156
20
94.4849469
11
16.8682156
21
95.7591469
0
LINE
8
DEFAULT_255_2_778
10
16.8682156
20
95.7591469
11
16.4827156
21
95.6176469
0
LINE
8
DEFAULT_255_2_778
10
16.4827156
20
95.6176469
11
16.4827156
21
95.7912469
0
LINE
8
DEFAULT_255_2_778
10
16.4827156
20
95.7912469
11
17.0304156
21
95.9967469
0
LINE
8
DEFAULT_255_2_778
10
17.0304156
20
95.9967469
11
17.0603156
21
95.9967469
0
LINE
8
DEFAULT_255_2_778
10
17.0603156
20
95.9967469
11
17.0606156
21
95.9970469
0
ENDSEC
0
EOF