0
SECTION
2
HEADER
9
$MEASUREMENT
70
1
0
ENDSEC
0
SECTION
2
TABLES
0
TABLE
2
LTYPE
0
LTYPE
72
65
70
64
2
CONTINUOUS
3
______
73
0
40
0
0
ENDTAB
0
TABLE
2
LAYER
0
LAYER
2
DEFAULT_255_2_778
70
0
62
255
6
CONTINUOUS
0
ENDTAB
0
ENDSEC
0
SECTION
2
ENTITIES
0
ARC
8
DEFAULT_255_2_778
10
3.4405025
20
70.265742
40
0.1323223
50
180.0096487
51
269.990373
0
ARC
8
DEFAULT_255_2_778
10
3.4404767
20
70.2658161
40
0.3320964
50
180.016616
51
270.0006184
0
ARC
8
DEFAULT_255_2_778
10
3.4403496
20
70.2659943
40
0.5177746
50
225.0082342
51
270.0144591
0
ARC
8
DEFAULT_255_2_778
10
3.4406273
20
70.2659604
40
0.517947
50
179.9934332
51
224.9838563
0
ARC
8
DEFAULT_255_2_778
10
3.4406288
20
71.6659783
40
0.5179485
50
135.0161984
51
180.0064782
0
ARC
8
DEFAULT_255_2_778
10
3.4403496
20
71.6659452
40
0.5177746
50
89.9855409
51
134.9917658
0
ARC
8
DEFAULT_255_2_778
10
3.4404766
20
71.6661234
40
0.3320964
50
89.999373
51
179.9833754
0
ARC
8
DEFAULT_255_2_778
10
3.4405024
20
71.6661976
40
0.1323222
50
90.0095964
51
179.9903947
0
ARC
8
DEFAULT_255_2_778
10
4.840358
20
71.6661976
40
0.1323222
50
0.0096117
51
89.9903883
0
ARC
8
DEFAULT_255_2_778
10
4.8403053
20
71.6661447
40
0.3320749
50
0.0129494
51
89.9870714
0
ARC
8
DEFAULT_255_2_778
10
4.8404389
20
71.6657717
40
0.5179481
50
45.0161715
51
90.0064876
0
ARC
8
DEFAULT_255_2_778
10
4.8402322
20
71.6659784
40
0.5179483
50
359.9935124
51
44.9838285
0
ARC
8
DEFAULT_255_2_778
10
4.8402322
20
70.2659611
40
0.5179481
50
315.0161715
51
0.0064876
0
ARC
8
DEFAULT_255_2_778
10
4.8404394
20
70.2661678
40
0.5179479
50
269.9934567
51
314.9837891
0
ARC
8
DEFAULT_255_2_778
10
4.8403052
20
70.2657948
40
0.3320751
50
270.0129555
51
359.9870445
0
ARC
8
DEFAULT_255_2_778
10
4.8403581
20
70.2657418
40
0.1323221
50
270.00959
51
359.9904406
0
ARC
8
DEFAULT_255_2_778
10
3.2544545
20
71.8517982
40
0.4999216
50
89.9970509
51
135.012375
0
ARC
8
DEFAULT_255_2_778
10
3.2541277
20
71.8517176
40
0.4997474
50
134.9793514
51
180.0112208
0
ARC
8
DEFAULT_255_2_778
10
3.254456
20
70.0797954
40
0.5000757
50
180.0086621
51
270.0027821
0
ARC
8
DEFAULT_255_2_778
10
5.026326
20
70.0797741
40
0.5000543
50
270.0062131
51
359.993773
0
ARC
8
DEFAULT_255_2_778
10
5.0267288
20
71.8518573
40
0.4996515
50
359.9727611
51
45.0090046
0
ARC
8
DEFAULT_255_2_778
10
5.0263339
20
71.8516241
40
0.5000956
50
44.9958871
51
89.9946851
0
LINE
8
DEFAULT_255_2_778
10
3.3081802
20
70.2657198
11
3.1083802
21
70.2657198
0
LINE
8
DEFAULT_255_2_778
10
3.4404802
20
69.9337198
11
3.4404802
21
70.1334198
0
LINE
8
DEFAULT_255_2_778
10
3.4404802
20
70.1334198
11
4.8403802
21
70.1334198
0
LINE
8
DEFAULT_255_2_778
10
4.8403802
20
70.1334198
11
4.8403802
21
69.9337198
0
LINE
8
DEFAULT_255_2_778
10
4.8403802
20
69.9337198
11
3.4404802
21
69.9337198
0
LINE
8
DEFAULT_255_2_778
10
3.4404802
20
69.9337198
11
3.4404802
21
69.7482198
0
LINE
8
DEFAULT_255_2_778
10
2.9226802
20
70.2660198
11
3.1080802
21
70.2660198
0
LINE
8
DEFAULT_255_2_778
10
3.1080802
20
70.2660198
11
3.1080802
21
71.6659198
0
LINE
8
DEFAULT_255_2_778
10
3.1080802
20
71.6659198
11
2.9226802
21
71.6659198
0
LINE
8
DEFAULT_255_2_778
10
3.4404802
20
72.1837198
11
3.4404802
21
71.9982198
0
LINE
8
DEFAULT_255_2_778
10
3.1083802
20
71.6662198
11
3.3081802
21
71.6662198
0
LINE
8
DEFAULT_255_2_778
10
3.4404802
20
71.7985198
11
3.4404802
21
71.9982198
0
LINE
8
DEFAULT_255_2_778
10
3.4404802
20
71.9982198
11
4.8403802
21
71.9982198
0
LINE
8
DEFAULT_255_2_778
10
4.8403802
20
71.9982198
11
4.8403802
21
71.7985198
0
LINE
8
DEFAULT_255_2_778
10
4.8403802
20
71.7985198
11
3.4404802
21
71.7985198
0
LINE
8
DEFAULT_255_2_778
10
4.9726802
20
71.6662198
11
5.1723802
21
71.6662198
0
LINE
8
DEFAULT_255_2_778
10
4.8403802
20
71.9982198
11
4.8403802
21
72.1837198
0
LINE
8
DEFAULT_255_2_778
10
5.3581802
20
71.6659198
11
5.1726802
21
71.6659198
0
LINE
8
DEFAULT_255_2_778
10
5.1726802
20
71.6659198
11
5.1726802
21
70.2660198
0
LINE
8
DEFAULT_255_2_778
10
5.1726802
20
70.2660198
11
5.3581802
21
70.2660198
0
LINE
8
DEFAULT_255_2_778
10
4.8403802
20
69.7482198
11
4.8403802
21
69.9337198
0
LINE
8
DEFAULT_255_2_778
10
5.1723802
20
70.2657198
11
4.9726802
21
70.2657198
0
LINE
8
DEFAULT_255_2_778
10
4.9726802
20
70.2657198
11
4.9726802
21
71.6656198
0
LINE
8
DEFAULT_255_2_778
10
3.3081802
20
71.6656198
11
3.3081802
21
70.2657198
0
LINE
8
DEFAULT_255_2_778
10
2.7543802
20
71.6656198
11
2.9226802
21
71.6656198
0
LINE
8
DEFAULT_255_2_778
10
2.9226802
20
71.6656198
11
2.9226802
21
70.2657198
0
LINE
8
DEFAULT_255_2_778
10
2.9226802
20
70.2657198
11
2.7543802
21
70.2657198
0
LINE
8
DEFAULT_255_2_778
10
5.5263802
20
70.2657198
11
5.3581802
21
70.2657198
0
LINE
8
DEFAULT_255_2_778
10
5.3581802
20
70.2657198
11
5.3581802
21
71.6656198
0
LINE
8
DEFAULT_255_2_778
10
5.3581802
20
71.6656198
11
5.5263802
21
71.6656198
0
LINE
8
DEFAULT_255_2_778
10
3.4404802
20
69.5797198
11
3.4404802
21
69.7479198
0
LINE
8
DEFAULT_255_2_778
10
3.4404802
20
69.7479198
11
4.8403802
21
69.7479198
0
LINE
8
DEFAULT_255_2_778
10
4.8403802
20
69.7479198
11
4.8403802
21
69.5797198
0
LINE
8
DEFAULT_255_2_778
10
4.8403802
20
72.3517198
11
4.8403802
21
72.1834198
0
LINE
8
DEFAULT_255_2_778
10
4.8403802
20
72.1834198
11
3.4404802
21
72.1834198
0
LINE
8
DEFAULT_255_2_778
10
3.4404802
20
72.1834198
11
3.4404802
21
72.3517198
0
LINE
8
DEFAULT_255_2_778
10
2.7543802
20
71.8516198
11
2.7543802
21
70.0797198
0
LINE
8
DEFAULT_255_2_778
10
3.2544802
20
69.5797198
11
5.0263802
21
69.5797198
0
LINE
8
DEFAULT_255_2_778
10
5.5263802
20
70.0797198
11
5.5263802
21
71.8516198
0
LINE
8
DEFAULT_255_2_778
10
5.0263802
20
72.3517198
11
3.2544802
21
72.3517198
0
ARC
8
DEFAULT_255_2_778
10
12.4414649
20
9.2369174
40
0.5514778
50
328.4038498
51
0.0119424
0
ARC
8
DEFAULT_255_2_778
10
12.441466
20
9.2371478
40
0.5514769
50
359.9880101
51
31.5961667
0
ARC
8
DEFAULT_255_2_778
10
12.4414649
20
5.4269174
40
0.5514778
50
328.4038498
51
0.0119424
0
ARC
8
DEFAULT_255_2_778
10
12.441466
20
5.4271478
40
0.5514769
50
359.9880101
51
31.5961667
0
ARC
8
DEFAULT_255_2_778
10
12.9926518
20
16.8573959
40
0.2999591
50
105.7575158
51
180.040785
0
ARC
8
DEFAULT_255_2_778
10
12.9930048
20
16.8572358
40
0.300312
50
180.0101989
51
254.1914872
0
ARC
8
DEFAULT_255_2_778
10
12.9926817
20
24.4776732
40
0.299989
50
105.7618461
51
180.055556
0
ARC
8
DEFAULT_255_2_778
10
12.9930047
20
24.4774357
40
0.3003119
50
180.0101741
51
254.1914968
0
ARC
8
DEFAULT_255_2_778
10
12.992652
20
20.6678958
40
0.2999592
50
105.7575587
51
180.0407684
0
ARC
8
DEFAULT_255_2_778
10
12.9930048
20
20.6677358
40
0.300312
50
180.0101989
51
254.1914872
0
ARC
8
DEFAULT_255_2_778
10
12.4414649
20
32.0977174
40
0.5514778
50
328.4038498
51
0.0119424
0
ARC
8
DEFAULT_255_2_778
10
12.441466
20
32.0979478
40
0.5514769
50
359.9880101
51
31.5961667
0
ARC
8
DEFAULT_255_2_778
10
12.4414649
20
28.2877174
40
0.5514778
50
328.4038498
51
0.0119424
0
ARC
8
DEFAULT_255_2_778
10
12.441466
20
28.2879478
40
0.5514769
50
359.9880101
51
31.5961667
0
ARC
8
DEFAULT_255_2_778
10
12.9926517
20
39.718196
40
0.299959
50
105.7575094
51
180.0408015
0
ARC
8
DEFAULT_255_2_778
10
12.9932132
20
39.7180932
40
0.3005203
50
180.0211371
51
254.1614426
0
ARC
8
DEFAULT_255_2_778
10
12.9928597
20
35.9083387
40
0.3001668
50
105.7875597
51
180.0298424
0
ARC
8
DEFAULT_255_2_778
10
12.9930048
20
35.9082358
40
0.300312
50
180.0101989
51
254.1914872
0
ARC
8
DEFAULT_255_2_778
10
12.9926518
20
47.3386958
40
0.2999591
50
105.757519
51
180.0407768
0
ARC
8
DEFAULT_255_2_778
10
12.993005
20
47.3385359
40
0.3003121
50
180.0102071
51
254.1914659
0
ARC
8
DEFAULT_255_2_778
10
12.9926521
20
66.3889958
40
0.2999593
50
105.7575619
51
180.0407602
0
ARC
8
DEFAULT_255_2_778
10
12.9932132
20
66.3888932
40
0.3005203
50
180.0211371
51
254.1614426
0
ARC
8
DEFAULT_255_2_778
10
12.9932756
20
9.2388243
40
0.3005827
50
105.8475407
51
180.0079943
0
ARC
8
DEFAULT_255_2_778
10
12.9932132
20
9.2388932
40
0.3005203
50
180.0211371
51
254.1614426
0
ARC
8
DEFAULT_255_2_778
10
12.9932756
20
5.4290243
40
0.3005827
50
105.8475407
51
180.0079943
0
ARC
8
DEFAULT_255_2_778
10
12.9930052
20
5.429036
40
0.3003123
50
180.0102237
51
254.191423
0
ARC
8
DEFAULT_255_2_778
10
12.4408883
20
16.8591807
40
0.5520545
50
328.4207711
51
359.934817
0
ARC
8
DEFAULT_255_2_778
10
12.457051
20
16.8590437
40
0.5358917
50
359.9474993
51
0.0175002
0
ARC
8
DEFAULT_255_2_778
10
12.4416598
20
16.8593026
40
0.5512831
50
359.9901045
51
31.6018677
0
ARC
8
DEFAULT_255_2_778
10
12.4404885
20
24.4789939
40
0.5524544
50
328.4324846
51
359.8981204
0
ARC
8
DEFAULT_255_2_778
10
12.3886913
20
24.4789949
40
0.6042515
50
359.9067604
51
360
0
ARC
8
DEFAULT_255_2_778
10
12.4416489
20
24.4790995
40
0.551294
50
359.9891203
51
31.6015451
0
ARC
8
DEFAULT_255_2_778
10
12.4404885
20
20.6689939
40
0.5524544
50
328.4324846
51
359.8981204
0
ARC
8
DEFAULT_255_2_778
10
12.3886913
20
20.6689949
40
0.6042515
50
359.9067604
51
360
0
ARC
8
DEFAULT_255_2_778
10
12.4416489
20
20.6690995
40
0.551294
50
359.9891203
51
31.6015451
0
ARC
8
DEFAULT_255_2_778
10
12.9932756
20
32.0990243
40
0.3005827
50
105.8475407
51
180.0079943
0
ARC
8
DEFAULT_255_2_778
10
12.9930048
20
32.0990358
40
0.300312
50
180.0101989
51
254.1914872
0
ARC
8
DEFAULT_255_2_778
10
12.9932756
20
28.2890243
40
0.3005827
50
105.8475407
51
180.0079943
0
ARC
8
DEFAULT_255_2_778
10
12.9930052
20
28.289036
40
0.3003123
50
180.0102237
51
254.191423
0
ARC
8
DEFAULT_255_2_778
10
12.4402576
20
39.7187724
40
0.5525353
50
328.4645914
51
0.0114062
0
ARC
8
DEFAULT_255_2_778
10
12.4402577
20
39.7189924
40
0.5525352
50
359.9885873
51
31.5354108
0
ARC
8
DEFAULT_255_2_778
10
12.440366
20
35.9085418
40
0.5524269
50
328.461416
51
0.0093954
0
ARC
8
DEFAULT_255_2_778
10
12.440366
20
35.908723
40
0.5524269
50
359.9906046
51
31.538584
0
ARC
8
DEFAULT_255_2_778
10
12.4402693
20
47.3382687
40
0.5525234
50
328.464275
51
359.9766446
0
LINE
8
DEFAULT_255_2_778
10
12.9927928
20
47.3380435
11
12.9927929
21
47.3383699
0
ARC
8
DEFAULT_255_2_778
10
12.4406562
20
47.3385049
40
0.5521367
50
359.9859899
51
31.5470924
0
ARC
8
DEFAULT_255_2_778
10
12.4404885
20
66.3881939
40
0.5524544
50
328.4324846
51
359.8981204
0
ARC
8
DEFAULT_255_2_778
10
12.3886913
20
66.3881949
40
0.6042515
50
359.9067604
51
360
0
ARC
8
DEFAULT_255_2_778
10
12.4416489
20
66.3882995
40
0.551294
50
359.9891203
51
31.6015451
0
ARC
8
DEFAULT_255_2_778
10
12.4413577
20
13.0479478
40
0.5515851
50
328.4070002
51
0.0139796
0
ARC
8
DEFAULT_255_2_778
10
12.4413587
20
13.0482174
40
0.5515842
50
359.9859729
51
31.5930162
0
ARC
8
DEFAULT_255_2_778
10
12.9928597
20
13.0483387
40
0.3001668
50
105.7875597
51
180.0298424
0
ARC
8
DEFAULT_255_2_778
10
12.9930052
20
13.048236
40
0.3003123
50
180.0102237
51
254.191423
0
ARC
8
DEFAULT_255_2_778
10
12.9928597
20
54.9583387
40
0.3001668
50
105.7875597
51
180.0298424
0
ARC
8
DEFAULT_255_2_778
10
12.9930048
20
54.9582358
40
0.300312
50
180.0101989
51
254.1914872
0
ARC
8
DEFAULT_255_2_778
10
12.4413697
20
54.9582446
40
0.5515732
50
328.4066293
51
359.9793245
0
LINE
8
DEFAULT_255_2_778
10
12.9929428
20
54.9580455
11
12.9929429
21
54.9583699
0
ARC
8
DEFAULT_255_2_778
10
12.4417559
20
54.9585298
40
0.551187
50
359.983373
51
31.6046937
0
ARC
8
DEFAULT_255_2_778
10
12.9928597
20
51.1483387
40
0.3001668
50
105.7875597
51
180.0298424
0
ARC
8
DEFAULT_255_2_778
10
12.9930048
20
51.1482358
40
0.300312
50
180.0101989
51
254.1914872
0
ARC
8
DEFAULT_255_2_778
10
12.4413697
20
51.1482446
40
0.5515732
50
328.4066293
51
359.9793245
0
LINE
8
DEFAULT_255_2_778
10
12.9929428
20
51.1480455
11
12.9929429
21
51.1483699
0
ARC
8
DEFAULT_255_2_778
10
12.4417559
20
51.1485298
40
0.551187
50
359.983373
51
31.6046937
0
ARC
8
DEFAULT_255_2_778
10
12.4413577
20
62.5779478
40
0.5515851
50
328.4070002
51
0.0139796
0
ARC
8
DEFAULT_255_2_778
10
12.4413587
20
62.5782174
40
0.5515842
50
359.9859729
51
31.5930162
0
ARC
8
DEFAULT_255_2_778
10
12.9928597
20
62.5783387
40
0.3001668
50
105.7875597
51
180.0298424
0
ARC
8
DEFAULT_255_2_778
10
12.9930048
20
62.5782357
40
0.3003119
50
180.0101824
51
254.1914936
0
ARC
8
DEFAULT_255_2_778
10
12.4413577
20
58.7679478
40
0.5515851
50
328.4070002
51
0.0139796
0
ARC
8
DEFAULT_255_2_778
10
12.4413587
20
58.7682174
40
0.5515842
50
359.9859729
51
31.5930162
0
ARC
8
DEFAULT_255_2_778
10
12.9928597
20
58.7683387
40
0.3001668
50
105.7875597
51
180.0298424
0
ARC
8
DEFAULT_255_2_778
10
12.9930048
20
58.7682358
40
0.300312
50
180.0101989
51
254.1914872
0
ARC
8
DEFAULT_255_2_778
10
12.4413577
20
43.5279478
40
0.5515851
50
328.4070002
51
0.0139796
0
ARC
8
DEFAULT_255_2_778
10
12.4413587
20
43.5282174
40
0.5515842
50
359.9859729
51
31.5930162
0
ARC
8
DEFAULT_255_2_778
10
12.9928597
20
43.5283387
40
0.3001668
50
105.7875597
51
180.0298424
0
ARC
8
DEFAULT_255_2_778
10
12.9930048
20
43.5282358
40
0.300312
50
180.0101989
51
254.1914872
0
ARC
8
DEFAULT_255_2_778
10
12.4414649
20
70.1969174
40
0.5514778
50
328.4038498
51
0.0119424
0
ARC
8
DEFAULT_255_2_778
10
12.441466
20
70.1971478
40
0.5514769
50
359.9880101
51
31.5961667
0
ARC
8
DEFAULT_255_2_778
10
12.9926521
20
70.1973958
40
0.2999593
50
105.7575619
51
180.0407602
0
ARC
8
DEFAULT_255_2_778
10
12.993005
20
70.1972359
40
0.3003121
50
180.0102071
51
254.1914659
0
LINE
8
DEFAULT_255_2_778
10
12.8574929
20
9.5070824
11
12.9111929
21
9.5279824
0
LINE
8
DEFAULT_255_2_778
10
12.9111929
20
8.9497824
11
12.8574929
21
8.9706824
0
LINE
8
DEFAULT_255_2_778
10
12.8574929
20
5.6972824
11
12.9111929
21
5.7181824
0
LINE
8
DEFAULT_255_2_778
10
12.9111929
20
5.1400824
11
12.8574929
21
5.1609824
0
LINE
8
DEFAULT_255_2_778
10
12.8574929
20
16.5909824
11
12.9111929
21
16.5700824
0
LINE
8
DEFAULT_255_2_778
10
12.9111929
20
17.1481824
11
12.8574929
21
17.1272824
0
LINE
8
DEFAULT_255_2_778
10
12.9111929
20
12.7597824
11
12.8574929
21
12.7806824
0
LINE
8
DEFAULT_255_2_778
10
12.8574929
20
13.3172824
11
12.9111929
21
13.3381824
0
LINE
8
DEFAULT_255_2_778
10
12.8574929
20
24.2106824
11
12.9111929
21
24.1897824
0
LINE
8
DEFAULT_255_2_778
10
12.9111929
20
24.7679824
11
12.8574929
21
24.7472824
0
LINE
8
DEFAULT_255_2_778
10
12.8574929
20
20.4006824
11
12.9111929
21
20.3797824
0
LINE
8
DEFAULT_255_2_778
10
12.9111929
20
20.9579824
11
12.8574929
21
20.9372824
0
LINE
8
DEFAULT_255_2_778
10
12.8574929
20
32.3672824
11
12.9111929
21
32.3881824
0
LINE
8
DEFAULT_255_2_778
10
12.9111929
20
31.8100824
11
12.8574929
21
31.8306824
0
LINE
8
DEFAULT_255_2_778
10
12.8574929
20
28.5572824
11
12.9111929
21
28.5781824
0
LINE
8
DEFAULT_255_2_778
10
12.9111929
20
28.0000824
11
12.8574929
21
28.0206824
0
LINE
8
DEFAULT_255_2_778
10
12.8574929
20
39.4506824
11
12.9111929
21
39.4297824
0
LINE
8
DEFAULT_255_2_778
10
12.9111929
20
40.0079824
11
12.8574929
21
39.9870824
0
LINE
8
DEFAULT_255_2_778
10
12.8574929
20
35.6404824
11
12.9111929
21
35.6195824
0
LINE
8
DEFAULT_255_2_778
10
12.9111929
20
36.1976824
11
12.8574929
21
36.1767824
0
LINE
8
DEFAULT_255_2_778
10
12.8574929
20
47.0701824
11
12.9111929
21
47.0492824
0
LINE
8
DEFAULT_255_2_778
10
12.9111929
20
47.6273824
11
12.8574929
21
47.6064824
0
LINE
8
DEFAULT_255_2_778
10
12.9111929
20
43.2389824
11
12.8574929
21
43.2598824
0
LINE
8
DEFAULT_255_2_778
10
12.8574929
20
43.7964824
11
12.9111929
21
43.8173824
0
LINE
8
DEFAULT_255_2_778
10
12.9111929
20
54.6689824
11
12.8574929
21
54.6898824
0
LINE
8
DEFAULT_255_2_778
10
12.8574929
20
55.2264824
11
12.9111929
21
55.2473824
0
LINE
8
DEFAULT_255_2_778
10
12.9111929
20
50.8589824
11
12.8574929
21
50.8798824
0
LINE
8
DEFAULT_255_2_778
10
12.8574929
20
51.4164824
11
12.9111929
21
51.4373824
0
LINE
8
DEFAULT_255_2_778
10
12.9111929
20
62.2889824
11
12.8574929
21
62.3098824
0
LINE
8
DEFAULT_255_2_778
10
12.8574929
20
62.8464824
11
12.9111929
21
62.8673824
0
LINE
8
DEFAULT_255_2_778
10
12.9111929
20
58.4789824
11
12.8574929
21
58.4998824
0
LINE
8
DEFAULT_255_2_778
10
12.8574929
20
59.0364824
11
12.9111929
21
59.0573824
0
LINE
8
DEFAULT_255_2_778
10
12.9111929
20
69.9089824
11
12.8574929
21
69.9298824
0
LINE
8
DEFAULT_255_2_778
10
12.8574929
20
70.4664824
11
12.9111929
21
70.4873824
0
LINE
8
DEFAULT_255_2_778
10
12.8574929
20
66.1198824
11
12.9111929
21
66.0989824
0
LINE
8
DEFAULT_255_2_778
10
12.9111929
20
66.6771824
11
12.8574929
21
66.6562824
0
LINE
8
DEFAULT_255_2_778
10
12.9111929
20
12.7592824
11
12.9111929
21
12.7589824
0
LINE
8
DEFAULT_255_2_778
10
12.9111929
20
55.2473824
11
12.9111929
21
55.2471824
0
LINE
8
DEFAULT_255_2_778
10
12.9111929
20
51.4373824
11
12.9111929
21
51.4371824
0
LINE
8
DEFAULT_255_2_778
10
12.9111929
20
62.2892824
11
12.9111929
21
62.2889824
0
LINE
8
DEFAULT_255_2_778
10
12.9111929
20
58.4792824
11
12.9111929
21
58.4789824
0
LINE
8
DEFAULT_255_2_778
10
12.9111929
20
43.2392824
11
12.9111929
21
43.2389824
0
LINE
8
DEFAULT_255_2_778
10
13.8567929
20
3.1278824
11
7.6078929
21
3.1278824
0
LINE
8
DEFAULT_255_2_778
10
7.6078929
20
3.1278824
11
7.6078929
21
72.4968824
0
LINE
8
DEFAULT_255_2_778
10
7.6078929
20
72.4968824
11
7.9078929
21
72.4968824
0
LINE
8
DEFAULT_255_2_778
10
12.8577929
20
72.4968824
11
7.9078929
21
72.4968824
0
LINE
8
DEFAULT_255_2_778
10
7.9078929
20
72.4968824
11
7.9078929
21
3.1268824
0
LINE
8
DEFAULT_255_2_778
10
12.8577929
20
8.9688824
11
12.8577929
21
5.6951824
0
LINE
8
DEFAULT_255_2_778
10
12.8577929
20
12.7788824
11
12.8577929
21
9.5051824
0
LINE
8
DEFAULT_255_2_778
10
12.8577929
20
5.1588824
11
12.8577929
21
3.1271824
0
LINE
8
DEFAULT_255_2_778
10
12.8577929
20
62.3088824
11
12.8577929
21
59.0351824
0
LINE
8
DEFAULT_255_2_778
10
12.8577929
20
66.1188824
11
12.8577929
21
62.8451824
0
LINE
8
DEFAULT_255_2_778
10
12.8577929
20
54.6888824
11
12.8577929
21
51.4151824
0
LINE
8
DEFAULT_255_2_778
10
12.8577929
20
58.4988824
11
12.8577929
21
55.2251824
0
LINE
8
DEFAULT_255_2_778
10
12.8577929
20
47.0688824
11
12.8577929
21
43.7951824
0
LINE
8
DEFAULT_255_2_778
10
12.8577929
20
50.8788824
11
12.8577929
21
47.6051824
0
LINE
8
DEFAULT_255_2_778
10
12.8577929
20
39.4488824
11
12.8577929
21
36.1751824
0
LINE
8
DEFAULT_255_2_778
10
12.8577929
20
43.2588824
11
12.8577929
21
39.9851824
0
LINE
8
DEFAULT_255_2_778
10
12.8577929
20
31.8288824
11
12.8577929
21
28.5551824
0
LINE
8
DEFAULT_255_2_778
10
12.8577929
20
35.6388824
11
12.8577929
21
32.3651824
0
LINE
8
DEFAULT_255_2_778
10
12.8577929
20
24.2088824
11
12.8577929
21
20.9351824
0
LINE
8
DEFAULT_255_2_778
10
12.8577929
20
28.0188824
11
12.8577929
21
24.7451824
0
LINE
8
DEFAULT_255_2_778
10
12.8577929
20
16.5888824
11
12.8577929
21
13.3151824
0
LINE
8
DEFAULT_255_2_778
10
12.8577929
20
20.3988824
11
12.8577929
21
17.1251824
0
LINE
8
DEFAULT_255_2_778
10
19.9080929
20
3.1271824
11
19.9080929
21
72.4968824
0
LINE
8
DEFAULT_255_2_778
10
19.9080929
20
72.4968824
11
19.7080929
21
72.4968824
0
LINE
8
DEFAULT_255_2_778
10
19.7080929
20
72.4968824
11
19.7080929
21
3.1268824
0
LINE
8
DEFAULT_255_2_778
10
19.7080929
20
3.1268824
11
19.9080929
21
3.1271824
0
LINE
8
DEFAULT_255_2_778
10
19.9080929
20
72.4971824
11
14.3399929
21
72.4971824
0
LINE
8
DEFAULT_255_2_778
10
14.3399929
20
72.4971824
11
14.3399929
21
3.1271824
0
LINE
8
DEFAULT_255_2_778
10
14.3399929
20
3.1271824
11
19.7077929
21
3.1271824
0
LINE
8
DEFAULT_255_2_778
10
14.3399929
20
3.1271824
11
13.8570929
21
3.1271824
0
LINE
8
DEFAULT_255_2_778
10
13.8570929
20
3.1271824
11
13.8570929
21
72.4968824
0
LINE
8
DEFAULT_255_2_778
10
13.8570929
20
72.4968824
11
14.3399929
21
72.4968824
0
LINE
8
DEFAULT_255_2_778
10
18.1877929
20
3.1268824
11
18.1877929
21
2.8291824
0
LINE
8
DEFAULT_255_2_778
10
12.9111929
20
69.9082824
11
12.9111929
21
69.9079824
0
LINE
8
DEFAULT_255_2_778
10
13.8567929
20
72.4968824
11
12.8574929
21
72.4968824
0
LINE
8
DEFAULT_255_2_778
10
12.8574929
20
72.4968824
11
12.8574929
21
70.4651824
0
LINE
8
DEFAULT_255_2_778
10
12.8574929
20
69.9288824
11
12.8574929
21
66.6551824
0
ARC
8
DEFAULT_255_2_778
10
16.1051967
20
5.4298955
40
1.297198
50
148.2770855
51
180.1324007
0
ARC
8
DEFAULT_255_2_778
10
16.1043449
20
5.4304122
40
1.2962017
50
97.0226393
51
148.276717
0
ARC
8
DEFAULT_255_2_778
10
16.1075539
20
5.4026442
40
1.3241537
50
89.9849309
51
97.0135513
0
ARC
8
DEFAULT_255_2_778
10
16.1108997
20
5.4296033
40
1.297198
50
58.2770855
51
90.1324007
0
ARC
8
DEFAULT_255_2_778
10
16.1114165
20
5.4304551
40
1.2962017
50
7.0226393
51
58.276717
0
ARC
8
DEFAULT_255_2_778
10
16.0836484
20
5.4272461
40
1.3241537
50
359.9849309
51
7.0135513
0
ARC
8
DEFAULT_255_2_778
10
16.1106076
20
5.4239003
40
1.297198
50
328.2770855
51
0.1324007
0
ARC
8
DEFAULT_255_2_778
10
16.1114594
20
5.4233835
40
1.2962017
50
277.0226393
51
328.276717
0
ARC
8
DEFAULT_255_2_778
10
16.1082504
20
5.4511516
40
1.3241537
50
269.9849309
51
277.0135513
0
ARC
8
DEFAULT_255_2_778
10
16.1049045
20
5.4241924
40
1.297198
50
238.2770855
51
270.1324007
0
ARC
8
DEFAULT_255_2_778
10
16.1043878
20
5.4233406
40
1.2962017
50
187.0226393
51
238.276717
0
ARC
8
DEFAULT_255_2_778
10
16.1321558
20
5.4265496
40
1.3241537
50
179.9849309
51
187.0135513
0
LINE
8
DEFAULT_255_2_778
10
14.8080021
20
5.4268979
11
14.8080021
21
5.4268979
0
LINE
8
DEFAULT_255_2_778
10
17.1869021
20
6.1520979
11
15.3827021
21
4.3478979
0
LINE
8
DEFAULT_255_2_778
10
15.0292021
20
4.7013979
11
16.8334021
21
6.5055979
0
ARC
8
DEFAULT_255_2_778
10
16.1051967
20
9.2398955
40
1.297198
50
148.2770855
51
180.1324007
0
ARC
8
DEFAULT_255_2_778
10
16.1043449
20
9.2404122
40
1.2962017
50
97.0226393
51
148.276717
0
ARC
8
DEFAULT_255_2_778
10
16.1075539
20
9.2126442
40
1.3241537
50
89.9849309
51
97.0135513
0
ARC
8
DEFAULT_255_2_778
10
16.1108997
20
9.2396033
40
1.297198
50
58.2770855
51
90.1324007
0
ARC
8
DEFAULT_255_2_778
10
16.1114165
20
9.2404551
40
1.2962017
50
7.0226393
51
58.276717
0
ARC
8
DEFAULT_255_2_778
10
16.0836484
20
9.2372461
40
1.3241537
50
359.9849309
51
7.0135513
0
ARC
8
DEFAULT_255_2_778
10
16.1106076
20
9.2339003
40
1.297198
50
328.2770855
51
0.1324007
0
ARC
8
DEFAULT_255_2_778
10
16.1114594
20
9.2333835
40
1.2962017
50
277.0226393
51
328.276717
0
ARC
8
DEFAULT_255_2_778
10
16.1082504
20
9.2611516
40
1.3241537
50
269.9849309
51
277.0135513
0
ARC
8
DEFAULT_255_2_778
10
16.1049045
20
9.2341924
40
1.297198
50
238.2770855
51
270.1324007
0
ARC
8
DEFAULT_255_2_778
10
16.1043878
20
9.2333406
40
1.2962017
50
187.0226393
51
238.276717
0
ARC
8
DEFAULT_255_2_778
10
16.1321558
20
9.2365496
40
1.3241537
50
179.9849309
51
187.0135513
0
LINE
8
DEFAULT_255_2_778
10
14.8080021
20
9.2368979
11
14.8080021
21
9.2368979
0
LINE
8
DEFAULT_255_2_778
10
17.1869021
20
9.9620979
11
15.3827021
21
8.1578979
0
LINE
8
DEFAULT_255_2_778
10
15.0292021
20
8.5113979
11
16.8334021
21
10.3155979
0
ARC
8
DEFAULT_255_2_778
10
16.1051967
20
16.8598955
40
1.297198
50
148.2770855
51
180.1324007
0
ARC
8
DEFAULT_255_2_778
10
16.1043449
20
16.8604122
40
1.2962017
50
97.0226393
51
148.276717
0
ARC
8
DEFAULT_255_2_778
10
16.1075539
20
16.8326442
40
1.3241537
50
89.9849309
51
97.0135513
0
ARC
8
DEFAULT_255_2_778
10
16.1108997
20
16.8596033
40
1.297198
50
58.2770855
51
90.1324007
0
ARC
8
DEFAULT_255_2_778
10
16.1114165
20
16.8604551
40
1.2962017
50
7.0226393
51
58.276717
0
ARC
8
DEFAULT_255_2_778
10
16.0836484
20
16.8572461
40
1.3241537
50
359.9849309
51
7.0135513
0
ARC
8
DEFAULT_255_2_778
10
16.1106076
20
16.8539003
40
1.297198
50
328.2770855
51
0.1324007
0
ARC
8
DEFAULT_255_2_778
10
16.1114594
20
16.8533835
40
1.2962017
50
277.0226393
51
328.276717
0
ARC
8
DEFAULT_255_2_778
10
16.1082504
20
16.8811516
40
1.3241537
50
269.9849309
51
277.0135513
0
ARC
8
DEFAULT_255_2_778
10
16.1049045
20
16.8541924
40
1.297198
50
238.2770855
51
270.1324007
0
ARC
8
DEFAULT_255_2_778
10
16.1043878
20
16.8533406
40
1.2962017
50
187.0226393
51
238.276717
0
ARC
8
DEFAULT_255_2_778
10
16.1321558
20
16.8565496
40
1.3241537
50
179.9849309
51
187.0135513
0
LINE
8
DEFAULT_255_2_778
10
14.8080021
20
16.8568979
11
14.8080021
21
16.8568979
0
LINE
8
DEFAULT_255_2_778
10
17.1869021
20
17.5820979
11
15.3827021
21
15.7778979
0
LINE
8
DEFAULT_255_2_778
10
15.0292021
20
16.1313979
11
16.8334021
21
17.9355979
0
ARC
8
DEFAULT_255_2_778
10
16.1051967
20
13.0496955
40
1.297198
50
148.2770855
51
180.1324007
0
ARC
8
DEFAULT_255_2_778
10
16.1043449
20
13.0502122
40
1.2962017
50
97.0226393
51
148.276717
0
ARC
8
DEFAULT_255_2_778
10
16.1075539
20
13.0224442
40
1.3241537
50
89.9849309
51
97.0135513
0
ARC
8
DEFAULT_255_2_778
10
16.1108997
20
13.0494033
40
1.297198
50
58.2770855
51
90.1324007
0
ARC
8
DEFAULT_255_2_778
10
16.1114165
20
13.0502551
40
1.2962017
50
7.0226393
51
58.276717
0
ARC
8
DEFAULT_255_2_778
10
16.0836484
20
13.0470461
40
1.3241537
50
359.9849309
51
7.0135513
0
ARC
8
DEFAULT_255_2_778
10
16.1106076
20
13.0437003
40
1.297198
50
328.2770855
51
0.1324007
0
ARC
8
DEFAULT_255_2_778
10
16.1114594
20
13.0431835
40
1.2962017
50
277.0226393
51
328.276717
0
ARC
8
DEFAULT_255_2_778
10
16.1082504
20
13.0709516
40
1.3241537
50
269.9849309
51
277.0135513
0
ARC
8
DEFAULT_255_2_778
10
16.1049045
20
13.0439924
40
1.297198
50
238.2770855
51
270.1324007
0
ARC
8
DEFAULT_255_2_778
10
16.1043878
20
13.0431406
40
1.2962017
50
187.0226393
51
238.276717
0
ARC
8
DEFAULT_255_2_778
10
16.1321558
20
13.0463496
40
1.3241537
50
179.9849309
51
187.0135513
0
LINE
8
DEFAULT_255_2_778
10
17.1869021
20
13.7721979
11
15.3827021
21
11.9679979
0
LINE
8
DEFAULT_255_2_778
10
15.0292021
20
12.3214979
11
16.8334021
21
14.1256979
0
LINE
8
DEFAULT_255_2_778
10
14.8080021
20
13.0466979
11
14.8080021
21
13.0466979
0
ARC
8
DEFAULT_255_2_778
10
16.1051967
20
20.6698955
40
1.297198
50
148.2770855
51
180.1324007
0
ARC
8
DEFAULT_255_2_778
10
16.1043449
20
20.6704122
40
1.2962017
50
97.0226393
51
148.276717
0
ARC
8
DEFAULT_255_2_778
10
16.1075539
20
20.6426442
40
1.3241537
50
89.9849309
51
97.0135513
0
ARC
8
DEFAULT_255_2_778
10
16.1108997
20
20.6696033
40
1.297198
50
58.2770855
51
90.1324007
0
ARC
8
DEFAULT_255_2_778
10
16.1114165
20
20.6704551
40
1.2962017
50
7.0226393
51
58.276717
0
ARC
8
DEFAULT_255_2_778
10
16.0836484
20
20.6672461
40
1.3241537
50
359.9849309
51
7.0135513
0
ARC
8
DEFAULT_255_2_778
10
16.1106076
20
20.6639003
40
1.297198
50
328.2770855
51
0.1324007
0
ARC
8
DEFAULT_255_2_778
10
16.1114594
20
20.6633835
40
1.2962017
50
277.0226393
51
328.276717
0
ARC
8
DEFAULT_255_2_778
10
16.1082504
20
20.6911516
40
1.3241537
50
269.9849309
51
277.0135513
0
ARC
8
DEFAULT_255_2_778
10
16.1049045
20
20.6641924
40
1.297198
50
238.2770855
51
270.1324007
0
ARC
8
DEFAULT_255_2_778
10
16.1043878
20
20.6633406
40
1.2962017
50
187.0226393
51
238.276717
0
ARC
8
DEFAULT_255_2_778
10
16.1321558
20
20.6665496
40
1.3241537
50
179.9849309
51
187.0135513
0
LINE
8
DEFAULT_255_2_778
10
14.8080021
20
20.6668979
11
14.8080021
21
20.6668979
0
LINE
8
DEFAULT_255_2_778
10
17.1869021
20
21.3920979
11
15.3827021
21
19.5878979
0
LINE
8
DEFAULT_255_2_778
10
15.0292021
20
19.9413979
11
16.8334021
21
21.7455979
0
ARC
8
DEFAULT_255_2_778
10
16.1051967
20
24.4798955
40
1.297198
50
148.2770855
51
180.1324007
0
ARC
8
DEFAULT_255_2_778
10
16.1043449
20
24.4804122
40
1.2962017
50
97.0226393
51
148.276717
0
ARC
8
DEFAULT_255_2_778
10
16.1075539
20
24.4526442
40
1.3241537
50
89.9849309
51
97.0135513
0
ARC
8
DEFAULT_255_2_778
10
16.1108997
20
24.4796033
40
1.297198
50
58.2770855
51
90.1324007
0
ARC
8
DEFAULT_255_2_778
10
16.1114165
20
24.4804551
40
1.2962017
50
7.0226393
51
58.276717
0
ARC
8
DEFAULT_255_2_778
10
16.0836484
20
24.4772461
40
1.3241537
50
359.9849309
51
7.0135513
0
ARC
8
DEFAULT_255_2_778
10
16.1106076
20
24.4739003
40
1.297198
50
328.2770855
51
0.1324007
0
ARC
8
DEFAULT_255_2_778
10
16.1114594
20
24.4733835
40
1.2962017
50
277.0226393
51
328.276717
0
ARC
8
DEFAULT_255_2_778
10
16.1082504
20
24.5011516
40
1.3241537
50
269.9849309
51
277.0135513
0
ARC
8
DEFAULT_255_2_778
10
16.1049045
20
24.4741924
40
1.297198
50
238.2770855
51
270.1324007
0
ARC
8
DEFAULT_255_2_778
10
16.1043878
20
24.4733406
40
1.2962017
50
187.0226393
51
238.276717
0
ARC
8
DEFAULT_255_2_778
10
16.1321558
20
24.4765496
40
1.3241537
50
179.9849309
51
187.0135513
0
LINE
8
DEFAULT_255_2_778
10
14.8080021
20
24.4768979
11
14.8080021
21
24.4768979
0
LINE
8
DEFAULT_255_2_778
10
17.1869021
20
25.2020979
11
15.3827021
21
23.3978979
0
LINE
8
DEFAULT_255_2_778
10
15.0292021
20
23.7513979
11
16.8334021
21
25.5555979
0
ARC
8
DEFAULT_255_2_778
10
16.1051967
20
28.2898955
40
1.297198
50
148.2770855
51
180.1324007
0
ARC
8
DEFAULT_255_2_778
10
16.1043449
20
28.2904122
40
1.2962017
50
97.0226393
51
148.276717
0
ARC
8
DEFAULT_255_2_778
10
16.1075539
20
28.2626442
40
1.3241537
50
89.9849309
51
97.0135513
0
ARC
8
DEFAULT_255_2_778
10
16.1108997
20
28.2896033
40
1.297198
50
58.2770855
51
90.1324007
0
ARC
8
DEFAULT_255_2_778
10
16.1114165
20
28.2904551
40
1.2962017
50
7.0226393
51
58.276717
0
ARC
8
DEFAULT_255_2_778
10
16.0836484
20
28.2872461
40
1.3241537
50
359.9849309
51
7.0135513
0
ARC
8
DEFAULT_255_2_778
10
16.1106076
20
28.2839003
40
1.297198
50
328.2770855
51
0.1324007
0
ARC
8
DEFAULT_255_2_778
10
16.1114594
20
28.2833835
40
1.2962017
50
277.0226393
51
328.276717
0
ARC
8
DEFAULT_255_2_778
10
16.1082504
20
28.3111516
40
1.3241537
50
269.9849309
51
277.0135513
0
ARC
8
DEFAULT_255_2_778
10
16.1049045
20
28.2841924
40
1.297198
50
238.2770855
51
270.1324007
0
ARC
8
DEFAULT_255_2_778
10
16.1043878
20
28.2833406
40
1.2962017
50
187.0226393
51
238.276717
0
ARC
8
DEFAULT_255_2_778
10
16.1321558
20
28.2865496
40
1.3241537
50
179.9849309
51
187.0135513
0
LINE
8
DEFAULT_255_2_778
10
14.8080021
20
28.2868979
11
14.8080021
21
28.2868979
0
LINE
8
DEFAULT_255_2_778
10
17.1869021
20
29.0120979
11
15.3827021
21
27.2078979
0
LINE
8
DEFAULT_255_2_778
10
15.0292021
20
27.5613979
11
16.8334021
21
29.3655979
0
ARC
8
DEFAULT_255_2_778
10
16.1051967
20
32.0998955
40
1.297198
50
148.2770855
51
180.1324007
0
ARC
8
DEFAULT_255_2_778
10
16.1043449
20
32.1004122
40
1.2962017
50
97.0226393
51
148.276717
0
ARC
8
DEFAULT_255_2_778
10
16.1075539
20
32.0726442
40
1.3241537
50
89.9849309
51
97.0135513
0
ARC
8
DEFAULT_255_2_778
10
16.1108997
20
32.0996033
40
1.297198
50
58.2770855
51
90.1324007
0
ARC
8
DEFAULT_255_2_778
10
16.1114165
20
32.1004551
40
1.2962017
50
7.0226393
51
58.276717
0
ARC
8
DEFAULT_255_2_778
10
16.0836484
20
32.0972461
40
1.3241537
50
359.9849309
51
7.0135513
0
ARC
8
DEFAULT_255_2_778
10
16.1106076
20
32.0939003
40
1.297198
50
328.2770855
51
0.1324007
0
ARC
8
DEFAULT_255_2_778
10
16.1114594
20
32.0933835
40
1.2962017
50
277.0226393
51
328.276717
0
ARC
8
DEFAULT_255_2_778
10
16.1082504
20
32.1211516
40
1.3241537
50
269.9849309
51
277.0135513
0
ARC
8
DEFAULT_255_2_778
10
16.1049045
20
32.0941924
40
1.297198
50
238.2770855
51
270.1324007
0
ARC
8
DEFAULT_255_2_778
10
16.1043878
20
32.0933406
40
1.2962017
50
187.0226393
51
238.276717
0
ARC
8
DEFAULT_255_2_778
10
16.1321558
20
32.0965496
40
1.3241537
50
179.9849309
51
187.0135513
0
LINE
8
DEFAULT_255_2_778
10
14.8080021
20
32.0968979
11
14.8080021
21
32.0968979
0
LINE
8
DEFAULT_255_2_778
10
17.1869021
20
32.8220979
11
15.3827021
21
31.0178979
0
LINE
8
DEFAULT_255_2_778
10
15.0292021
20
31.3713979
11
16.8334021
21
33.1755979
0
ARC
8
DEFAULT_255_2_778
10
16.1051967
20
35.9098955
40
1.297198
50
148.2770855
51
180.1324007
0
ARC
8
DEFAULT_255_2_778
10
16.1043449
20
35.9104122
40
1.2962017
50
97.0226393
51
148.276717
0
ARC
8
DEFAULT_255_2_778
10
16.1075539
20
35.8826442
40
1.3241537
50
89.9849309
51
97.0135513
0
ARC
8
DEFAULT_255_2_778
10
16.1108997
20
35.9096033
40
1.297198
50
58.2770855
51
90.1324007
0
ARC
8
DEFAULT_255_2_778
10
16.1114165
20
35.9104551
40
1.2962017
50
7.0226393
51
58.276717
0
ARC
8
DEFAULT_255_2_778
10
16.0836484
20
35.9072461
40
1.3241537
50
359.9849309
51
7.0135513
0
ARC
8
DEFAULT_255_2_778
10
16.1106076
20
35.9039003
40
1.297198
50
328.2770855
51
0.1324007
0
ARC
8
DEFAULT_255_2_778
10
16.1114594
20
35.9033835
40
1.2962017
50
277.0226393
51
328.276717
0
ARC
8
DEFAULT_255_2_778
10
16.1082504
20
35.9311516
40
1.3241537
50
269.9849309
51
277.0135513
0
ARC
8
DEFAULT_255_2_778
10
16.1049045
20
35.9041924
40
1.297198
50
238.2770855
51
270.1324007
0
ARC
8
DEFAULT_255_2_778
10
16.1043878
20
35.9033406
40
1.2962017
50
187.0226393
51
238.276717
0
ARC
8
DEFAULT_255_2_778
10
16.1321558
20
35.9065496
40
1.3241537
50
179.9849309
51
187.0135513
0
LINE
8
DEFAULT_255_2_778
10
14.8080021
20
35.9068979
11
14.8080021
21
35.9068979
0
LINE
8
DEFAULT_255_2_778
10
17.1869021
20
36.6320979
11
15.3827021
21
34.8278979
0
LINE
8
DEFAULT_255_2_778
10
15.0292021
20
35.1813979
11
16.8334021
21
36.9855979
0
ARC
8
DEFAULT_255_2_778
10
16.1051967
20
39.7198955
40
1.297198
50
148.2770855
51
180.1324007
0
ARC
8
DEFAULT_255_2_778
10
16.1043449
20
39.7204122
40
1.2962017
50
97.0226393
51
148.276717
0
ARC
8
DEFAULT_255_2_778
10
16.1075539
20
39.6926442
40
1.3241537
50
89.9849309
51
97.0135513
0
ARC
8
DEFAULT_255_2_778
10
16.1108997
20
39.7196033
40
1.297198
50
58.2770855
51
90.1324007
0
ARC
8
DEFAULT_255_2_778
10
16.1114165
20
39.7204551
40
1.2962017
50
7.0226393
51
58.276717
0
ARC
8
DEFAULT_255_2_778
10
16.0836484
20
39.7172461
40
1.3241537
50
359.9849309
51
7.0135513
0
ARC
8
DEFAULT_255_2_778
10
16.1106076
20
39.7139003
40
1.297198
50
328.2770855
51
0.1324007
0
ARC
8
DEFAULT_255_2_778
10
16.1114594
20
39.7133835
40
1.2962017
50
277.0226393
51
328.276717
0
ARC
8
DEFAULT_255_2_778
10
16.1082504
20
39.7411516
40
1.3241537
50
269.9849309
51
277.0135513
0
ARC
8
DEFAULT_255_2_778
10
16.1049045
20
39.7141924
40
1.297198
50
238.2770855
51
270.1324007
0
ARC
8
DEFAULT_255_2_778
10
16.1043878
20
39.7133406
40
1.2962017
50
187.0226393
51
238.276717
0
ARC
8
DEFAULT_255_2_778
10
16.1321558
20
39.7165496
40
1.3241537
50
179.9849309
51
187.0135513
0
LINE
8
DEFAULT_255_2_778
10
14.8080021
20
39.7168979
11
14.8080021
21
39.7168979
0
LINE
8
DEFAULT_255_2_778
10
17.1869021
20
40.4420979
11
15.3827021
21
38.6378979
0
LINE
8
DEFAULT_255_2_778
10
15.0292021
20
38.9913979
11
16.8334021
21
40.7955979
0
ARC
8
DEFAULT_255_2_778
10
16.1051967
20
43.5298955
40
1.297198
50
148.2770855
51
180.1324007
0
ARC
8
DEFAULT_255_2_778
10
16.1043449
20
43.5304122
40
1.2962017
50
97.0226393
51
148.276717
0
ARC
8
DEFAULT_255_2_778
10
16.1075539
20
43.5026442
40
1.3241537
50
89.9849309
51
97.0135513
0
ARC
8
DEFAULT_255_2_778
10
16.1108997
20
43.5296033
40
1.297198
50
58.2770855
51
90.1324007
0
ARC
8
DEFAULT_255_2_778
10
16.1114165
20
43.5304551
40
1.2962017
50
7.0226393
51
58.276717
0
ARC
8
DEFAULT_255_2_778
10
16.0836484
20
43.5272461
40
1.3241537
50
359.9849309
51
7.0135513
0
ARC
8
DEFAULT_255_2_778
10
16.1106076
20
43.5239003
40
1.297198
50
328.2770855
51
0.1324007
0
ARC
8
DEFAULT_255_2_778
10
16.1114594
20
43.5233835
40
1.2962017
50
277.0226393
51
328.276717
0
ARC
8
DEFAULT_255_2_778
10
16.1082504
20
43.5511516
40
1.3241537
50
269.9849309
51
277.0135513
0
ARC
8
DEFAULT_255_2_778
10
16.1049045
20
43.5241924
40
1.297198
50
238.2770855
51
270.1324007
0
ARC
8
DEFAULT_255_2_778
10
16.1043878
20
43.5233406
40
1.2962017
50
187.0226393
51
238.276717
0
ARC
8
DEFAULT_255_2_778
10
16.1321558
20
43.5265496
40
1.3241537
50
179.9849309
51
187.0135513
0
LINE
8
DEFAULT_255_2_778
10
14.8080021
20
43.5268979
11
14.8080021
21
43.5268979
0
LINE
8
DEFAULT_255_2_778
10
17.1869021
20
44.2520979
11
15.3827021
21
42.4478979
0
LINE
8
DEFAULT_255_2_778
10
15.0292021
20
42.8013979
11
16.8334021
21
44.6055979
0
ARC
8
DEFAULT_255_2_778
10
16.1051967
20
47.3398955
40
1.297198
50
148.2770855
51
180.1324007
0
ARC
8
DEFAULT_255_2_778
10
16.1043449
20
47.3404122
40
1.2962017
50
97.0226393
51
148.276717
0
ARC
8
DEFAULT_255_2_778
10
16.1075539
20
47.3126442
40
1.3241537
50
89.9849309
51
97.0135513
0
ARC
8
DEFAULT_255_2_778
10
16.1108997
20
47.3396033
40
1.297198
50
58.2770855
51
90.1324007
0
ARC
8
DEFAULT_255_2_778
10
16.1114165
20
47.3404551
40
1.2962017
50
7.0226393
51
58.276717
0
ARC
8
DEFAULT_255_2_778
10
16.0836484
20
47.3372461
40
1.3241537
50
359.9849309
51
7.0135513
0
ARC
8
DEFAULT_255_2_778
10
16.1106076
20
47.3339003
40
1.297198
50
328.2770855
51
0.1324007
0
ARC
8
DEFAULT_255_2_778
10
16.1114594
20
47.3333835
40
1.2962017
50
277.0226393
51
328.276717
0
ARC
8
DEFAULT_255_2_778
10
16.1082504
20
47.3611516
40
1.3241537
50
269.9849309
51
277.0135513
0
ARC
8
DEFAULT_255_2_778
10
16.1049045
20
47.3341924
40
1.297198
50
238.2770855
51
270.1324007
0
ARC
8
DEFAULT_255_2_778
10
16.1043878
20
47.3333406
40
1.2962017
50
187.0226393
51
238.276717
0
ARC
8
DEFAULT_255_2_778
10
16.1321558
20
47.3365496
40
1.3241537
50
179.9849309
51
187.0135513
0
LINE
8
DEFAULT_255_2_778
10
14.8080021
20
47.3368979
11
14.8080021
21
47.3368979
0
LINE
8
DEFAULT_255_2_778
10
17.1869021
20
48.0620979
11
15.3827021
21
46.2578979
0
LINE
8
DEFAULT_255_2_778
10
15.0292021
20
46.6113979
11
16.8334021
21
48.4155979
0
ARC
8
DEFAULT_255_2_778
10
16.1051967
20
51.1498955
40
1.297198
50
148.2770855
51
180.1324007
0
ARC
8
DEFAULT_255_2_778
10
16.1043449
20
51.1504122
40
1.2962017
50
97.0226393
51
148.276717
0
ARC
8
DEFAULT_255_2_778
10
16.1075539
20
51.1226442
40
1.3241537
50
89.9849309
51
97.0135513
0
ARC
8
DEFAULT_255_2_778
10
16.1108997
20
51.1496033
40
1.297198
50
58.2770855
51
90.1324007
0
ARC
8
DEFAULT_255_2_778
10
16.1114165
20
51.1504551
40
1.2962017
50
7.0226393
51
58.276717
0
ARC
8
DEFAULT_255_2_778
10
16.0836484
20
51.1472461
40
1.3241537
50
359.9849309
51
7.0135513
0
ARC
8
DEFAULT_255_2_778
10
16.1106076
20
51.1439003
40
1.297198
50
328.2770855
51
0.1324007
0
ARC
8
DEFAULT_255_2_778
10
16.1114594
20
51.1433835
40
1.2962017
50
277.0226393
51
328.276717
0
ARC
8
DEFAULT_255_2_778
10
16.1082504
20
51.1711516
40
1.3241537
50
269.9849309
51
277.0135513
0
ARC
8
DEFAULT_255_2_778
10
16.1049045
20
51.1441924
40
1.297198
50
238.2770855
51
270.1324007
0
ARC
8
DEFAULT_255_2_778
10
16.1043878
20
51.1433406
40
1.2962017
50
187.0226393
51
238.276717
0
ARC
8
DEFAULT_255_2_778
10
16.1321558
20
51.1465496
40
1.3241537
50
179.9849309
51
187.0135513
0
LINE
8
DEFAULT_255_2_778
10
14.8080021
20
51.1468979
11
14.8080021
21
51.1468979
0
LINE
8
DEFAULT_255_2_778
10
17.1869021
20
51.8720979
11
15.3827021
21
50.0678979
0
LINE
8
DEFAULT_255_2_778
10
15.0292021
20
50.4213979
11
16.8334021
21
52.2255979
0
ARC
8
DEFAULT_255_2_778
10
16.1051967
20
54.9598955
40
1.297198
50
148.2770855
51
180.1324007
0
ARC
8
DEFAULT_255_2_778
10
16.1043449
20
54.9604122
40
1.2962017
50
97.0226393
51
148.276717
0
ARC
8
DEFAULT_255_2_778
10
16.1075539
20
54.9326442
40
1.3241537
50
89.9849309
51
97.0135513
0
ARC
8
DEFAULT_255_2_778
10
16.1108997
20
54.9596033
40
1.297198
50
58.2770855
51
90.1324007
0
ARC
8
DEFAULT_255_2_778
10
16.1114165
20
54.9604551
40
1.2962017
50
7.0226393
51
58.276717
0
ARC
8
DEFAULT_255_2_778
10
16.0836484
20
54.9572461
40
1.3241537
50
359.9849309
51
7.0135513
0
ARC
8
DEFAULT_255_2_778
10
16.1106076
20
54.9539003
40
1.297198
50
328.2770855
51
0.1324007
0
ARC
8
DEFAULT_255_2_778
10
16.1114594
20
54.9533835
40
1.2962017
50
277.0226393
51
328.276717
0
ARC
8
DEFAULT_255_2_778
10
16.1082504
20
54.9811516
40
1.3241537
50
269.9849309
51
277.0135513
0
ARC
8
DEFAULT_255_2_778
10
16.1049045
20
54.9541924
40
1.297198
50
238.2770855
51
270.1324007
0
ARC
8
DEFAULT_255_2_778
10
16.1043878
20
54.9533406
40
1.2962017
50
187.0226393
51
238.276717
0
ARC
8
DEFAULT_255_2_778
10
16.1321558
20
54.9565496
40
1.3241537
50
179.9849309
51
187.0135513
0
LINE
8
DEFAULT_255_2_778
10
14.8080021
20
54.9568979
11
14.8080021
21
54.9568979
0
LINE
8
DEFAULT_255_2_778
10
17.1869021
20
55.6820979
11
15.3827021
21
53.8778979
0
LINE
8
DEFAULT_255_2_778
10
15.0292021
20
54.2313979
11
16.8334021
21
56.0355979
0
ARC
8
DEFAULT_255_2_778
10
16.1051967
20
58.7698955
40
1.297198
50
148.2770855
51
180.1324007
0
ARC
8
DEFAULT_255_2_778
10
16.1043449
20
58.7704122
40
1.2962017
50
97.0226393
51
148.276717
0
ARC
8
DEFAULT_255_2_778
10
16.1075539
20
58.7426442
40
1.3241537
50
89.9849309
51
97.0135513
0
ARC
8
DEFAULT_255_2_778
10
16.1108997
20
58.7696033
40
1.297198
50
58.2770855
51
90.1324007
0
ARC
8
DEFAULT_255_2_778
10
16.1114165
20
58.7704551
40
1.2962017
50
7.0226393
51
58.276717
0
ARC
8
DEFAULT_255_2_778
10
16.0836484
20
58.7672461
40
1.3241537
50
359.9849309
51
7.0135513
0
ARC
8
DEFAULT_255_2_778
10
16.1106076
20
58.7639003
40
1.297198
50
328.2770855
51
0.1324007
0
ARC
8
DEFAULT_255_2_778
10
16.1114594
20
58.7633835
40
1.2962017
50
277.0226393
51
328.276717
0
ARC
8
DEFAULT_255_2_778
10
16.1082504
20
58.7911516
40
1.3241537
50
269.9849309
51
277.0135513
0
ARC
8
DEFAULT_255_2_778
10
16.1049045
20
58.7641924
40
1.297198
50
238.2770855
51
270.1324007
0
ARC
8
DEFAULT_255_2_778
10
16.1043878
20
58.7633406
40
1.2962017
50
187.0226393
51
238.276717
0
ARC
8
DEFAULT_255_2_778
10
16.1321558
20
58.7665496
40
1.3241537
50
179.9849309
51
187.0135513
0
LINE
8
DEFAULT_255_2_778
10
14.8080021
20
58.7668979
11
14.8080021
21
58.7668979
0
LINE
8
DEFAULT_255_2_778
10
17.1869021
20
59.4920979
11
15.3827021
21
57.6878979
0
LINE
8
DEFAULT_255_2_778
10
15.0292021
20
58.0413979
11
16.8334021
21
59.8455979
0
ARC
8
DEFAULT_255_2_778
10
16.1051967
20
62.5798955
40
1.297198
50
148.2770855
51
180.1324007
0
ARC
8
DEFAULT_255_2_778
10
16.1043449
20
62.5804122
40
1.2962017
50
97.0226393
51
148.276717
0
ARC
8
DEFAULT_255_2_778
10
16.1075539
20
62.5526442
40
1.3241537
50
89.9849309
51
97.0135513
0
ARC
8
DEFAULT_255_2_778
10
16.1108997
20
62.5796033
40
1.297198
50
58.2770855
51
90.1324007
0
ARC
8
DEFAULT_255_2_778
10
16.1114165
20
62.5804551
40
1.2962017
50
7.0226393
51
58.276717
0
ARC
8
DEFAULT_255_2_778
10
16.0836484
20
62.5772461
40
1.3241537
50
359.9849309
51
7.0135513
0
ARC
8
DEFAULT_255_2_778
10
16.1106076
20
62.5739003
40
1.297198
50
328.2770855
51
0.1324007
0
ARC
8
DEFAULT_255_2_778
10
16.1114594
20
62.5733835
40
1.2962017
50
277.0226393
51
328.276717
0
ARC
8
DEFAULT_255_2_778
10
16.1082504
20
62.6011516
40
1.3241537
50
269.9849309
51
277.0135513
0
ARC
8
DEFAULT_255_2_778
10
16.1049045
20
62.5741924
40
1.297198
50
238.2770855
51
270.1324007
0
ARC
8
DEFAULT_255_2_778
10
16.1043878
20
62.5733406
40
1.2962017
50
187.0226393
51
238.276717
0
ARC
8
DEFAULT_255_2_778
10
16.1321558
20
62.5765496
40
1.3241537
50
179.9849309
51
187.0135513
0
LINE
8
DEFAULT_255_2_778
10
14.8080021
20
62.5768979
11
14.8080021
21
62.5768979
0
LINE
8
DEFAULT_255_2_778
10
17.1869021
20
63.3020979
11
15.3827021
21
61.4978979
0
LINE
8
DEFAULT_255_2_778
10
15.0292021
20
61.8513979
11
16.8334021
21
63.6555979
0
ARC
8
DEFAULT_255_2_778
10
16.1051967
20
66.3898955
40
1.297198
50
148.2770855
51
180.1324007
0
ARC
8
DEFAULT_255_2_778
10
16.1043449
20
66.3904122
40
1.2962017
50
97.0226393
51
148.276717
0
ARC
8
DEFAULT_255_2_778
10
16.1075539
20
66.3626442
40
1.3241537
50
89.9849309
51
97.0135513
0
ARC
8
DEFAULT_255_2_778
10
16.1108997
20
66.3896033
40
1.297198
50
58.2770855
51
90.1324007
0
ARC
8
DEFAULT_255_2_778
10
16.1114165
20
66.3904551
40
1.2962017
50
7.0226393
51
58.276717
0
ARC
8
DEFAULT_255_2_778
10
16.0836484
20
66.3872461
40
1.3241537
50
359.9849309
51
7.0135513
0
ARC
8
DEFAULT_255_2_778
10
16.1106076
20
66.3839003
40
1.297198
50
328.2770855
51
0.1324007
0
ARC
8
DEFAULT_255_2_778
10
16.1114594
20
66.3833835
40
1.2962017
50
277.0226393
51
328.276717
0
ARC
8
DEFAULT_255_2_778
10
16.1082504
20
66.4111516
40
1.3241537
50
269.9849309
51
277.0135513
0
ARC
8
DEFAULT_255_2_778
10
16.1049045
20
66.3841924
40
1.297198
50
238.2770855
51
270.1324007
0
ARC
8
DEFAULT_255_2_778
10
16.1043878
20
66.3833406
40
1.2962017
50
187.0226393
51
238.276717
0
ARC
8
DEFAULT_255_2_778
10
16.1321558
20
66.3865496
40
1.3241537
50
179.9849309
51
187.0135513
0
LINE
8
DEFAULT_255_2_778
10
14.8080021
20
66.3868979
11
14.8080021
21
66.3868979
0
LINE
8
DEFAULT_255_2_778
10
17.1869021
20
67.1120979
11
15.3827021
21
65.3078979
0
LINE
8
DEFAULT_255_2_778
10
15.0292021
20
65.6613979
11
16.8334021
21
67.4655979
0
ARC
8
DEFAULT_255_2_778
10
16.1051967
20
70.1998955
40
1.297198
50
148.2770855
51
180.1324007
0
ARC
8
DEFAULT_255_2_778
10
16.1043449
20
70.2004122
40
1.2962017
50
97.0226393
51
148.276717
0
ARC
8
DEFAULT_255_2_778
10
16.1075539
20
70.1726442
40
1.3241537
50
89.9849309
51
97.0135513
0
ARC
8
DEFAULT_255_2_778
10
16.1108997
20
70.1996033
40
1.297198
50
58.2770855
51
90.1324007
0
ARC
8
DEFAULT_255_2_778
10
16.1114165
20
70.2004551
40
1.2962017
50
7.0226393
51
58.276717
0
ARC
8
DEFAULT_255_2_778
10
16.0836484
20
70.1972461
40
1.3241537
50
359.9849309
51
7.0135513
0
ARC
8
DEFAULT_255_2_778
10
16.1106076
20
70.1939003
40
1.297198
50
328.2770855
51
0.1324007
0
ARC
8
DEFAULT_255_2_778
10
16.1114594
20
70.1933835
40
1.2962017
50
277.0226393
51
328.276717
0
ARC
8
DEFAULT_255_2_778
10
16.1082504
20
70.2211516
40
1.3241537
50
269.9849309
51
277.0135513
0
ARC
8
DEFAULT_255_2_778
10
16.1049045
20
70.1941924
40
1.297198
50
238.2770855
51
270.1324007
0
ARC
8
DEFAULT_255_2_778
10
16.1043878
20
70.1933406
40
1.2962017
50
187.0226393
51
238.276717
0
ARC
8
DEFAULT_255_2_778
10
16.1321558
20
70.1965496
40
1.3241537
50
179.9849309
51
187.0135513
0
LINE
8
DEFAULT_255_2_778
10
14.8080021
20
70.1968979
11
14.8080021
21
70.1968979
0
LINE
8
DEFAULT_255_2_778
10
17.1869021
20
70.9220979
11
15.3827021
21
69.1178979
0
LINE
8
DEFAULT_255_2_778
10
15.0292021
20
69.4713979
11
16.8334021
21
71.2755979
0
ARC
8
DEFAULT_255_2_778
10
12.6391897
20
71.4575347
40
0.3996988
50
149.9820241
51
166.5423651
0
ARC
8
DEFAULT_255_2_778
10
12.3549981
20
71.6292001
40
0.0680547
50
98.221978
51
155.4345218
0
ARC
8
DEFAULT_255_2_778
10
11.7712924
20
71.2838271
40
0.3943109
50
329.6676538
51
346.6610538
0
ARC
8
DEFAULT_255_2_778
10
12.0508813
20
71.1131944
40
0.0670987
50
278.0397103
51
334.8650665
0
ARC
8
DEFAULT_255_2_778
10
9.0765527
20
71.434257
40
0.3875528
50
218.5273005
51
269.0704877
0
ARC
8
DEFAULT_255_2_778
10
8.9112212
20
68.5812953
40
0.5033686
50
140.1334877
51
148.6666587
0
ARC
8
DEFAULT_255_2_778
10
8.910104
20
71.8117445
40
0.5022739
50
211.3732531
51
219.9157596
0
ARC
8
DEFAULT_255_2_778
10
12.3593292
20
68.771997
40
0.0765083
50
200.1949151
51
259.5602106
0
ARC
8
DEFAULT_255_2_778
10
12.6699442
20
68.9457892
40
0.4316557
50
193.8095269
51
207.6329044
0
ARC
8
DEFAULT_255_2_778
10
9.0764186
20
68.9591605
40
0.3874435
50
90.909938
51
141.4611708
0
ARC
8
DEFAULT_255_2_778
10
12.0464006
20
69.2712506
40
0.0765703
50
20.2278694
51
79.5675663
0
ARC
8
DEFAULT_255_2_778
10
11.7379543
20
69.0985029
40
0.4293171
50
13.7513208
51
27.6483993
0
ARC
8
DEFAULT_255_2_778
10
8.6294785
20
71.7499473
40
0.22997
50
195.5867147
51
207.7541582
0
ARC
8
DEFAULT_255_2_778
10
8.5899779
20
68.6563835
40
0.1895672
50
147.7443409
51
163.2376555
0
LINE
8
DEFAULT_255_2_778
10
12.6918657
20
71.6968552
11
12.6918657
21
68.6967552
0
LINE
8
DEFAULT_255_2_778
10
12.6918657
20
68.6967552
11
8.4079657
21
68.6967552
0
LINE
8
DEFAULT_255_2_778
10
8.4079657
20
68.6967552
11
8.4079657
21
71.6968552
0
LINE
8
DEFAULT_255_2_778
10
8.4079657
20
71.6968552
11
12.6918657
21
71.6968552
0
LINE
8
DEFAULT_255_2_778
10
11.9684657
20
69.3468552
11
11.9684657
21
71.0467552
0
LINE
8
DEFAULT_255_2_778
10
9.2408657
20
69.3468552
11
9.2408657
21
71.0467552
0
LINE
8
DEFAULT_255_2_778
10
12.0602657
20
71.0467552
11
9.0702657
21
71.0467552
0
LINE
8
DEFAULT_255_2_778
10
8.5248657
20
68.9039552
11
8.5248657
21
71.4894552
0
LINE
8
DEFAULT_255_2_778
10
9.3236657
20
71.0467552
11
9.3236657
21
69.3468552
0
LINE
8
DEFAULT_255_2_778
10
12.3454657
20
68.6967552
11
12.3454657
21
68.6967552
0
LINE
8
DEFAULT_255_2_778
10
9.0702657
20
69.3465552
11
12.0602657
21
69.3465552
0
LINE
8
DEFAULT_255_2_778
10
12.0602657
20
69.3465552
11
12.0602657
21
69.3465552
0
LINE
8
DEFAULT_255_2_778
10
8.5246657
20
71.4894552
11
8.7733657
21
71.1930552
0
LINE
8
DEFAULT_255_2_778
10
8.7733657
20
71.1930552
11
12.1549657
21
71.1930552
0
LINE
8
DEFAULT_255_2_778
10
12.1549657
20
71.1930552
11
12.2507657
21
71.5502552
0
LINE
8
DEFAULT_255_2_778
10
12.2507657
20
71.5502552
11
8.4812657
21
71.5502552
0
LINE
8
DEFAULT_255_2_778
10
8.4812657
20
71.5502552
11
8.4709657
21
71.5672552
0
LINE
8
DEFAULT_255_2_778
10
8.4709657
20
71.5672552
11
8.4259657
21
71.6428552
0
LINE
8
DEFAULT_255_2_778
10
8.5248657
20
68.9041552
11
8.7736657
21
69.2005552
0
LINE
8
DEFAULT_255_2_778
10
8.7736657
20
69.2005552
11
12.1549657
21
69.2005552
0
LINE
8
DEFAULT_255_2_778
10
12.1549657
20
69.2005552
11
12.2507657
21
68.8433552
0
LINE
8
DEFAULT_255_2_778
10
12.2507657
20
68.8433552
11
8.4812657
21
68.8433552
0
LINE
8
DEFAULT_255_2_778
10
8.4812657
20
68.8433552
11
8.4296657
21
68.7575552
0
LINE
8
DEFAULT_255_2_778
10
8.4084657
20
68.7110552
11
8.4079657
21
68.7054552
0
ARC
8
DEFAULT_255_2_778
10
12.6334719
20
67.6497511
40
0.3935498
50
149.6452226
51
166.6647383
0
ARC
8
DEFAULT_255_2_778
10
12.3545803
20
67.8200975
40
0.0670796
50
98.0096476
51
154.8244367
0
ARC
8
DEFAULT_255_2_778
10
11.7713601
20
67.4737948
40
0.3943109
50
329.6676538
51
346.6610538
0
ARC
8
DEFAULT_255_2_778
10
12.050949
20
67.3031621
40
0.0670987
50
278.0397103
51
334.8650665
0
ARC
8
DEFAULT_255_2_778
10
9.0765246
20
67.6240258
40
0.3873541
50
218.513124
51
269.0693921
0
ARC
8
DEFAULT_255_2_778
10
8.9112889
20
64.7712629
40
0.5033686
50
140.1334877
51
148.6666587
0
ARC
8
DEFAULT_255_2_778
10
8.9101718
20
68.0017122
40
0.5022739
50
211.3732531
51
219.9157596
0
ARC
8
DEFAULT_255_2_778
10
12.3593984
20
64.9620274
40
0.0765703
50
200.2278694
51
259.5675663
0
ARC
8
DEFAULT_255_2_778
10
12.6678448
20
65.1347751
40
0.4293171
50
193.7513208
51
207.6483993
0
ARC
8
DEFAULT_255_2_778
10
9.0764663
20
65.1491731
40
0.3873999
50
90.9218822
51
141.464532
0
ARC
8
DEFAULT_255_2_778
10
12.0464699
20
65.461281
40
0.0765083
50
20.1949151
51
79.5602106
0
ARC
8
DEFAULT_255_2_778
10
11.7358548
20
65.2874888
40
0.4316557
50
13.8095269
51
27.6329044
0
ARC
8
DEFAULT_255_2_778
10
8.6239536
20
67.9376923
40
0.2239866
50
195.4234627
51
207.9172098
0
ARC
8
DEFAULT_255_2_778
10
8.6239405
20
64.8358572
40
0.223973
50
152.0820844
51
164.576588
0
ARC
8
DEFAULT_255_2_778
10
12.6342686
20
63.8397842
40
0.3940947
50
149.6528583
51
166.6436337
0
ARC
8
DEFAULT_255_2_778
10
12.3549185
20
64.0103736
40
0.0671086
50
98.0391121
51
154.8484152
0
ARC
8
DEFAULT_255_2_778
10
11.7666094
20
63.6660433
40
0.3996988
50
329.9820241
51
346.5423651
0
ARC
8
DEFAULT_255_2_778
10
12.050801
20
63.4943779
40
0.0680547
50
278.221978
51
335.4345218
0
ARC
8
DEFAULT_255_2_778
10
9.0765498
20
63.8145421
40
0.3875707
50
218.5473862
51
269.0661876
0
ARC
8
DEFAULT_255_2_778
10
8.9101718
20
60.9618335
40
0.5022739
50
140.0842404
51
148.6267469
0
ARC
8
DEFAULT_255_2_778
10
8.9112889
20
64.1922827
40
0.5033686
50
211.3333413
51
219.8665123
0
ARC
8
DEFAULT_255_2_778
10
12.3593984
20
61.1523274
40
0.0765703
50
200.2278694
51
259.5675663
0
ARC
8
DEFAULT_255_2_778
10
12.6678448
20
61.3250751
40
0.4293171
50
193.7513208
51
207.6483993
0
ARC
8
DEFAULT_255_2_778
10
9.0764414
20
61.3396887
40
0.3871838
50
90.9187098
51
141.4987697
0
ARC
8
DEFAULT_255_2_778
10
12.0464172
20
61.6515504
40
0.076548
50
20.1613235
51
79.525578
0
ARC
8
DEFAULT_255_2_778
10
11.7350589
20
61.477472
40
0.4324804
50
13.8122514
51
27.6142531
0
ARC
8
DEFAULT_255_2_778
10
8.6252802
20
64.1286526
40
0.225468
50
195.5200432
51
207.9076267
0
ARC
8
DEFAULT_255_2_778
10
8.6230965
20
61.0262622
40
0.2231316
50
152.0271413
51
164.5449512
0
LINE
8
DEFAULT_255_2_778
10
8.4080334
20
64.8867228
11
8.4080334
21
67.8868228
0
LINE
8
DEFAULT_255_2_778
10
8.4080334
20
67.8868228
11
12.6918334
21
67.8868228
0
LINE
8
DEFAULT_255_2_778
10
12.6918334
20
67.8868228
11
12.6918334
21
64.8867228
0
LINE
8
DEFAULT_255_2_778
10
12.6918334
20
64.8867228
11
8.4080334
21
64.8867228
0
LINE
8
DEFAULT_255_2_778
10
11.9685334
20
65.5368228
11
11.9685334
21
67.2367228
0
LINE
8
DEFAULT_255_2_778
10
9.2409334
20
65.5368228
11
9.2409334
21
67.2367228
0
LINE
8
DEFAULT_255_2_778
10
12.0603334
20
67.2367228
11
9.0702334
21
67.2367228
0
LINE
8
DEFAULT_255_2_778
10
8.5249334
20
65.0939228
11
8.5249334
21
67.6794228
0
LINE
8
DEFAULT_255_2_778
10
9.3237334
20
67.2367228
11
9.3237334
21
65.5368228
0
LINE
8
DEFAULT_255_2_778
10
12.3455334
20
64.8867228
11
12.3455334
21
64.8867228
0
LINE
8
DEFAULT_255_2_778
10
9.0702334
20
65.5365228
11
12.0603334
21
65.5365228
0
LINE
8
DEFAULT_255_2_778
10
12.0603334
20
65.5365228
11
12.0603334
21
65.5365228
0
LINE
8
DEFAULT_255_2_778
10
8.5246334
20
67.6794228
11
8.7734334
21
67.3830228
0
LINE
8
DEFAULT_255_2_778
10
8.7734334
20
67.3830228
11
12.1550334
21
67.3830228
0
LINE
8
DEFAULT_255_2_778
10
12.1550334
20
67.3830228
11
12.2508334
21
67.7402228
0
LINE
8
DEFAULT_255_2_778
10
12.2508334
20
67.7402228
11
8.4813334
21
67.7402228
0
LINE
8
DEFAULT_255_2_778
10
8.4813334
20
67.7402228
11
8.4709334
21
67.7572228
0
LINE
8
DEFAULT_255_2_778
10
8.4709334
20
67.7572228
11
8.4260334
21
67.8328228
0
LINE
8
DEFAULT_255_2_778
10
8.4260334
20
64.9407228
11
8.4709334
21
65.0163228
0
LINE
8
DEFAULT_255_2_778
10
8.4709334
20
65.0163228
11
8.4813334
21
65.0333228
0
LINE
8
DEFAULT_255_2_778
10
8.4813334
20
65.0333228
11
12.2508334
21
65.0333228
0
LINE
8
DEFAULT_255_2_778
10
12.2508334
20
65.0333228
11
12.1550334
21
65.3905228
0
LINE
8
DEFAULT_255_2_778
10
12.1550334
20
65.3905228
11
8.7736334
21
65.3905228
0
LINE
8
DEFAULT_255_2_778
10
8.7736334
20
65.3905228
11
8.5249334
21
65.0941228
0
LINE
8
DEFAULT_255_2_778
10
12.0605334
20
63.4270228
11
9.0702334
21
63.4270228
0
LINE
8
DEFAULT_255_2_778
10
8.5249334
20
61.2841228
11
8.5249334
21
63.8696228
0
LINE
8
DEFAULT_255_2_778
10
9.3237334
20
63.4270228
11
9.3237334
21
61.7270228
0
LINE
8
DEFAULT_255_2_778
10
12.3455334
20
61.0770228
11
12.3455334
21
61.0770228
0
LINE
8
DEFAULT_255_2_778
10
9.0702334
20
61.7268228
11
12.0603334
21
61.7268228
0
LINE
8
DEFAULT_255_2_778
10
12.0603334
20
61.7268228
11
12.0603334
21
61.7268228
0
LINE
8
DEFAULT_255_2_778
10
8.4077334
20
61.0770228
11
8.4077334
21
64.0771228
0
LINE
8
DEFAULT_255_2_778
10
8.4077334
20
64.0771228
11
12.6916334
21
64.0771228
0
LINE
8
DEFAULT_255_2_778
10
12.6916334
20
64.0771228
11
12.6916334
21
61.0770228
0
LINE
8
DEFAULT_255_2_778
10
12.6916334
20
61.0770228
11
8.4077334
21
61.0770228
0
LINE
8
DEFAULT_255_2_778
10
11.9682334
20
61.7270228
11
11.9682334
21
63.4270228
0
LINE
8
DEFAULT_255_2_778
10
9.2406334
20
61.7270228
11
9.2406334
21
63.4270228
0
LINE
8
DEFAULT_255_2_778
10
8.5246334
20
63.8696228
11
8.7734334
21
63.5733228
0
LINE
8
DEFAULT_255_2_778
10
8.7734334
20
63.5733228
11
12.1550334
21
63.5733228
0
LINE
8
DEFAULT_255_2_778
10
12.1550334
20
63.5733228
11
12.2508334
21
63.9305228
0
LINE
8
DEFAULT_255_2_778
10
12.2508334
20
63.9305228
11
8.4813334
21
63.9305228
0
LINE
8
DEFAULT_255_2_778
10
8.4813334
20
63.9305228
11
8.4709334
21
63.9474228
0
LINE
8
DEFAULT_255_2_778
10
8.4709334
20
63.9474228
11
8.4260334
21
64.0231228
0
LINE
8
DEFAULT_255_2_778
10
8.4260334
20
61.1309228
11
8.4709334
21
61.2066228
0
LINE
8
DEFAULT_255_2_778
10
8.4709334
20
61.2066228
11
8.4813334
21
61.2235228
0
LINE
8
DEFAULT_255_2_778
10
8.4813334
20
61.2235228
11
12.2508334
21
61.2235228
0
LINE
8
DEFAULT_255_2_778
10
12.2508334
20
61.2235228
11
12.1550334
21
61.5807228
0
LINE
8
DEFAULT_255_2_778
10
12.1550334
20
61.5807228
11
8.7736334
21
61.5807228
0
LINE
8
DEFAULT_255_2_778
10
8.7736334
20
61.5807228
11
8.5249334
21
61.2844228
0
ARC
8
DEFAULT_255_2_778
10
12.6338042
20
60.0299835
40
0.3935498
50
149.6452226
51
166.6647383
0
ARC
8
DEFAULT_255_2_778
10
12.3549126
20
60.2003298
40
0.0670796
50
98.0096476
51
154.8244367
0
ARC
8
DEFAULT_255_2_778
10
11.770318
20
59.8547351
40
0.3958118
50
329.6760154
51
346.6072309
0
ARC
8
DEFAULT_255_2_778
10
12.0512395
20
59.6833956
40
0.0670918
50
277.9903113
51
334.8611539
0
ARC
8
DEFAULT_255_2_778
10
9.0765571
20
60.0042584
40
0.3873543
50
218.5131332
51
269.0693665
0
ARC
8
DEFAULT_255_2_778
10
8.9113212
20
57.1514953
40
0.5033686
50
140.1334877
51
148.6666587
0
ARC
8
DEFAULT_255_2_778
10
8.910204
20
60.3819445
40
0.5022739
50
211.3732531
51
219.9157596
0
ARC
8
DEFAULT_255_2_778
10
12.3594307
20
57.3422597
40
0.0765703
50
200.2278694
51
259.5675663
0
ARC
8
DEFAULT_255_2_778
10
12.6678771
20
57.5150074
40
0.4293171
50
193.7513208
51
207.6483993
0
ARC
8
DEFAULT_255_2_778
10
9.0764986
20
57.5294054
40
0.3873999
50
90.9218822
51
141.464532
0
ARC
8
DEFAULT_255_2_778
10
12.0465022
20
57.8415134
40
0.0765083
50
20.1949151
51
79.5602106
0
ARC
8
DEFAULT_255_2_778
10
11.7358871
20
57.6677211
40
0.4316557
50
13.8095269
51
27.6329044
0
ARC
8
DEFAULT_255_2_778
10
8.6292733
20
57.2138654
40
0.2299644
50
152.2457669
51
164.4135094
0
ARC
8
DEFAULT_255_2_778
10
8.6231185
20
60.3180111
40
0.2231203
50
195.4545949
51
207.9730416
0
LINE
8
DEFAULT_255_2_778
10
12.0605657
20
59.6169552
11
9.0702657
21
59.6169552
0
LINE
8
DEFAULT_255_2_778
10
8.5249657
20
57.4741552
11
8.5249657
21
60.0596552
0
LINE
8
DEFAULT_255_2_778
10
9.3237657
20
59.6169552
11
9.3237657
21
57.9170552
0
LINE
8
DEFAULT_255_2_778
10
12.3455657
20
57.2669552
11
12.3455657
21
57.2669552
0
LINE
8
DEFAULT_255_2_778
10
9.0702657
20
57.9167552
11
12.0603657
21
57.9167552
0
LINE
8
DEFAULT_255_2_778
10
12.0603657
20
57.9167552
11
12.0603657
21
57.9167552
0
LINE
8
DEFAULT_255_2_778
10
8.4077657
20
57.2669552
11
8.4077657
21
60.2670552
0
LINE
8
DEFAULT_255_2_778
10
8.4077657
20
60.2670552
11
12.6916657
21
60.2670552
0
LINE
8
DEFAULT_255_2_778
10
12.6916657
20
60.2670552
11
12.6916657
21
57.2669552
0
LINE
8
DEFAULT_255_2_778
10
12.6916657
20
57.2669552
11
8.4077657
21
57.2669552
0
LINE
8
DEFAULT_255_2_778
10
11.9682657
20
57.9170552
11
11.9682657
21
59.6169552
0
LINE
8
DEFAULT_255_2_778
10
9.2406657
20
57.9170552
11
9.2406657
21
59.6169552
0
LINE
8
DEFAULT_255_2_778
10
8.4257657
20
57.3209552
11
8.4707657
21
57.3965552
0
LINE
8
DEFAULT_255_2_778
10
8.4707657
20
57.3965552
11
8.4810657
21
57.4135552
0
LINE
8
DEFAULT_255_2_778
10
8.4810657
20
57.4135552
11
12.2505657
21
57.4135552
0
LINE
8
DEFAULT_255_2_778
10
12.2505657
20
57.4135552
11
12.1547657
21
57.7707552
0
LINE
8
DEFAULT_255_2_778
10
12.1547657
20
57.7707552
11
8.7736657
21
57.7707552
0
LINE
8
DEFAULT_255_2_778
10
8.7736657
20
57.7707552
11
8.5249657
21
57.4743552
0
LINE
8
DEFAULT_255_2_778
10
8.5249657
20
60.0598552
11
8.7736657
21
59.7635552
0
LINE
8
DEFAULT_255_2_778
10
8.7736657
20
59.7635552
11
12.1550657
21
59.7635552
0
LINE
8
DEFAULT_255_2_778
10
12.1550657
20
59.7635552
11
12.2508657
21
60.1207552
0
LINE
8
DEFAULT_255_2_778
10
12.2508657
20
60.1207552
11
8.4813657
21
60.1207552
0
LINE
8
DEFAULT_255_2_778
10
8.4813657
20
60.1207552
11
8.4709657
21
60.1376552
0
LINE
8
DEFAULT_255_2_778
10
8.4709657
20
60.1376552
11
8.4260657
21
60.2133552
0
ARC
8
DEFAULT_255_2_778
10
12.6342009
20
56.2198165
40
0.3940947
50
149.6528583
51
166.6436337
0
ARC
8
DEFAULT_255_2_778
10
12.3548508
20
56.390406
40
0.0671086
50
98.0391121
51
154.8484152
0
ARC
8
DEFAULT_255_2_778
10
11.7723272
20
56.0438269
40
0.3935498
50
329.6452226
51
346.6647383
0
ARC
8
DEFAULT_255_2_778
10
12.0512188
20
55.8734805
40
0.0670796
50
278.0096476
51
334.8244367
0
ARC
8
DEFAULT_255_2_778
10
9.0765779
20
56.1947734
40
0.3877696
50
218.5615634
51
269.0672895
0
ARC
8
DEFAULT_255_2_778
10
8.910104
20
53.3418658
40
0.5022739
50
140.0842404
51
148.6267469
0
ARC
8
DEFAULT_255_2_778
10
8.9112212
20
56.572315
40
0.5033686
50
211.3333413
51
219.8665123
0
ARC
8
DEFAULT_255_2_778
10
12.3593292
20
53.532297
40
0.0765083
50
200.1949151
51
259.5602106
0
ARC
8
DEFAULT_255_2_778
10
12.6699442
20
53.7060892
40
0.4316557
50
193.8095269
51
207.6329044
0
ARC
8
DEFAULT_255_2_778
10
9.0763938
20
53.7196763
40
0.3872274
50
90.9067811
51
141.495439
0
ARC
8
DEFAULT_255_2_778
10
12.046348
20
54.0315201
40
0.0766099
50
20.1942629
51
79.532957
0
ARC
8
DEFAULT_255_2_778
10
11.7371655
20
53.8584887
40
0.4301342
50
13.7540584
51
27.6297483
0
ARC
8
DEFAULT_255_2_778
10
8.6294785
20
56.5099473
40
0.22997
50
195.5867147
51
207.7541582
0
ARC
8
DEFAULT_255_2_778
10
8.5899779
20
53.4163835
40
0.1895672
50
147.7443409
51
163.2376555
0
LINE
8
DEFAULT_255_2_778
10
12.0605657
20
55.8070552
11
9.0702657
21
55.8070552
0
LINE
8
DEFAULT_255_2_778
10
8.5248657
20
53.6641552
11
8.5248657
21
56.2496552
0
LINE
8
DEFAULT_255_2_778
10
9.3236657
20
55.8070552
11
9.3236657
21
54.1070552
0
LINE
8
DEFAULT_255_2_778
10
12.3454657
20
53.4570552
11
12.3454657
21
53.4570552
0
LINE
8
DEFAULT_255_2_778
10
9.0702657
20
54.1068552
11
12.0602657
21
54.1068552
0
LINE
8
DEFAULT_255_2_778
10
12.0602657
20
54.1068552
11
12.0602657
21
54.1068552
0
LINE
8
DEFAULT_255_2_778
10
11.9681657
20
54.1068552
11
11.9681657
21
55.8067552
0
LINE
8
DEFAULT_255_2_778
10
9.2405657
20
54.1068552
11
9.2405657
21
55.8067552
0
LINE
8
DEFAULT_255_2_778
10
8.5246657
20
56.2494552
11
8.7733657
21
55.9530552
0
LINE
8
DEFAULT_255_2_778
10
8.7733657
20
55.9530552
11
12.1549657
21
55.9530552
0
LINE
8
DEFAULT_255_2_778
10
12.1549657
20
55.9530552
11
12.2507657
21
56.3102552
0
LINE
8
DEFAULT_255_2_778
10
12.2507657
20
56.3102552
11
8.4812657
21
56.3102552
0
LINE
8
DEFAULT_255_2_778
10
8.4812657
20
56.3102552
11
8.4709657
21
56.3272552
0
LINE
8
DEFAULT_255_2_778
10
8.4709657
20
56.3272552
11
8.4259657
21
56.4028552
0
LINE
8
DEFAULT_255_2_778
10
8.5248657
20
53.6641552
11
8.7736657
21
53.9605552
0
LINE
8
DEFAULT_255_2_778
10
8.7736657
20
53.9605552
11
12.1549657
21
53.9605552
0
LINE
8
DEFAULT_255_2_778
10
12.1549657
20
53.9605552
11
12.2507657
21
53.6033552
0
LINE
8
DEFAULT_255_2_778
10
12.2507657
20
53.6033552
11
8.4812657
21
53.6033552
0
LINE
8
DEFAULT_255_2_778
10
8.4812657
20
53.6033552
11
8.4296657
21
53.5175552
0
LINE
8
DEFAULT_255_2_778
10
8.4084657
20
53.4710552
11
8.4079657
21
53.4654552
0
LINE
8
DEFAULT_255_2_778
10
12.6918657
20
56.4568552
11
12.6918657
21
53.4567552
0
LINE
8
DEFAULT_255_2_778
10
12.6918657
20
53.4567552
11
8.4079657
21
53.4567552
0
LINE
8
DEFAULT_255_2_778
10
8.4079657
20
53.4567552
11
8.4079657
21
56.4568552
0
LINE
8
DEFAULT_255_2_778
10
8.4079657
20
56.4568552
11
12.6918657
21
56.4568552
0
ARC
8
DEFAULT_255_2_778
10
12.6338042
20
52.4099835
40
0.3935498
50
149.6452226
51
166.6647383
0
ARC
8
DEFAULT_255_2_778
10
12.3549126
20
52.5803298
40
0.0670796
50
98.0096476
51
154.8244367
0
ARC
8
DEFAULT_255_2_778
10
11.770318
20
52.2347351
40
0.3958118
50
329.6760154
51
346.6072309
0
ARC
8
DEFAULT_255_2_778
10
12.0512395
20
52.0633956
40
0.0670918
50
277.9903113
51
334.8611539
0
ARC
8
DEFAULT_255_2_778
10
9.0765571
20
52.3842584
40
0.3873543
50
218.5131332
51
269.0693665
0
ARC
8
DEFAULT_255_2_778
10
8.9113212
20
49.5314953
40
0.5033686
50
140.1334877
51
148.6666587
0
ARC
8
DEFAULT_255_2_778
10
8.910204
20
52.7619445
40
0.5022739
50
211.3732531
51
219.9157596
0
ARC
8
DEFAULT_255_2_778
10
12.3594307
20
49.7222597
40
0.0765703
50
200.2278694
51
259.5675663
0
ARC
8
DEFAULT_255_2_778
10
12.6678771
20
49.8950074
40
0.4293171
50
193.7513208
51
207.6483993
0
ARC
8
DEFAULT_255_2_778
10
9.0764986
20
49.9094054
40
0.3873999
50
90.9218822
51
141.464532
0
ARC
8
DEFAULT_255_2_778
10
12.0465022
20
50.2215134
40
0.0765083
50
20.1949151
51
79.5602106
0
ARC
8
DEFAULT_255_2_778
10
11.7358871
20
50.0477211
40
0.4316557
50
13.8095269
51
27.6329044
0
ARC
8
DEFAULT_255_2_778
10
8.6292733
20
49.5938654
40
0.2299644
50
152.2457669
51
164.4135094
0
ARC
8
DEFAULT_255_2_778
10
8.6252978
20
52.698879
40
0.2254522
50
195.5195911
51
207.908046
0
LINE
8
DEFAULT_255_2_778
10
12.0605657
20
51.9969552
11
9.0702657
21
51.9969552
0
LINE
8
DEFAULT_255_2_778
10
8.5249657
20
49.8541552
11
8.5249657
21
52.4396552
0
LINE
8
DEFAULT_255_2_778
10
9.3237657
20
51.9969552
11
9.3237657
21
50.2970552
0
LINE
8
DEFAULT_255_2_778
10
12.3455657
20
49.6469552
11
12.3455657
21
49.6469552
0
LINE
8
DEFAULT_255_2_778
10
9.0702657
20
50.2967552
11
12.0603657
21
50.2967552
0
LINE
8
DEFAULT_255_2_778
10
12.0603657
20
50.2967552
11
12.0603657
21
50.2967552
0
LINE
8
DEFAULT_255_2_778
10
8.4077657
20
49.6469552
11
8.4077657
21
52.6470552
0
LINE
8
DEFAULT_255_2_778
10
8.4077657
20
52.6470552
11
12.6916657
21
52.6470552
0
LINE
8
DEFAULT_255_2_778
10
12.6916657
20
52.6470552
11
12.6916657
21
49.6469552
0
LINE
8
DEFAULT_255_2_778
10
12.6916657
20
49.6469552
11
8.4077657
21
49.6469552
0
LINE
8
DEFAULT_255_2_778
10
11.9682657
20
50.2970552
11
11.9682657
21
51.9969552
0
LINE
8
DEFAULT_255_2_778
10
9.2406657
20
50.2970552
11
9.2406657
21
51.9969552
0
LINE
8
DEFAULT_255_2_778
10
8.4257657
20
49.7009552
11
8.4707657
21
49.7765552
0
LINE
8
DEFAULT_255_2_778
10
8.4707657
20
49.7765552
11
8.4810657
21
49.7935552
0
LINE
8
DEFAULT_255_2_778
10
8.4810657
20
49.7935552
11
12.2505657
21
49.7935552
0
LINE
8
DEFAULT_255_2_778
10
12.2505657
20
49.7935552
11
12.1547657
21
50.1507552
0
LINE
8
DEFAULT_255_2_778
10
12.1547657
20
50.1507552
11
8.7736657
21
50.1507552
0
LINE
8
DEFAULT_255_2_778
10
8.7736657
20
50.1507552
11
8.5249657
21
49.8543552
0
LINE
8
DEFAULT_255_2_778
10
8.5249657
20
52.4398552
11
8.7736657
21
52.1435552
0
LINE
8
DEFAULT_255_2_778
10
8.7736657
20
52.1435552
11
12.1550657
21
52.1435552
0
LINE
8
DEFAULT_255_2_778
10
12.1550657
20
52.1435552
11
12.2508657
21
52.5007552
0
LINE
8
DEFAULT_255_2_778
10
12.2508657
20
52.5007552
11
8.4813657
21
52.5007552
0
LINE
8
DEFAULT_255_2_778
10
8.4813657
20
52.5007552
11
8.4709657
21
52.5176552
0
LINE
8
DEFAULT_255_2_778
10
8.4709657
20
52.5176552
11
8.4260657
21
52.5933552
0
ARC
8
DEFAULT_255_2_778
10
12.6335042
20
48.5997835
40
0.3935498
50
149.6452226
51
166.6647383
0
ARC
8
DEFAULT_255_2_778
10
12.3546126
20
48.7701298
40
0.0670796
50
98.0096476
51
154.8244367
0
ARC
8
DEFAULT_255_2_778
10
11.7713924
20
48.4238271
40
0.3943109
50
329.6676538
51
346.6610538
0
ARC
8
DEFAULT_255_2_778
10
12.0509813
20
48.2531944
40
0.0670987
50
278.0397103
51
334.8650665
0
ARC
8
DEFAULT_255_2_778
10
9.0765571
20
48.5740584
40
0.3873543
50
218.5131332
51
269.0693665
0
ARC
8
DEFAULT_255_2_778
10
8.9113212
20
45.7212953
40
0.5033686
50
140.1334877
51
148.6666587
0
ARC
8
DEFAULT_255_2_778
10
8.910204
20
48.9517445
40
0.5022739
50
211.3732531
51
219.9157596
0
ARC
8
DEFAULT_255_2_778
10
12.3594307
20
45.9120597
40
0.0765703
50
200.2278694
51
259.5675663
0
ARC
8
DEFAULT_255_2_778
10
12.6678771
20
46.0848074
40
0.4293171
50
193.7513208
51
207.6483993
0
ARC
8
DEFAULT_255_2_778
10
9.0764986
20
46.0992054
40
0.3873999
50
90.9218822
51
141.464532
0
ARC
8
DEFAULT_255_2_778
10
12.0465022
20
46.4113134
40
0.0765083
50
20.1949151
51
79.5602106
0
ARC
8
DEFAULT_255_2_778
10
11.7358871
20
46.2375211
40
0.4316557
50
13.8095269
51
27.6329044
0
ARC
8
DEFAULT_255_2_778
10
8.6239859
20
48.8877246
40
0.2239866
50
195.4234627
51
207.9172098
0
ARC
8
DEFAULT_255_2_778
10
8.623981
20
45.7858871
40
0.2239816
50
152.0825198
51
164.5765468
0
LINE
8
DEFAULT_255_2_778
10
9.2409657
20
46.4868552
11
9.2409657
21
48.1867552
0
LINE
8
DEFAULT_255_2_778
10
12.0603657
20
48.1867552
11
9.0702657
21
48.1867552
0
LINE
8
DEFAULT_255_2_778
10
8.5249657
20
46.0439552
11
8.5249657
21
48.6294552
0
LINE
8
DEFAULT_255_2_778
10
9.3237657
20
48.1867552
11
9.3237657
21
46.4868552
0
LINE
8
DEFAULT_255_2_778
10
12.3455657
20
45.8367552
11
12.3455657
21
45.8367552
0
LINE
8
DEFAULT_255_2_778
10
9.0702657
20
46.4865552
11
12.0603657
21
46.4865552
0
LINE
8
DEFAULT_255_2_778
10
12.0603657
20
46.4865552
11
12.0603657
21
46.4865552
0
LINE
8
DEFAULT_255_2_778
10
8.4077657
20
45.8367552
11
8.4077657
21
48.8368552
0
LINE
8
DEFAULT_255_2_778
10
8.4077657
20
48.8368552
11
12.6916657
21
48.8368552
0
LINE
8
DEFAULT_255_2_778
10
12.6916657
20
48.8368552
11
12.6916657
21
45.8367552
0
LINE
8
DEFAULT_255_2_778
10
12.6916657
20
45.8367552
11
8.4077657
21
45.8367552
0
LINE
8
DEFAULT_255_2_778
10
8.5246657
20
48.6294552
11
8.7734657
21
48.3330552
0
LINE
8
DEFAULT_255_2_778
10
8.7734657
20
48.3330552
11
12.1550657
21
48.3330552
0
LINE
8
DEFAULT_255_2_778
10
12.1550657
20
48.3330552
11
12.2508657
21
48.6902552
0
LINE
8
DEFAULT_255_2_778
10
12.2508657
20
48.6902552
11
8.4813657
21
48.6902552
0
LINE
8
DEFAULT_255_2_778
10
8.4813657
20
48.6902552
11
8.4709657
21
48.7072552
0
LINE
8
DEFAULT_255_2_778
10
8.4709657
20
48.7072552
11
8.4260657
21
48.7828552
0
LINE
8
DEFAULT_255_2_778
10
8.4260657
20
45.8907552
11
8.4709657
21
45.9663552
0
LINE
8
DEFAULT_255_2_778
10
8.4709657
20
45.9663552
11
8.4813657
21
45.9833552
0
LINE
8
DEFAULT_255_2_778
10
8.4813657
20
45.9833552
11
12.2508657
21
45.9833552
0
LINE
8
DEFAULT_255_2_778
10
12.2508657
20
45.9833552
11
12.1550657
21
46.3405552
0
LINE
8
DEFAULT_255_2_778
10
12.1550657
20
46.3405552
11
8.7736657
21
46.3405552
0
LINE
8
DEFAULT_255_2_778
10
8.7736657
20
46.3405552
11
8.5249657
21
46.0441552
0
LINE
8
DEFAULT_255_2_778
10
11.9685657
20
46.4868552
11
11.9685657
21
48.1867552
0
ARC
8
DEFAULT_255_2_778
10
12.6391897
20
44.7875347
40
0.3996988
50
149.9820241
51
166.5423651
0
ARC
8
DEFAULT_255_2_778
10
12.3549981
20
44.9592001
40
0.0680547
50
98.221978
51
155.4345218
0
ARC
8
DEFAULT_255_2_778
10
11.7712924
20
44.6138271
40
0.3943109
50
329.6676538
51
346.6610538
0
ARC
8
DEFAULT_255_2_778
10
12.0508813
20
44.4431944
40
0.0670987
50
278.0397103
51
334.8650665
0
ARC
8
DEFAULT_255_2_778
10
9.0765527
20
44.764257
40
0.3875528
50
218.5273005
51
269.0704877
0
ARC
8
DEFAULT_255_2_778
10
8.9112212
20
41.9112953
40
0.5033686
50
140.1334877
51
148.6666587
0
ARC
8
DEFAULT_255_2_778
10
8.910104
20
45.1417445
40
0.5022739
50
211.3732531
51
219.9157596
0
ARC
8
DEFAULT_255_2_778
10
12.3593292
20
42.101997
40
0.0765083
50
200.1949151
51
259.5602106
0
ARC
8
DEFAULT_255_2_778
10
12.6699442
20
42.2757892
40
0.4316557
50
193.8095269
51
207.6329044
0
ARC
8
DEFAULT_255_2_778
10
9.0764186
20
42.2891605
40
0.3874435
50
90.909938
51
141.4611708
0
ARC
8
DEFAULT_255_2_778
10
12.0464006
20
42.6012506
40
0.0765703
50
20.2278694
51
79.5675663
0
ARC
8
DEFAULT_255_2_778
10
11.7379543
20
42.4285029
40
0.4293171
50
13.7513208
51
27.6483993
0
ARC
8
DEFAULT_255_2_778
10
8.6294785
20
45.0799473
40
0.22997
50
195.5867147
51
207.7541582
0
ARC
8
DEFAULT_255_2_778
10
8.5899779
20
41.9863835
40
0.1895672
50
147.7443409
51
163.2376555
0
LINE
8
DEFAULT_255_2_778
10
9.2408657
20
42.6768552
11
9.2408657
21
44.3767552
0
LINE
8
DEFAULT_255_2_778
10
12.0602657
20
44.3767552
11
9.0702657
21
44.3767552
0
LINE
8
DEFAULT_255_2_778
10
8.5248657
20
42.2339552
11
8.5248657
21
44.8194552
0
LINE
8
DEFAULT_255_2_778
10
9.3236657
20
44.3767552
11
9.3236657
21
42.6768552
0
LINE
8
DEFAULT_255_2_778
10
12.3454657
20
42.0267552
11
12.3454657
21
42.0267552
0
LINE
8
DEFAULT_255_2_778
10
9.0702657
20
42.6765552
11
12.0602657
21
42.6765552
0
LINE
8
DEFAULT_255_2_778
10
12.0602657
20
42.6765552
11
12.0602657
21
42.6765552
0
LINE
8
DEFAULT_255_2_778
10
8.5246657
20
44.8194552
11
8.7733657
21
44.5230552
0
LINE
8
DEFAULT_255_2_778
10
8.7733657
20
44.5230552
11
12.1549657
21
44.5230552
0
LINE
8
DEFAULT_255_2_778
10
12.1549657
20
44.5230552
11
12.2507657
21
44.8802552
0
LINE
8
DEFAULT_255_2_778
10
12.2507657
20
44.8802552
11
8.4812657
21
44.8802552
0
LINE
8
DEFAULT_255_2_778
10
8.4812657
20
44.8802552
11
8.4709657
21
44.8972552
0
LINE
8
DEFAULT_255_2_778
10
8.4709657
20
44.8972552
11
8.4259657
21
44.9728552
0
LINE
8
DEFAULT_255_2_778
10
8.5248657
20
42.2341552
11
8.7736657
21
42.5305552
0
LINE
8
DEFAULT_255_2_778
10
8.7736657
20
42.5305552
11
12.1549657
21
42.5305552
0
LINE
8
DEFAULT_255_2_778
10
12.1549657
20
42.5305552
11
12.2507657
21
42.1733552
0
LINE
8
DEFAULT_255_2_778
10
12.2507657
20
42.1733552
11
8.4812657
21
42.1733552
0
LINE
8
DEFAULT_255_2_778
10
8.4812657
20
42.1733552
11
8.4296657
21
42.0875552
0
LINE
8
DEFAULT_255_2_778
10
8.4084657
20
42.0410552
11
8.4079657
21
42.0354552
0
LINE
8
DEFAULT_255_2_778
10
12.6918657
20
45.0268552
11
12.6918657
21
42.0267552
0
LINE
8
DEFAULT_255_2_778
10
12.6918657
20
42.0267552
11
8.4079657
21
42.0267552
0
LINE
8
DEFAULT_255_2_778
10
8.4079657
20
42.0267552
11
8.4079657
21
45.0268552
0
LINE
8
DEFAULT_255_2_778
10
8.4079657
20
45.0268552
11
12.6918657
21
45.0268552
0
LINE
8
DEFAULT_255_2_778
10
11.9684657
20
42.6768552
11
11.9684657
21
44.3767552
0
ARC
8
DEFAULT_255_2_778
10
8.9112889
20
38.1014598
40
0.5033686
50
140.1334877
51
148.6666587
0
ARC
8
DEFAULT_255_2_778
10
8.9112889
20
41.3322796
40
0.5033686
50
211.3333413
51
219.8665123
0
ARC
8
DEFAULT_255_2_778
10
11.7666094
20
40.8060401
40
0.3996988
50
329.9820241
51
346.5423651
0
ARC
8
DEFAULT_255_2_778
10
12.050801
20
40.6343748
40
0.0680547
50
278.221978
51
335.4345218
0
ARC
8
DEFAULT_255_2_778
10
9.0765498
20
40.9545389
40
0.3875707
50
218.5473862
51
269.0661876
0
ARC
8
DEFAULT_255_2_778
10
12.6345067
20
40.9797478
40
0.3943109
50
149.6676538
51
166.6610538
0
ARC
8
DEFAULT_255_2_778
10
12.3549178
20
41.1503805
40
0.0670987
50
98.0397103
51
154.8650665
0
ARC
8
DEFAULT_255_2_778
10
9.0763106
20
38.4796866
40
0.3870808
50
90.8995822
51
141.4868261
0
ARC
8
DEFAULT_255_2_778
10
12.0464699
20
38.7914779
40
0.0765083
50
20.1949151
51
79.5602106
0
ARC
8
DEFAULT_255_2_778
10
11.7358548
20
38.6176857
40
0.4316557
50
13.8095269
51
27.6329044
0
ARC
8
DEFAULT_255_2_778
10
12.3591496
20
38.2921921
40
0.076548
50
200.1613235
51
259.525578
0
ARC
8
DEFAULT_255_2_778
10
12.6705079
20
38.4662706
40
0.4324804
50
193.8122514
51
207.6142531
0
ARC
8
DEFAULT_255_2_778
10
8.6230858
20
41.2677758
40
0.22312
50
195.4546755
51
207.9731385
0
ARC
8
DEFAULT_255_2_778
10
8.6252647
20
38.1653953
40
0.2254517
50
152.0917239
51
164.4802057
0
ARC
8
DEFAULT_255_2_778
10
12.6339686
20
37.1694811
40
0.3940947
50
149.6528583
51
166.6436337
0
ARC
8
DEFAULT_255_2_778
10
12.3546185
20
37.3400705
40
0.0671086
50
98.0391121
51
154.8484152
0
ARC
8
DEFAULT_255_2_778
10
11.7715982
20
36.9937583
40
0.3940947
50
329.6528583
51
346.6436337
0
ARC
8
DEFAULT_255_2_778
10
12.0509483
20
36.8231689
40
0.0671086
50
278.0391121
51
334.8484152
0
ARC
8
DEFAULT_255_2_778
10
9.0765498
20
37.1442389
40
0.3875707
50
218.5473862
51
269.0661876
0
ARC
8
DEFAULT_255_2_778
10
8.9101718
20
34.2915303
40
0.5022739
50
140.0842404
51
148.6267469
0
ARC
8
DEFAULT_255_2_778
10
8.9112889
20
37.5219796
40
0.5033686
50
211.3333413
51
219.8665123
0
ARC
8
DEFAULT_255_2_778
10
12.3593984
20
34.4820242
40
0.0765703
50
200.2278694
51
259.5675663
0
ARC
8
DEFAULT_255_2_778
10
12.6678448
20
34.6547719
40
0.4293171
50
193.7513208
51
207.6483993
0
ARC
8
DEFAULT_255_2_778
10
9.0764414
20
34.6693856
40
0.3871838
50
90.9187098
51
141.4987697
0
ARC
8
DEFAULT_255_2_778
10
12.0464688
20
34.9812861
40
0.0765005
50
20.1765003
51
79.5582713
0
ARC
8
DEFAULT_255_2_778
10
11.7355633
20
34.8074452
40
0.4319245
50
13.7926285
51
27.6176561
0
ARC
8
DEFAULT_255_2_778
10
8.6283624
20
34.3537423
40
0.2290879
50
152.19043
51
164.381527
0
ARC
8
DEFAULT_255_2_778
10
8.6230827
20
37.4577744
40
0.2231166
50
195.4545428
51
207.9731972
0
LINE
8
DEFAULT_255_2_778
10
11.9685334
20
38.8667197
11
11.9685334
21
40.5667197
0
LINE
8
DEFAULT_255_2_778
10
9.2409334
20
38.8667197
11
9.2409334
21
40.5667197
0
LINE
8
DEFAULT_255_2_778
10
9.3237334
20
40.5667197
11
9.3237334
21
38.8667197
0
LINE
8
DEFAULT_255_2_778
10
8.5249334
20
38.4241197
11
8.5249334
21
41.0096197
0
LINE
8
DEFAULT_255_2_778
10
12.0605334
20
40.5670197
11
9.0702334
21
40.5670197
0
LINE
8
DEFAULT_255_2_778
10
9.0702334
20
38.8667197
11
12.0603334
21
38.8667197
0
LINE
8
DEFAULT_255_2_778
10
12.0603334
20
38.8667197
11
12.0603334
21
38.8667197
0
LINE
8
DEFAULT_255_2_778
10
12.3452334
20
38.2169197
11
12.3452334
21
38.2169197
0
LINE
8
DEFAULT_255_2_778
10
8.5249334
20
41.0096197
11
8.7736334
21
40.7133197
0
LINE
8
DEFAULT_255_2_778
10
8.7736334
20
40.7133197
11
12.1550334
21
40.7133197
0
LINE
8
DEFAULT_255_2_778
10
12.1550334
20
40.7133197
11
12.2508334
21
41.0705197
0
LINE
8
DEFAULT_255_2_778
10
12.2508334
20
41.0705197
11
8.4813334
21
41.0705197
0
LINE
8
DEFAULT_255_2_778
10
8.4813334
20
41.0705197
11
8.4709334
21
41.0874197
0
LINE
8
DEFAULT_255_2_778
10
8.4709334
20
41.0874197
11
8.4260334
21
41.1631197
0
LINE
8
DEFAULT_255_2_778
10
8.4260334
20
38.2709197
11
8.4709334
21
38.3466197
0
LINE
8
DEFAULT_255_2_778
10
8.4709334
20
38.3466197
11
8.4813334
21
38.3635197
0
LINE
8
DEFAULT_255_2_778
10
8.4813334
20
38.3635197
11
12.2508334
21
38.3635197
0
LINE
8
DEFAULT_255_2_778
10
12.2508334
20
38.3635197
11
12.1550334
21
38.7207197
0
LINE
8
DEFAULT_255_2_778
10
12.1550334
20
38.7207197
11
8.7736334
21
38.7207197
0
LINE
8
DEFAULT_255_2_778
10
8.7736334
20
38.7207197
11
8.5249334
21
38.4244197
0
LINE
8
DEFAULT_255_2_778
10
8.4080334
20
38.2172197
11
8.4080334
21
41.2173197
0
LINE
8
DEFAULT_255_2_778
10
8.4080334
20
41.2173197
11
12.6918334
21
41.2173197
0
LINE
8
DEFAULT_255_2_778
10
12.6918334
20
41.2173197
11
12.6918334
21
38.2172197
0
LINE
8
DEFAULT_255_2_778
10
12.6918334
20
38.2172197
11
8.4080334
21
38.2172197
0
LINE
8
DEFAULT_255_2_778
10
11.9685334
20
35.0567197
11
11.9685334
21
36.7567197
0
LINE
8
DEFAULT_255_2_778
10
9.2409334
20
35.0567197
11
9.2409334
21
36.7567197
0
LINE
8
DEFAULT_255_2_778
10
12.0603334
20
36.7567197
11
9.0702334
21
36.7567197
0
LINE
8
DEFAULT_255_2_778
10
8.5249334
20
34.6138197
11
8.5249334
21
37.1993197
0
LINE
8
DEFAULT_255_2_778
10
9.3237334
20
36.7567197
11
9.3237334
21
35.0567197
0
LINE
8
DEFAULT_255_2_778
10
12.3455334
20
34.4067197
11
12.3455334
21
34.4067197
0
LINE
8
DEFAULT_255_2_778
10
9.0702334
20
35.0565197
11
12.0603334
21
35.0565197
0
LINE
8
DEFAULT_255_2_778
10
12.0603334
20
35.0565197
11
12.0603334
21
35.0565197
0
LINE
8
DEFAULT_255_2_778
10
8.4257334
20
34.4606197
11
8.4707334
21
34.5363197
0
LINE
8
DEFAULT_255_2_778
10
8.4707334
20
34.5363197
11
8.4810334
21
34.5532197
0
LINE
8
DEFAULT_255_2_778
10
8.4810334
20
34.5532197
11
12.2505334
21
34.5532197
0
LINE
8
DEFAULT_255_2_778
10
12.2505334
20
34.5532197
11
12.1547334
21
34.9104197
0
LINE
8
DEFAULT_255_2_778
10
12.1547334
20
34.9104197
11
8.7736334
21
34.9104197
0
LINE
8
DEFAULT_255_2_778
10
8.7736334
20
34.9104197
11
8.5249334
21
34.6141197
0
LINE
8
DEFAULT_255_2_778
10
8.5249334
20
37.1996197
11
8.7736334
21
36.9033197
0
LINE
8
DEFAULT_255_2_778
10
8.7736334
20
36.9033197
11
12.1550334
21
36.9033197
0
LINE
8
DEFAULT_255_2_778
10
12.1550334
20
36.9033197
11
12.2508334
21
37.2605197
0
LINE
8
DEFAULT_255_2_778
10
12.2508334
20
37.2605197
11
8.4813334
21
37.2605197
0
LINE
8
DEFAULT_255_2_778
10
8.4813334
20
37.2605197
11
8.4709334
21
37.2774197
0
LINE
8
DEFAULT_255_2_778
10
8.4709334
20
37.2774197
11
8.4260334
21
37.3531197
0
LINE
8
DEFAULT_255_2_778
10
8.4080334
20
34.4069197
11
8.4080334
21
37.4070197
0
LINE
8
DEFAULT_255_2_778
10
8.4080334
20
37.4070197
11
12.6918334
21
37.4070197
0
LINE
8
DEFAULT_255_2_778
10
12.6918334
20
37.4070197
11
12.6918334
21
34.4069197
0
LINE
8
DEFAULT_255_2_778
10
12.6918334
20
34.4069197
11
8.4080334
21
34.4069197
0
ARC
8
DEFAULT_255_2_778
10
12.6391897
20
33.3575347
40
0.3996988
50
149.9820241
51
166.5423651
0
ARC
8
DEFAULT_255_2_778
10
12.3549981
20
33.5292001
40
0.0680547
50
98.221978
51
155.4345218
0
ARC
8
DEFAULT_255_2_778
10
11.7712924
20
33.1838271
40
0.3943109
50
329.6676538
51
346.6610538
0
ARC
8
DEFAULT_255_2_778
10
12.0508813
20
33.0131944
40
0.0670987
50
278.0397103
51
334.8650665
0
ARC
8
DEFAULT_255_2_778
10
9.0765527
20
33.334257
40
0.3875528
50
218.5273005
51
269.0704877
0
ARC
8
DEFAULT_255_2_778
10
8.9112212
20
30.4812953
40
0.5033686
50
140.1334877
51
148.6666587
0
ARC
8
DEFAULT_255_2_778
10
8.910104
20
33.7117445
40
0.5022739
50
211.3732531
51
219.9157596
0
ARC
8
DEFAULT_255_2_778
10
12.3593292
20
30.671997
40
0.0765083
50
200.1949151
51
259.5602106
0
ARC
8
DEFAULT_255_2_778
10
12.6699442
20
30.8457892
40
0.4316557
50
193.8095269
51
207.6329044
0
ARC
8
DEFAULT_255_2_778
10
9.0764186
20
30.8591605
40
0.3874435
50
90.909938
51
141.4611708
0
ARC
8
DEFAULT_255_2_778
10
12.0464006
20
31.1712506
40
0.0765703
50
20.2278694
51
79.5675663
0
ARC
8
DEFAULT_255_2_778
10
11.7379543
20
30.9985029
40
0.4293171
50
13.7513208
51
27.6483993
0
ARC
8
DEFAULT_255_2_778
10
8.6294785
20
33.6499473
40
0.22997
50
195.5867147
51
207.7541582
0
ARC
8
DEFAULT_255_2_778
10
8.5899779
20
30.5563835
40
0.1895672
50
147.7443409
51
163.2376555
0
LINE
8
DEFAULT_255_2_778
10
12.6918657
20
33.5968552
11
12.6918657
21
30.5967552
0
LINE
8
DEFAULT_255_2_778
10
12.6918657
20
30.5967552
11
8.4079657
21
30.5967552
0
LINE
8
DEFAULT_255_2_778
10
8.4079657
20
30.5967552
11
8.4079657
21
33.5968552
0
LINE
8
DEFAULT_255_2_778
10
8.4079657
20
33.5968552
11
12.6918657
21
33.5968552
0
LINE
8
DEFAULT_255_2_778
10
11.9684657
20
31.2468552
11
11.9684657
21
32.9467552
0
LINE
8
DEFAULT_255_2_778
10
9.2408657
20
31.2468552
11
9.2408657
21
32.9467552
0
LINE
8
DEFAULT_255_2_778
10
12.0602657
20
32.9467552
11
9.0702657
21
32.9467552
0
LINE
8
DEFAULT_255_2_778
10
8.5248657
20
30.8039552
11
8.5248657
21
33.3894552
0
LINE
8
DEFAULT_255_2_778
10
9.3236657
20
32.9467552
11
9.3236657
21
31.2468552
0
LINE
8
DEFAULT_255_2_778
10
12.3454657
20
30.5967552
11
12.3454657
21
30.5967552
0
LINE
8
DEFAULT_255_2_778
10
9.0702657
20
31.2465552
11
12.0602657
21
31.2465552
0
LINE
8
DEFAULT_255_2_778
10
12.0602657
20
31.2465552
11
12.0602657
21
31.2465552
0
LINE
8
DEFAULT_255_2_778
10
8.5246657
20
33.3894552
11
8.7733657
21
33.0930552
0
LINE
8
DEFAULT_255_2_778
10
8.7733657
20
33.0930552
11
12.1549657
21
33.0930552
0
LINE
8
DEFAULT_255_2_778
10
12.1549657
20
33.0930552
11
12.2507657
21
33.4502552
0
LINE
8
DEFAULT_255_2_778
10
12.2507657
20
33.4502552
11
8.4812657
21
33.4502552
0
LINE
8
DEFAULT_255_2_778
10
8.4812657
20
33.4502552
11
8.4709657
21
33.4672552
0
LINE
8
DEFAULT_255_2_778
10
8.4709657
20
33.4672552
11
8.4259657
21
33.5428552
0
LINE
8
DEFAULT_255_2_778
10
8.5248657
20
30.8041552
11
8.7736657
21
31.1005552
0
LINE
8
DEFAULT_255_2_778
10
8.7736657
20
31.1005552
11
12.1549657
21
31.1005552
0
LINE
8
DEFAULT_255_2_778
10
12.1549657
20
31.1005552
11
12.2507657
21
30.7433552
0
LINE
8
DEFAULT_255_2_778
10
12.2507657
20
30.7433552
11
8.4812657
21
30.7433552
0
LINE
8
DEFAULT_255_2_778
10
8.4812657
20
30.7433552
11
8.4296657
21
30.6575552
0
LINE
8
DEFAULT_255_2_778
10
8.4084657
20
30.6110552
11
8.4079657
21
30.6054552
0
ARC
8
DEFAULT_255_2_778
10
12.6391897
20
29.5475347
40
0.3996988
50
149.9820241
51
166.5423651
0
ARC
8
DEFAULT_255_2_778
10
12.3549981
20
29.7192001
40
0.0680547
50
98.221978
51
155.4345218
0
ARC
8
DEFAULT_255_2_778
10
11.7712924
20
29.3738271
40
0.3943109
50
329.6676538
51
346.6610538
0
ARC
8
DEFAULT_255_2_778
10
12.0508813
20
29.2031944
40
0.0670987
50
278.0397103
51
334.8650665
0
ARC
8
DEFAULT_255_2_778
10
9.0765527
20
29.524257
40
0.3875528
50
218.5273005
51
269.0704877
0
ARC
8
DEFAULT_255_2_778
10
8.9112212
20
26.6712953
40
0.5033686
50
140.1334877
51
148.6666587
0
ARC
8
DEFAULT_255_2_778
10
8.910104
20
29.9017445
40
0.5022739
50
211.3732531
51
219.9157596
0
ARC
8
DEFAULT_255_2_778
10
12.3593292
20
26.861997
40
0.0765083
50
200.1949151
51
259.5602106
0
ARC
8
DEFAULT_255_2_778
10
12.6699442
20
27.0357892
40
0.4316557
50
193.8095269
51
207.6329044
0
ARC
8
DEFAULT_255_2_778
10
9.0764186
20
27.0491605
40
0.3874435
50
90.909938
51
141.4611708
0
ARC
8
DEFAULT_255_2_778
10
12.0464006
20
27.3612506
40
0.0765703
50
20.2278694
51
79.5675663
0
ARC
8
DEFAULT_255_2_778
10
11.7379543
20
27.1885029
40
0.4293171
50
13.7513208
51
27.6483993
0
ARC
8
DEFAULT_255_2_778
10
8.5902467
20
26.7461781
40
0.1897974
50
147.7862508
51
163.2883866
0
ARC
8
DEFAULT_255_2_778
10
8.628592
20
29.8395313
40
0.229085
50
195.6183545
51
207.8096096
0
LINE
8
DEFAULT_255_2_778
10
12.6918657
20
29.7868552
11
12.6918657
21
26.7867552
0
LINE
8
DEFAULT_255_2_778
10
12.6918657
20
26.7867552
11
8.4079657
21
26.7867552
0
LINE
8
DEFAULT_255_2_778
10
8.4079657
20
26.7867552
11
8.4079657
21
29.7868552
0
LINE
8
DEFAULT_255_2_778
10
8.4079657
20
29.7868552
11
12.6918657
21
29.7868552
0
LINE
8
DEFAULT_255_2_778
10
11.9684657
20
27.4368552
11
11.9684657
21
29.1367552
0
LINE
8
DEFAULT_255_2_778
10
9.2408657
20
27.4368552
11
9.2408657
21
29.1367552
0
LINE
8
DEFAULT_255_2_778
10
12.0602657
20
29.1367552
11
9.0702657
21
29.1367552
0
LINE
8
DEFAULT_255_2_778
10
8.5248657
20
26.9939552
11
8.5248657
21
29.5794552
0
LINE
8
DEFAULT_255_2_778
10
9.3236657
20
29.1367552
11
9.3236657
21
27.4368552
0
LINE
8
DEFAULT_255_2_778
10
12.3454657
20
26.7867552
11
12.3454657
21
26.7867552
0
LINE
8
DEFAULT_255_2_778
10
9.0702657
20
27.4365552
11
12.0602657
21
27.4365552
0
LINE
8
DEFAULT_255_2_778
10
12.0602657
20
27.4365552
11
12.0602657
21
27.4365552
0
LINE
8
DEFAULT_255_2_778
10
8.5246657
20
26.9939552
11
8.7733657
21
27.2902552
0
LINE
8
DEFAULT_255_2_778
10
8.7733657
20
27.2902552
11
12.1549657
21
27.2902552
0
LINE
8
DEFAULT_255_2_778
10
12.1549657
20
27.2902552
11
12.2507657
21
26.9330552
0
LINE
8
DEFAULT_255_2_778
10
12.2507657
20
26.9330552
11
8.4812657
21
26.9330552
0
LINE
8
DEFAULT_255_2_778
10
8.4812657
20
26.9330552
11
8.4296657
21
26.8473552
0
LINE
8
DEFAULT_255_2_778
10
8.4084657
20
26.8007552
11
8.4079657
21
26.7952552
0
LINE
8
DEFAULT_255_2_778
10
8.5248657
20
29.5791552
11
8.7736657
21
29.2828552
0
LINE
8
DEFAULT_255_2_778
10
8.7736657
20
29.2828552
11
12.1549657
21
29.2828552
0
LINE
8
DEFAULT_255_2_778
10
12.1549657
20
29.2828552
11
12.2507657
21
29.6400552
0
LINE
8
DEFAULT_255_2_778
10
12.2507657
20
29.6400552
11
8.4812657
21
29.6400552
0
LINE
8
DEFAULT_255_2_778
10
8.4812657
20
29.6400552
11
8.4709657
21
29.6569552
0
LINE
8
DEFAULT_255_2_778
10
8.4709657
20
29.6569552
11
8.4259657
21
29.7326552
0
ARC
8
DEFAULT_255_2_778
10
12.6391897
20
25.7375347
40
0.3996988
50
149.9820241
51
166.5423651
0
ARC
8
DEFAULT_255_2_778
10
12.3549981
20
25.9092001
40
0.0680547
50
98.221978
51
155.4345218
0
ARC
8
DEFAULT_255_2_778
10
11.7712924
20
25.5638271
40
0.3943109
50
329.6676538
51
346.6610538
0
ARC
8
DEFAULT_255_2_778
10
12.0508813
20
25.3931944
40
0.0670987
50
278.0397103
51
334.8650665
0
ARC
8
DEFAULT_255_2_778
10
9.0765527
20
25.714257
40
0.3875528
50
218.5273005
51
269.0704877
0
ARC
8
DEFAULT_255_2_778
10
8.9112212
20
22.8612953
40
0.5033686
50
140.1334877
51
148.6666587
0
ARC
8
DEFAULT_255_2_778
10
8.910104
20
26.0917445
40
0.5022739
50
211.3732531
51
219.9157596
0
ARC
8
DEFAULT_255_2_778
10
12.3593292
20
23.051997
40
0.0765083
50
200.1949151
51
259.5602106
0
ARC
8
DEFAULT_255_2_778
10
12.6699442
20
23.2257892
40
0.4316557
50
193.8095269
51
207.6329044
0
ARC
8
DEFAULT_255_2_778
10
9.0764186
20
23.2391605
40
0.3874435
50
90.909938
51
141.4611708
0
ARC
8
DEFAULT_255_2_778
10
12.0464006
20
23.5512506
40
0.0765703
50
20.2278694
51
79.5675663
0
ARC
8
DEFAULT_255_2_778
10
11.7379543
20
23.3785029
40
0.4293171
50
13.7513208
51
27.6483993
0
ARC
8
DEFAULT_255_2_778
10
8.6294785
20
26.0299473
40
0.22997
50
195.5867147
51
207.7541582
0
ARC
8
DEFAULT_255_2_778
10
8.5899779
20
22.9363835
40
0.1895672
50
147.7443409
51
163.2376555
0
LINE
8
DEFAULT_255_2_778
10
9.2408657
20
23.6268552
11
9.2408657
21
25.3267552
0
LINE
8
DEFAULT_255_2_778
10
12.0602657
20
25.3267552
11
9.0702657
21
25.3267552
0
LINE
8
DEFAULT_255_2_778
10
8.5248657
20
23.1839552
11
8.5248657
21
25.7694552
0
LINE
8
DEFAULT_255_2_778
10
9.3236657
20
25.3267552
11
9.3236657
21
23.6268552
0
LINE
8
DEFAULT_255_2_778
10
12.3454657
20
22.9767552
11
12.3454657
21
22.9767552
0
LINE
8
DEFAULT_255_2_778
10
9.0702657
20
23.6265552
11
12.0602657
21
23.6265552
0
LINE
8
DEFAULT_255_2_778
10
12.0602657
20
23.6265552
11
12.0602657
21
23.6265552
0
LINE
8
DEFAULT_255_2_778
10
8.5246657
20
25.7694552
11
8.7733657
21
25.4730552
0
LINE
8
DEFAULT_255_2_778
10
8.7733657
20
25.4730552
11
12.1549657
21
25.4730552
0
LINE
8
DEFAULT_255_2_778
10
12.1549657
20
25.4730552
11
12.2507657
21
25.8302552
0
LINE
8
DEFAULT_255_2_778
10
12.2507657
20
25.8302552
11
8.4812657
21
25.8302552
0
LINE
8
DEFAULT_255_2_778
10
8.4812657
20
25.8302552
11
8.4709657
21
25.8472552
0
LINE
8
DEFAULT_255_2_778
10
8.4709657
20
25.8472552
11
8.4259657
21
25.9228552
0
LINE
8
DEFAULT_255_2_778
10
8.5248657
20
23.1841552
11
8.7736657
21
23.4805552
0
LINE
8
DEFAULT_255_2_778
10
8.7736657
20
23.4805552
11
12.1549657
21
23.4805552
0
LINE
8
DEFAULT_255_2_778
10
12.1549657
20
23.4805552
11
12.2507657
21
23.1233552
0
LINE
8
DEFAULT_255_2_778
10
12.2507657
20
23.1233552
11
8.4812657
21
23.1233552
0
LINE
8
DEFAULT_255_2_778
10
8.4812657
20
23.1233552
11
8.4296657
21
23.0375552
0
LINE
8
DEFAULT_255_2_778
10
8.4084657
20
22.9910552
11
8.4079657
21
22.9854552
0
LINE
8
DEFAULT_255_2_778
10
12.6918657
20
25.9768552
11
12.6918657
21
22.9767552
0
LINE
8
DEFAULT_255_2_778
10
12.6918657
20
22.9767552
11
8.4079657
21
22.9767552
0
LINE
8
DEFAULT_255_2_778
10
8.4079657
20
22.9767552
11
8.4079657
21
25.9768552
0
LINE
8
DEFAULT_255_2_778
10
8.4079657
20
25.9768552
11
12.6918657
21
25.9768552
0
LINE
8
DEFAULT_255_2_778
10
11.9684657
20
23.6268552
11
11.9684657
21
25.3267552
0
ARC
8
DEFAULT_255_2_778
10
12.6391897
20
21.9275345
40
0.3996988
50
149.9820241
51
166.5423651
0
ARC
8
DEFAULT_255_2_778
10
12.3549981
20
22.0991999
40
0.0680547
50
98.221978
51
155.4345218
0
ARC
8
DEFAULT_255_2_778
10
11.7712924
20
21.7538269
40
0.3943109
50
329.6676538
51
346.6610538
0
ARC
8
DEFAULT_255_2_778
10
12.0508813
20
21.5831942
40
0.0670987
50
278.0397103
51
334.8650665
0
ARC
8
DEFAULT_255_2_778
10
9.0765525
20
21.9042563
40
0.3875523
50
218.5272646
51
269.0705184
0
ARC
8
DEFAULT_255_2_778
10
8.9112212
20
19.0512951
40
0.5033686
50
140.1334877
51
148.6666587
0
ARC
8
DEFAULT_255_2_778
10
8.910104
20
22.2817443
40
0.5022739
50
211.3732531
51
219.9157596
0
ARC
8
DEFAULT_255_2_778
10
12.3593292
20
19.2419968
40
0.0765083
50
200.1949151
51
259.5602106
0
ARC
8
DEFAULT_255_2_778
10
12.6699442
20
19.415789
40
0.4316557
50
193.8095269
51
207.6329044
0
ARC
8
DEFAULT_255_2_778
10
9.0764186
20
19.4291603
40
0.3874435
50
90.909938
51
141.4611708
0
ARC
8
DEFAULT_255_2_778
10
12.0464006
20
19.7412504
40
0.0765703
50
20.2278694
51
79.5675663
0
ARC
8
DEFAULT_255_2_778
10
11.7379543
20
19.5685027
40
0.4293171
50
13.7513208
51
27.6483993
0
ARC
8
DEFAULT_255_2_778
10
8.5902407
20
19.126181
40
0.1897907
50
147.7860848
51
163.2887723
0
ARC
8
DEFAULT_255_2_778
10
8.628596
20
22.2195325
40
0.2290891
50
195.6184184
51
207.8094505
0
ARC
8
DEFAULT_255_2_778
10
12.6352758
20
18.1191077
40
0.3955962
50
149.6612324
51
166.5897714
0
ARC
8
DEFAULT_255_2_778
10
12.3545925
20
18.2904046
40
0.0671017
50
97.9897192
51
154.8445016
0
ARC
8
DEFAULT_255_2_778
10
11.7720272
20
17.9438267
40
0.3935498
50
329.6452226
51
346.6647383
0
ARC
8
DEFAULT_255_2_778
10
12.0509188
20
17.7734803
40
0.0670796
50
278.0096476
51
334.8244367
0
ARC
8
DEFAULT_255_2_778
10
9.0765779
20
18.0947736
40
0.38777
50
218.5615996
51
269.0672767
0
ARC
8
DEFAULT_255_2_778
10
8.910104
20
15.2418656
40
0.5022739
50
140.0842404
51
148.6267469
0
ARC
8
DEFAULT_255_2_778
10
8.9112212
20
18.4723148
40
0.5033686
50
211.3333413
51
219.8665123
0
ARC
8
DEFAULT_255_2_778
10
12.3593292
20
15.4322968
40
0.0765083
50
200.1949151
51
259.5602106
0
ARC
8
DEFAULT_255_2_778
10
12.6699442
20
15.606089
40
0.4316557
50
193.8095269
51
207.6329044
0
ARC
8
DEFAULT_255_2_778
10
9.0763934
20
15.6196766
40
0.3872268
50
90.9067244
51
141.4954594
0
ARC
8
DEFAULT_255_2_778
10
12.046348
20
15.9315198
40
0.0766099
50
20.1942629
51
79.532957
0
ARC
8
DEFAULT_255_2_778
10
11.7371655
20
15.7584885
40
0.4301342
50
13.7540584
51
27.6297483
0
ARC
8
DEFAULT_255_2_778
10
8.6294733
20
18.4099447
40
0.2299643
50
195.5864906
51
207.7542331
0
ARC
8
DEFAULT_255_2_778
10
8.5899719
20
15.3163865
40
0.1895604
50
147.7441745
51
163.2380419
0
ARC
8
DEFAULT_255_2_778
10
12.6342009
20
14.3098163
40
0.3940947
50
149.6528583
51
166.6436337
0
ARC
8
DEFAULT_255_2_778
10
12.3548508
20
14.4804058
40
0.0671086
50
98.0391121
51
154.8484152
0
ARC
8
DEFAULT_255_2_778
10
11.7723272
20
14.1338267
40
0.3935498
50
329.6452226
51
346.6647383
0
ARC
8
DEFAULT_255_2_778
10
12.0512188
20
13.9634803
40
0.0670796
50
278.0096476
51
334.8244367
0
ARC
8
DEFAULT_255_2_778
10
9.0765779
20
14.2847736
40
0.38777
50
218.5615996
51
269.0672767
0
ARC
8
DEFAULT_255_2_778
10
8.910104
20
11.4318656
40
0.5022739
50
140.0842404
51
148.6267469
0
ARC
8
DEFAULT_255_2_778
10
8.9112212
20
14.6623148
40
0.5033686
50
211.3333413
51
219.8665123
0
ARC
8
DEFAULT_255_2_778
10
12.3593292
20
11.6222968
40
0.0765083
50
200.1949151
51
259.5602106
0
ARC
8
DEFAULT_255_2_778
10
12.6699442
20
11.796089
40
0.4316557
50
193.8095269
51
207.6329044
0
ARC
8
DEFAULT_255_2_778
10
9.0763937
20
11.8096759
40
0.3872274
50
90.9067609
51
141.4954069
0
ARC
8
DEFAULT_255_2_778
10
12.046348
20
12.1215198
40
0.0766099
50
20.1942629
51
79.532957
0
ARC
8
DEFAULT_255_2_778
10
11.7371655
20
11.9484885
40
0.4301342
50
13.7540584
51
27.6297483
0
ARC
8
DEFAULT_255_2_778
10
8.629476
20
14.599946
40
0.2299673
50
195.5866086
51
207.7541936
0
ARC
8
DEFAULT_255_2_778
10
8.5899678
20
11.5063879
40
0.1895562
50
147.7438909
51
163.2381133
0
ARC
8
DEFAULT_255_2_778
10
12.6391897
20
10.4975345
40
0.3996988
50
149.9820241
51
166.5423651
0
ARC
8
DEFAULT_255_2_778
10
12.3549981
20
10.6691999
40
0.0680547
50
98.221978
51
155.4345218
0
ARC
8
DEFAULT_255_2_778
10
11.7712924
20
10.3238269
40
0.3943109
50
329.6676538
51
346.6610538
0
ARC
8
DEFAULT_255_2_778
10
12.0508813
20
10.1531942
40
0.0670987
50
278.0397103
51
334.8650665
0
ARC
8
DEFAULT_255_2_778
10
9.0765529
20
10.4742571
40
0.3875531
50
218.5273135
51
269.0704516
0
ARC
8
DEFAULT_255_2_778
10
8.9112212
20
7.6212951
40
0.5033686
50
140.1334877
51
148.6666587
0
ARC
8
DEFAULT_255_2_778
10
8.910104
20
10.8517443
40
0.5022739
50
211.3732531
51
219.9157596
0
ARC
8
DEFAULT_255_2_778
10
12.3593292
20
7.8119968
40
0.0765083
50
200.1949151
51
259.5602106
0
ARC
8
DEFAULT_255_2_778
10
12.6699442
20
7.985789
40
0.4316557
50
193.8095269
51
207.6329044
0
ARC
8
DEFAULT_255_2_778
10
9.0764186
20
7.9991603
40
0.3874435
50
90.909938
51
141.4611708
0
ARC
8
DEFAULT_255_2_778
10
12.0464006
20
8.3112504
40
0.0765703
50
20.2278694
51
79.5675663
0
ARC
8
DEFAULT_255_2_778
10
11.7379543
20
8.1385027
40
0.4293171
50
13.7513208
51
27.6483993
0
ARC
8
DEFAULT_255_2_778
10
8.6294785
20
10.7899471
40
0.22997
50
195.5867147
51
207.7541582
0
ARC
8
DEFAULT_255_2_778
10
8.6294733
20
7.6836652
40
0.2299644
50
152.2457669
51
164.4135094
0
ARC
8
DEFAULT_255_2_778
10
12.6391897
20
6.6875345
40
0.3996988
50
149.9820241
51
166.5423651
0
ARC
8
DEFAULT_255_2_778
10
12.3549981
20
6.8591999
40
0.0680547
50
98.221978
51
155.4345218
0
ARC
8
DEFAULT_255_2_778
10
11.7712924
20
6.5138269
40
0.3943109
50
329.6676538
51
346.6610538
0
ARC
8
DEFAULT_255_2_778
10
12.0508813
20
6.3431942
40
0.0670987
50
278.0397103
51
334.8650665
0
ARC
8
DEFAULT_255_2_778
10
9.0765522
20
6.664256
40
0.387552
50
218.5272517
51
269.0705545
0
ARC
8
DEFAULT_255_2_778
10
8.9112212
20
3.8112951
40
0.5033686
50
140.1334877
51
148.6666587
0
ARC
8
DEFAULT_255_2_778
10
8.910104
20
7.0417443
40
0.5022739
50
211.3732531
51
219.9157596
0
ARC
8
DEFAULT_255_2_778
10
12.3593292
20
4.0019968
40
0.0765083
50
200.1949151
51
259.5602106
0
ARC
8
DEFAULT_255_2_778
10
12.6699442
20
4.175789
40
0.4316557
50
193.8095269
51
207.6329044
0
ARC
8
DEFAULT_255_2_778
10
9.0764186
20
4.1891603
40
0.3874435
50
90.909938
51
141.4611708
0
ARC
8
DEFAULT_255_2_778
10
12.0464006
20
4.5012504
40
0.0765703
50
20.2278694
51
79.5675663
0
ARC
8
DEFAULT_255_2_778
10
11.7379543
20
4.3285027
40
0.4293171
50
13.7513208
51
27.6483993
0
ARC
8
DEFAULT_255_2_778
10
8.6294733
20
6.9799447
40
0.2299643
50
195.5864906
51
207.7542331
0
ARC
8
DEFAULT_255_2_778
10
7.368756
20
4.2628271
40
1.0895546
50
342.5145146
51
342.6058556
0
ARC
8
DEFAULT_255_2_778
10
8.6366817
20
3.8710396
40
0.2375683
50
152.4949602
51
163.8519751
0
LINE
8
DEFAULT_255_2_778
10
12.6918657
20
22.166855
11
12.6918657
21
19.166755
0
LINE
8
DEFAULT_255_2_778
10
12.6918657
20
19.166755
11
8.4079657
21
19.166755
0
LINE
8
DEFAULT_255_2_778
10
8.4079657
20
19.166755
11
8.4079657
21
22.166855
0
LINE
8
DEFAULT_255_2_778
10
8.4079657
20
22.166855
11
12.6918657
21
22.166855
0
LINE
8
DEFAULT_255_2_778
10
9.2408657
20
19.816855
11
9.2408657
21
21.516755
0
LINE
8
DEFAULT_255_2_778
10
12.0602657
20
21.516755
11
9.0702657
21
21.516755
0
LINE
8
DEFAULT_255_2_778
10
8.5248657
20
19.373955
11
8.5248657
21
21.959455
0
LINE
8
DEFAULT_255_2_778
10
9.3236657
20
21.516755
11
9.3236657
21
19.816855
0
LINE
8
DEFAULT_255_2_778
10
12.3454657
20
19.166755
11
12.3454657
21
19.166755
0
LINE
8
DEFAULT_255_2_778
10
9.0702657
20
19.816555
11
12.0602657
21
19.816555
0
LINE
8
DEFAULT_255_2_778
10
12.0602657
20
19.816555
11
12.0602657
21
19.816555
0
LINE
8
DEFAULT_255_2_778
10
8.5246657
20
19.373955
11
8.7733657
21
19.670255
0
LINE
8
DEFAULT_255_2_778
10
8.7733657
20
19.670255
11
12.1549657
21
19.670255
0
LINE
8
DEFAULT_255_2_778
10
12.1549657
20
19.670255
11
12.2507657
21
19.313055
0
LINE
8
DEFAULT_255_2_778
10
12.2507657
20
19.313055
11
8.4812657
21
19.313055
0
LINE
8
DEFAULT_255_2_778
10
8.4812657
20
19.313055
11
8.4296657
21
19.227355
0
LINE
8
DEFAULT_255_2_778
10
8.4084657
20
19.180755
11
8.4079657
21
19.175255
0
LINE
8
DEFAULT_255_2_778
10
8.5248657
20
21.959155
11
8.7736657
21
21.662855
0
LINE
8
DEFAULT_255_2_778
10
8.7736657
20
21.662855
11
12.1549657
21
21.662855
0
LINE
8
DEFAULT_255_2_778
10
12.1549657
20
21.662855
11
12.2507657
21
22.020055
0
LINE
8
DEFAULT_255_2_778
10
12.2507657
20
22.020055
11
8.4812657
21
22.020055
0
LINE
8
DEFAULT_255_2_778
10
8.4812657
20
22.020055
11
8.4709657
21
22.036955
0
LINE
8
DEFAULT_255_2_778
10
8.4709657
20
22.036955
11
8.4259657
21
22.112655
0
LINE
8
DEFAULT_255_2_778
10
11.9684657
20
19.816555
11
11.9684657
21
21.516555
0
LINE
8
DEFAULT_255_2_778
10
12.6918657
20
18.356855
11
12.6918657
21
15.356755
0
LINE
8
DEFAULT_255_2_778
10
12.6918657
20
15.356755
11
8.4079657
21
15.356755
0
LINE
8
DEFAULT_255_2_778
10
8.4079657
20
15.356755
11
8.4079657
21
18.356855
0
LINE
8
DEFAULT_255_2_778
10
8.4079657
20
18.356855
11
12.6918657
21
18.356855
0
LINE
8
DEFAULT_255_2_778
10
12.0602657
20
17.707055
11
9.0702657
21
17.707055
0
LINE
8
DEFAULT_255_2_778
10
8.5248657
20
15.564155
11
8.5248657
21
18.149655
0
LINE
8
DEFAULT_255_2_778
10
9.3236657
20
17.707055
11
9.3236657
21
16.007055
0
LINE
8
DEFAULT_255_2_778
10
12.3454657
20
15.357055
11
12.3454657
21
15.357055
0
LINE
8
DEFAULT_255_2_778
10
9.0702657
20
16.006855
11
12.0602657
21
16.006855
0
LINE
8
DEFAULT_255_2_778
10
12.0602657
20
16.006855
11
12.0602657
21
16.006855
0
LINE
8
DEFAULT_255_2_778
10
11.9681657
20
16.006855
11
11.9681657
21
17.706755
0
LINE
8
DEFAULT_255_2_778
10
9.2405657
20
16.006855
11
9.2405657
21
17.706755
0
LINE
8
DEFAULT_255_2_778
10
8.5246657
20
18.149455
11
8.7733657
21
17.853055
0
LINE
8
DEFAULT_255_2_778
10
8.7733657
20
17.853055
11
12.1549657
21
17.853055
0
LINE
8
DEFAULT_255_2_778
10
12.1549657
20
17.853055
11
12.2507657
21
18.210255
0
LINE
8
DEFAULT_255_2_778
10
12.2507657
20
18.210255
11
8.4812657
21
18.210255
0
LINE
8
DEFAULT_255_2_778
10
8.4812657
20
18.210255
11
8.4709657
21
18.227255
0
LINE
8
DEFAULT_255_2_778
10
8.4709657
20
18.227255
11
8.4259657
21
18.302855
0
LINE
8
DEFAULT_255_2_778
10
8.5248657
20
15.564155
11
8.7736657
21
15.860555
0
LINE
8
DEFAULT_255_2_778
10
8.7736657
20
15.860555
11
12.1549657
21
15.860555
0
LINE
8
DEFAULT_255_2_778
10
12.1549657
20
15.860555
11
12.2507657
21
15.503355
0
LINE
8
DEFAULT_255_2_778
10
12.2507657
20
15.503355
11
8.4812657
21
15.503355
0
LINE
8
DEFAULT_255_2_778
10
8.4812657
20
15.503355
11
8.4296657
21
15.417555
0
LINE
8
DEFAULT_255_2_778
10
8.4084657
20
15.371055
11
8.4079657
21
15.365455
0
LINE
8
DEFAULT_255_2_778
10
12.0605657
20
13.897055
11
9.0702657
21
13.897055
0
LINE
8
DEFAULT_255_2_778
10
8.5248657
20
11.754155
11
8.5248657
21
14.339655
0
LINE
8
DEFAULT_255_2_778
10
9.3236657
20
13.897055
11
9.3236657
21
12.197055
0
LINE
8
DEFAULT_255_2_778
10
12.3454657
20
11.547055
11
12.3454657
21
11.547055
0
LINE
8
DEFAULT_255_2_778
10
9.0702657
20
12.196855
11
12.0602657
21
12.196855
0
LINE
8
DEFAULT_255_2_778
10
12.0602657
20
12.196855
11
12.0602657
21
12.196855
0
LINE
8
DEFAULT_255_2_778
10
12.6918657
20
14.546855
11
12.6918657
21
11.546755
0
LINE
8
DEFAULT_255_2_778
10
12.6918657
20
11.546755
11
8.4079657
21
11.546755
0
LINE
8
DEFAULT_255_2_778
10
8.4079657
20
11.546755
11
8.4079657
21
14.546855
0
LINE
8
DEFAULT_255_2_778
10
8.4079657
20
14.546855
11
12.6918657
21
14.546855
0
LINE
8
DEFAULT_255_2_778
10
11.9684657
20
12.196855
11
11.9684657
21
13.896755
0
LINE
8
DEFAULT_255_2_778
10
9.2408657
20
12.196855
11
9.2408657
21
13.896755
0
LINE
8
DEFAULT_255_2_778
10
8.5248657
20
14.339455
11
8.7736657
21
14.043055
0
LINE
8
DEFAULT_255_2_778
10
8.7736657
20
14.043055
11
12.1549657
21
14.043055
0
LINE
8
DEFAULT_255_2_778
10
12.1549657
20
14.043055
11
12.2507657
21
14.400255
0
LINE
8
DEFAULT_255_2_778
10
12.2507657
20
14.400255
11
8.4812657
21
14.400255
0
LINE
8
DEFAULT_255_2_778
10
8.4812657
20
14.400255
11
8.4709657
21
14.417255
0
LINE
8
DEFAULT_255_2_778
10
8.4709657
20
14.417255
11
8.4259657
21
14.492855
0
LINE
8
DEFAULT_255_2_778
10
8.5248657
20
11.754155
11
8.7736657
21
12.050555
0
LINE
8
DEFAULT_255_2_778
10
8.7736657
20
12.050555
11
12.1549657
21
12.050555
0
LINE
8
DEFAULT_255_2_778
10
12.1549657
20
12.050555
11
12.2507657
21
11.693355
0
LINE
8
DEFAULT_255_2_778
10
12.2507657
20
11.693355
11
8.4812657
21
11.693355
0
LINE
8
DEFAULT_255_2_778
10
8.4812657
20
11.693355
11
8.4296657
21
11.607555
0
LINE
8
DEFAULT_255_2_778
10
8.4084657
20
11.561055
11
8.4079657
21
11.555455
0
LINE
8
DEFAULT_255_2_778
10
11.9684657
20
8.386855
11
11.9684657
21
10.086755
0
LINE
8
DEFAULT_255_2_778
10
9.2408657
20
8.386855
11
9.2408657
21
10.086755
0
LINE
8
DEFAULT_255_2_778
10
12.0602657
20
10.086755
11
9.0702657
21
10.086755
0
LINE
8
DEFAULT_255_2_778
10
8.5248657
20
7.943955
11
8.5248657
21
10.529455
0
LINE
8
DEFAULT_255_2_778
10
9.3236657
20
10.086755
11
9.3236657
21
8.386855
0
LINE
8
DEFAULT_255_2_778
10
12.3454657
20
7.736755
11
12.3454657
21
7.736755
0
LINE
8
DEFAULT_255_2_778
10
9.0702657
20
8.386555
11
12.0602657
21
8.386555
0
LINE
8
DEFAULT_255_2_778
10
12.0602657
20
8.386555
11
12.0602657
21
8.386555
0
LINE
8
DEFAULT_255_2_778
10
8.5246657
20
10.529455
11
8.7733657
21
10.233055
0
LINE
8
DEFAULT_255_2_778
10
8.7733657
20
10.233055
11
12.1549657
21
10.233055
0
LINE
8
DEFAULT_255_2_778
10
12.1549657
20
10.233055
11
12.2507657
21
10.590255
0
LINE
8
DEFAULT_255_2_778
10
12.2507657
20
10.590255
11
8.4812657
21
10.590255
0
LINE
8
DEFAULT_255_2_778
10
8.4812657
20
10.590255
11
8.4709657
21
10.607255
0
LINE
8
DEFAULT_255_2_778
10
8.4709657
20
10.607255
11
8.4259657
21
10.682855
0
LINE
8
DEFAULT_255_2_778
10
8.4259657
20
7.790755
11
8.4709657
21
7.866355
0
LINE
8
DEFAULT_255_2_778
10
8.4709657
20
7.866355
11
8.4812657
21
7.883355
0
LINE
8
DEFAULT_255_2_778
10
8.4812657
20
7.883355
11
12.2507657
21
7.883355
0
LINE
8
DEFAULT_255_2_778
10
12.2507657
20
7.883355
11
12.1549657
21
8.240555
0
LINE
8
DEFAULT_255_2_778
10
12.1549657
20
8.240555
11
8.7736657
21
8.240555
0
LINE
8
DEFAULT_255_2_778
10
8.7736657
20
8.240555
11
8.5248657
21
7.944155
0
LINE
8
DEFAULT_255_2_778
10
8.4079657
20
7.737055
11
8.4079657
21
10.737155
0
LINE
8
DEFAULT_255_2_778
10
8.4079657
20
10.737155
11
12.6918657
21
10.737155
0
LINE
8
DEFAULT_255_2_778
10
12.6918657
20
10.737155
11
12.6918657
21
7.737055
0
LINE
8
DEFAULT_255_2_778
10
12.6918657
20
7.737055
11
8.4079657
21
7.737055
0
LINE
8
DEFAULT_255_2_778
10
11.9684657
20
4.576855
11
11.9684657
21
6.276755
0
LINE
8
DEFAULT_255_2_778
10
9.2408657
20
4.576855
11
9.2408657
21
6.276755
0
LINE
8
DEFAULT_255_2_778
10
12.0602657
20
6.276755
11
9.0702657
21
6.276755
0
LINE
8
DEFAULT_255_2_778
10
8.5248657
20
4.133955
11
8.5248657
21
6.719455
0
LINE
8
DEFAULT_255_2_778
10
9.3236657
20
6.276755
11
9.3236657
21
4.576855
0
LINE
8
DEFAULT_255_2_778
10
12.3454657
20
3.926755
11
12.3454657
21
3.926755
0
LINE
8
DEFAULT_255_2_778
10
9.0702657
20
4.576555
11
12.0602657
21
4.576555
0
LINE
8
DEFAULT_255_2_778
10
12.0602657
20
4.576555
11
12.0602657
21
4.576555
0
LINE
8
DEFAULT_255_2_778
10
8.5246657
20
6.719455
11
8.7733657
21
6.423055
0
LINE
8
DEFAULT_255_2_778
10
8.7733657
20
6.423055
11
12.1549657
21
6.423055
0
LINE
8
DEFAULT_255_2_778
10
12.1549657
20
6.423055
11
12.2507657
21
6.780255
0
LINE
8
DEFAULT_255_2_778
10
12.2507657
20
6.780255
11
8.4812657
21
6.780255
0
LINE
8
DEFAULT_255_2_778
10
8.4812657
20
6.780255
11
8.4709657
21
6.797255
0
LINE
8
DEFAULT_255_2_778
10
8.4709657
20
6.797255
11
8.4259657
21
6.872855
0
LINE
8
DEFAULT_255_2_778
10
8.4259657
20
3.980755
11
8.4709657
21
4.056355
0
LINE
8
DEFAULT_255_2_778
10
8.4709657
20
4.056355
11
8.4812657
21
4.073355
0
LINE
8
DEFAULT_255_2_778
10
8.4812657
20
4.073355
11
12.2507657
21
4.073355
0
LINE
8
DEFAULT_255_2_778
10
12.2507657
20
4.073355
11
12.1549657
21
4.430555
0
LINE
8
DEFAULT_255_2_778
10
12.1549657
20
4.430555
11
8.7736657
21
4.430555
0
LINE
8
DEFAULT_255_2_778
10
8.7736657
20
4.430555
11
8.5248657
21
4.134155
0
LINE
8
DEFAULT_255_2_778
10
8.4079657
20
3.927055
11
8.4079657
21
6.927155
0
LINE
8
DEFAULT_255_2_778
10
8.4079657
20
6.927155
11
12.6918657
21
6.927155
0
LINE
8
DEFAULT_255_2_778
10
12.6918657
20
6.927155
11
12.6918657
21
3.927055
0
LINE
8
DEFAULT_255_2_778
10
12.6918657
20
3.927055
11
8.4079657
21
3.927055
0
ARC
8
DEFAULT_255_2_778
10
11.0876242
20
2.0565936
40
0.4523629
50
185.5901319
51
230.9624469
0
ARC
8
DEFAULT_255_2_778
10
11.0877544
20
2.0567502
40
0.4525665
50
230.9621276
51
269.9971985
0
ARC
8
DEFAULT_255_2_778
10
11.0877262
20
2.0571214
40
0.4529378
50
270.0007698
51
275.9667008
0
ARC
8
DEFAULT_255_2_778
10
11.0888585
20
2.0467967
40
0.4425511
50
275.9598501
51
276.3118667
0
LINE
8
DEFAULT_255_2_778
10
7.6077127
20
41.6957283
11
2.1115127
21
41.6957283
0
LINE
8
DEFAULT_255_2_778
10
2.1115127
20
41.6957283
11
2.1115127
21
41.5158283
0
LINE
8
DEFAULT_255_2_778
10
2.1115127
20
41.5158283
11
7.6077127
21
41.5158283
0
LINE
8
DEFAULT_255_2_778
10
2.1117127
20
41.6957283
11
2.1117127
21
41.5158283
0
LINE
8
DEFAULT_255_2_778
10
7.6077127
20
45.5057283
11
2.1115127
21
45.5057283
0
LINE
8
DEFAULT_255_2_778
10
2.1115127
20
45.5057283
11
2.1115127
21
45.3258283
0
LINE
8
DEFAULT_255_2_778
10
2.1115127
20
45.3258283
11
7.6077127
21
45.3258283
0
LINE
8
DEFAULT_255_2_778
10
2.1117127
20
45.5057283
11
2.1117127
21
45.3258283
0
LINE
8
DEFAULT_255_2_778
10
7.6077127
20
49.3157283
11
2.1115127
21
49.3157283
0
LINE
8
DEFAULT_255_2_778
10
2.1115127
20
49.3157283
11
2.1115127
21
49.1358283
0
LINE
8
DEFAULT_255_2_778
10
2.1115127
20
49.1358283
11
7.6077127
21
49.1358283
0
LINE
8
DEFAULT_255_2_778
10
2.1117127
20
49.3157283
11
2.1117127
21
49.1358283
0
LINE
8
DEFAULT_255_2_778
10
7.6077127
20
53.1257283
11
2.1115127
21
53.1257283
0
LINE
8
DEFAULT_255_2_778
10
2.1115127
20
53.1257283
11
2.1115127
21
52.9458283
0
LINE
8
DEFAULT_255_2_778
10
2.1115127
20
52.9458283
11
7.6077127
21
52.9458283
0
LINE
8
DEFAULT_255_2_778
10
2.1117127
20
53.1257283
11
2.1117127
21
52.9458283
0
LINE
8
DEFAULT_255_2_778
10
7.6077127
20
56.9357283
11
2.1115127
21
56.9357283
0
LINE
8
DEFAULT_255_2_778
10
2.1115127
20
56.9357283
11
2.1115127
21
56.7558283
0
LINE
8
DEFAULT_255_2_778
10
2.1115127
20
56.7558283
11
7.6077127
21
56.7558283
0
LINE
8
DEFAULT_255_2_778
10
2.1117127
20
56.9357283
11
2.1117127
21
56.7558283
0
LINE
8
DEFAULT_255_2_778
10
7.6077127
20
60.7457283
11
2.1115127
21
60.7457283
0
LINE
8
DEFAULT_255_2_778
10
2.1115127
20
60.7457283
11
2.1115127
21
60.5658283
0
LINE
8
DEFAULT_255_2_778
10
2.1115127
20
60.5658283
11
7.6077127
21
60.5658283
0
LINE
8
DEFAULT_255_2_778
10
2.1117127
20
60.7457283
11
2.1117127
21
60.5658283
0
LINE
8
DEFAULT_255_2_778
10
7.6077127
20
64.3557283
11
2.1115127
21
64.3557283
0
LINE
8
DEFAULT_255_2_778
10
2.1115127
20
64.3557283
11
2.1115127
21
64.1758283
0
LINE
8
DEFAULT_255_2_778
10
2.1115127
20
64.1758283
11
7.6077127
21
64.1758283
0
LINE
8
DEFAULT_255_2_778
10
2.1117127
20
64.3557283
11
2.1117127
21
64.1758283
0
LINE
8
DEFAULT_255_2_778
10
7.6077127
20
26.4557283
11
2.1115127
21
26.4557283
0
LINE
8
DEFAULT_255_2_778
10
2.1115127
20
26.4557283
11
2.1115127
21
26.2758283
0
LINE
8
DEFAULT_255_2_778
10
2.1115127
20
26.2758283
11
7.6077127
21
26.2758283
0
LINE
8
DEFAULT_255_2_778
10
7.6077127
20
22.6457283
11
2.1115127
21
22.6457283
0
LINE
8
DEFAULT_255_2_778
10
2.1115127
20
22.6457283
11
2.1115127
21
22.4658283
0
LINE
8
DEFAULT_255_2_778
10
2.1115127
20
22.4658283
11
7.6077127
21
22.4658283
0
LINE
8
DEFAULT_255_2_778
10
2.1117127
20
22.6457283
11
2.1117127
21
22.4658283
0
LINE
8
DEFAULT_255_2_778
10
7.6077127
20
18.8357283
11
2.1115127
21
18.8357283
0
LINE
8
DEFAULT_255_2_778
10
2.1115127
20
18.8357283
11
2.1115127
21
18.6558283
0
LINE
8
DEFAULT_255_2_778
10
2.1115127
20
18.6558283
11
7.6077127
21
18.6558283
0
LINE
8
DEFAULT_255_2_778
10
2.1117127
20
18.8357283
11
2.1117127
21
18.6558283
0
LINE
8
DEFAULT_255_2_778
10
7.6077127
20
15.0257283
11
2.1115127
21
15.0257283
0
LINE
8
DEFAULT_255_2_778
10
2.1115127
20
15.0257283
11
2.1115127
21
14.8458283
0
LINE
8
DEFAULT_255_2_778
10
2.1115127
20
14.8458283
11
7.6077127
21
14.8458283
0
LINE
8
DEFAULT_255_2_778
10
2.1117127
20
15.0257283
11
2.1117127
21
14.8458283
0
LINE
8
DEFAULT_255_2_778
10
7.6077127
20
11.2157283
11
2.1115127
21
11.2157283
0
LINE
8
DEFAULT_255_2_778
10
2.1115127
20
11.2157283
11
2.1115127
21
11.0358283
0
LINE
8
DEFAULT_255_2_778
10
2.1115127
20
11.0358283
11
7.6077127
21
11.0358283
0
LINE
8
DEFAULT_255_2_778
10
2.1117127
20
11.2157283
11
2.1117127
21
11.0358283
0
LINE
8
DEFAULT_255_2_778
10
7.6077127
20
7.4057283
11
2.1115127
21
7.4057283
0
LINE
8
DEFAULT_255_2_778
10
2.1115127
20
7.4057283
11
2.1115127
21
7.2258283
0
LINE
8
DEFAULT_255_2_778
10
2.1115127
20
7.2258283
11
7.6077127
21
7.2258283
0
LINE
8
DEFAULT_255_2_778
10
2.1117127
20
7.4057283
11
2.1117127
21
7.2258283
0
LINE
8
DEFAULT_255_2_778
10
7.6077127
20
3.5957283
11
2.1115127
21
3.5957283
0
LINE
8
DEFAULT_255_2_778
10
2.1115127
20
3.5957283
11
2.1115127
21
3.4158283
0
LINE
8
DEFAULT_255_2_778
10
2.1115127
20
3.4158283
11
7.6077127
21
3.4158283
0
LINE
8
DEFAULT_255_2_778
10
2.1117127
20
3.5957283
11
2.1117127
21
3.4158283
0
LINE
8
DEFAULT_255_2_778
10
7.6077127
20
37.8857283
11
2.1115127
21
37.8857283
0
LINE
8
DEFAULT_255_2_778
10
2.1115127
20
37.8857283
11
2.1115127
21
37.7058283
0
LINE
8
DEFAULT_255_2_778
10
2.1115127
20
37.7058283
11
7.6077127
21
37.7058283
0
LINE
8
DEFAULT_255_2_778
10
7.6077127
20
30.2657283
11
2.1115127
21
30.2657283
0
LINE
8
DEFAULT_255_2_778
10
2.1115127
20
30.2657283
11
2.1115127
21
30.0858283
0
LINE
8
DEFAULT_255_2_778
10
2.1115127
20
30.0858283
11
7.6077127
21
30.0858283
0
LINE
8
DEFAULT_255_2_778
10
7.6077127
20
34.0757283
11
2.1115127
21
34.0757283
0
LINE
8
DEFAULT_255_2_778
10
2.1115127
20
34.0757283
11
2.1115127
21
33.8958283
0
LINE
8
DEFAULT_255_2_778
10
2.1115127
20
33.8958283
11
7.6077127
21
33.8958283
0
LINE
8
DEFAULT_255_2_778
10
2.2377127
20
67.2058283
11
2.2377127
21
67.0259283
0
LINE
8
DEFAULT_255_2_778
10
2.2377127
20
67.0259283
11
6.9922127
21
67.0259283
0
LINE
8
DEFAULT_255_2_778
10
6.9922127
20
67.0259283
11
6.9922127
21
67.2058283
0
LINE
8
DEFAULT_255_2_778
10
6.9922127
20
67.2058283
11
2.2377127
21
67.2058283
0
LINE
8
DEFAULT_255_2_778
10
10.6374127
20
1.5203283
11
10.1418127
21
1.5203283
0
LINE
8
DEFAULT_255_2_778
10
10.1418127
20
1.5203283
11
1.8239127
21
1.5928283
0
LINE
8
DEFAULT_255_2_778
10
1.8239127
20
1.5928283
11
0.2377127
21
1.5928283
0
LINE
8
DEFAULT_255_2_778
10
0.2377127
20
1.5928283
11
0.2377127
21
66.2157283
0
LINE
8
DEFAULT_255_2_778
10
0.2377127
20
66.2157283
11
0.4877127
21
66.2157283
0
LINE
8
DEFAULT_255_2_778
10
0.4877127
20
66.2157283
11
0.4877127
21
66.4658283
0
LINE
8
DEFAULT_255_2_778
10
0.4877127
20
66.4658283
11
1.8239127
21
66.4658283
0
LINE
8
DEFAULT_255_2_778
10
0.2380127
20
66.7158283
11
0.2380127
21
66.2157283
0
LINE
8
DEFAULT_255_2_778
10
0.4880127
20
66.7158283
11
0.4880127
21
66.4658283
0
LINE
8
DEFAULT_255_2_778
10
1.8297127
20
66.7158283
11
6.9928127
21
66.7158283
0
LINE
8
DEFAULT_255_2_778
10
6.9928127
20
66.7158283
11
6.9928127
21
67.0259283
0
ARC
8
DEFAULT_255_2_778
10
21.9696759
20
101.0055842
40
1.0712453
50
90.004149
51
90.1526665
0
ARC
8
DEFAULT_255_2_778
10
21.9696037
20
101.0794151
40
0.9974143
50
11.8612278
51
90.0003101
0
ARC
8
DEFAULT_255_2_778
10
1.9117393
20
101.0794151
40
0.9974143
50
89.9996899
51
168.1387722
0
ARC
8
DEFAULT_255_2_778
10
1.9116671
20
101.0055842
40
1.0712453
50
89.8473335
51
89.995851
0
ARC
8
DEFAULT_255_2_778
10
20.7756878
20
102.2653008
40
1.1702508
50
49.0466892
51
90.0061835
0
ARC
8
DEFAULT_255_2_778
10
20.7755625
20
102.2651494
40
1.1704021
50
90.0000474
51
94.93969
0
ARC
8
DEFAULT_255_2_778
10
20.7757423
20
102.2633359
40
1.1722245
50
94.9408148
51
101.4759046
0
ARC
8
DEFAULT_255_2_778
10
3.3096521
20
102.2639151
40
1.1716465
50
78.5209237
51
85.0386007
0
ARC
8
DEFAULT_255_2_778
10
3.3098552
20
102.265954
40
1.1695976
50
85.0398787
51
89.9999774
0
ARC
8
DEFAULT_255_2_778
10
3.3099114
20
102.2648824
40
1.1706692
50
90.0027258
51
130.945663
0
ARC
8
DEFAULT_255_2_778
10
3.7141052
20
101.0423101
40
1.3246497
50
93.1757312
51
130.9753166
0
ARC
8
DEFAULT_255_2_778
10
3.7135577
20
101.0398678
40
1.3261362
50
130.8882626
51
173.1211859
0
ARC
8
DEFAULT_255_2_778
10
3.7318052
20
101.0372836
40
1.344562
50
173.1049905
51
174.873555
0
ARC
8
DEFAULT_255_2_778
10
20.3732725
20
101.040408
40
1.3246278
50
5.0681145
51
42.8687837
0
ARC
8
DEFAULT_255_2_778
10
20.3709168
20
101.0410086
40
1.3259473
50
42.780514
51
85.0201355
0
ARC
8
DEFAULT_255_2_778
10
20.3689318
20
101.022189
40
1.3448681
50
85.0054869
51
86.773668
0
ARC
8
DEFAULT_255_2_778
10
12.0425771
20
41.8898374
40
61.0559632
50
82.0903029
51
90.000017
0
LINE
8
DEFAULT_255_2_778
10
12.042559
20
102.9458006
11
12.037312
21
102.9458004
0
ARC
8
DEFAULT_255_2_778
10
12.0425788
20
41.8882075
40
61.0575931
50
90.0049423
51
97.9095915
0
ARC
8
DEFAULT_255_2_778
10
3.7124157
20
101.2708646
40
1.3250109
50
137.1280137
51
174.9141048
0
ARC
8
DEFAULT_255_2_778
10
3.7144504
20
101.2717703
40
1.3258875
50
94.9808652
51
137.216519
0
ARC
8
DEFAULT_255_2_778
10
3.7163995
20
101.2533032
40
1.344454
50
93.2268274
51
94.9952844
0
ARC
8
DEFAULT_255_2_778
10
12.042794
20
42.1201295
40
61.0563711
50
89.9999742
51
97.9096705
0
ARC
8
DEFAULT_255_2_778
10
12.0428491
20
42.1201316
40
61.056369
50
82.0903293
51
90.0000259
0
ARC
8
DEFAULT_255_2_778
10
20.3715481
20
101.2730621
40
1.3245973
50
49.0238678
51
86.8245916
0
ARC
8
DEFAULT_255_2_778
10
20.3722424
20
101.2707876
40
1.3258608
50
6.8706829
51
49.1109746
0
ARC
8
DEFAULT_255_2_778
10
20.3537233
20
101.2681761
40
1.3445594
50
5.118219
51
6.8867595
0
ARC
8
DEFAULT_255_2_778
10
18.0416493
20
105.2597369
40
1.7569171
50
269.9993858
51
310.9279156
0
ARC
8
DEFAULT_255_2_778
10
18.0416318
20
105.2585765
40
1.7557567
50
265.0670915
51
269.999957
0
ARC
8
DEFAULT_255_2_778
10
18.0418872
20
105.2610599
40
1.7582528
50
258.5456734
51
265.0657591
0
ARC
8
DEFAULT_255_2_778
10
16.4434558
20
105.2610599
40
1.7582528
50
274.9342409
51
281.4543266
0
ARC
8
DEFAULT_255_2_778
10
16.4437112
20
105.2585765
40
1.7557566
50
270.000043
51
274.9329085
0
ARC
8
DEFAULT_255_2_778
10
16.4436937
20
105.2597369
40
1.7569171
50
229.0720844
51
270.0006142
0
ARC
8
DEFAULT_255_2_778
10
7.6414493
20
105.2597369
40
1.7569171
50
269.9993858
51
310.9279156
0
ARC
8
DEFAULT_255_2_778
10
7.6414318
20
105.2585765
40
1.7557567
50
265.0670915
51
269.999957
0
ARC
8
DEFAULT_255_2_778
10
7.6416872
20
105.2610599
40
1.7582528
50
258.5456734
51
265.0657591
0
ARC
8
DEFAULT_255_2_778
10
6.0432618
20
105.2610547
40
1.7582466
50
274.9095221
51
281.4541693
0
ARC
8
DEFAULT_255_2_778
10
6.0435008
20
105.2587128
40
1.7558929
50
269.9999895
51
274.9082935
0
ARC
8
DEFAULT_255_2_778
10
6.0434593
20
105.2599128
40
1.757093
50
229.0742243
51
270.0013399
0
ARC
8
DEFAULT_255_2_778
10
22.3492886
20
98.5846
40
1.4938498
50
47.6512565
51
79.4141563
0
ARC
8
DEFAULT_255_2_778
10
22.318905
20
98.5476227
40
1.5416479
50
45.0101534
51
47.7424653
0
ARC
8
DEFAULT_255_2_778
10
22.3540098
20
98.5776301
40
1.4956116
50
359.995093
51
45.1485502
0
LINE
8
DEFAULT_255_2_778
10
23.8496215
20
98.577502
11
23.8496215
21
98.5771256
0
ARC
8
DEFAULT_255_2_778
10
17.4123986
20
2.0296471
40
1.4372921
50
349.0498146
51
359.997286
0
ARC
8
DEFAULT_255_2_778
10
17.4132269
20
2.0295671
40
1.4364639
50
0.0004777
51
1.3905039
0
ARC
8
DEFAULT_255_2_778
10
17.4144047
20
2.0295784
40
1.4352862
50
1.3911907
51
3.0771576
0
ARC
8
DEFAULT_255_2_778
10
12.5429262
20
0.3066146
40
0.5001111
50
90.0005352
51
169.2933356
0
ARC
8
DEFAULT_255_2_778
10
22.2495059
20
1.5866132
40
1.5937352
50
270.4427587
51
298.8544107
0
ARC
8
DEFAULT_255_2_778
10
22.2461002
20
1.5940335
40
1.6018779
50
298.8330202
51
351.8535746
0
ARC
8
DEFAULT_255_2_778
10
22.2334973
20
1.5931051
40
1.6142243
50
351.9495812
51
359.9900787
0
ARC
8
DEFAULT_255_2_778
10
17.1709221
20
2.865058
40
1.0369548
50
274.790533
51
323.4316222
0
ARC
8
DEFAULT_255_2_778
10
17.1740966
20
2.864594
40
1.0341298
50
323.3474813
51
358.040039
0
ARC
8
DEFAULT_255_2_778
10
13.484736
20
1.356627
40
0.5582846
50
279.94169
51
357.5771078
0
ARC
8
DEFAULT_255_2_778
10
1.8425886
20
1.4119904
40
1.6151655
50
221.7574032
51
269.944408
0
ARC
8
DEFAULT_255_2_778
10
1.8416843
20
1.4116699
40
1.6142774
50
180.0054706
51
221.7702943
0
ARC
8
DEFAULT_255_2_778
10
1.8422063
20
1.4114828
40
1.6147995
50
173.6377229
51
179.9988296
0
ARC
8
DEFAULT_255_2_778
10
2.0594336
20
1.3872301
40
1.8333764
50
173.5612871
51
173.6367445
0
ARC
8
DEFAULT_255_2_778
10
1.8312772
20
1.5911662
40
1.5936565
50
179.9403384
51
208.698972
0
ARC
8
DEFAULT_255_2_778
10
1.8388625
20
1.5944914
40
1.601907
50
208.6730108
51
261.2717372
0
ARC
8
DEFAULT_255_2_778
10
1.8379465
20
1.6065878
40
1.6137267
50
261.3690599
51
269.4878313
0
ARC
8
DEFAULT_255_2_778
10
2.9173521
20
100.4501664
40
0.7482052
50
134.5544281
51
178.762467
0
ARC
8
DEFAULT_255_2_778
10
8.0363722
20
102.5481838
40
1.4908821
50
132.8148678
51
138.4099583
0
ARC
8
DEFAULT_255_2_778
10
16.0492483
20
102.5481628
40
1.4909127
50
41.5900706
51
47.1850456
0
ARC
8
DEFAULT_255_2_778
10
8.0432894
20
102.5398202
40
1.5021056
50
90.0254747
51
111.0351967
0
ARC
8
DEFAULT_255_2_778
10
16.041853
20
102.540355
40
1.5015708
50
68.9610161
51
89.9744913
0
ARC
8
DEFAULT_255_2_778
10
8.0422467
20
102.5420898
40
1.4996848
50
111.0362715
51
132.835282
0
ARC
8
DEFAULT_255_2_778
10
16.0425963
20
102.5420898
40
1.4996848
50
47.164718
51
68.9637285
0
ARC
8
DEFAULT_255_2_778
10
22.1733759
20
101.0055837
40
1.0712457
50
90.004149
51
90.1526665
0
ARC
8
DEFAULT_255_2_778
10
22.1733152
20
101.0793061
40
0.9975233
50
11.8663086
51
90.0009716
0
ARC
8
DEFAULT_255_2_778
10
2.1161376
20
101.0795474
40
0.9975812
50
89.9980653
51
168.1485452
0
ARC
8
DEFAULT_255_2_778
10
2.116255
20
101.0906181
40
0.9865103
50
89.8683628
51
90.004864
0
ARC
8
DEFAULT_255_2_778
10
22.5152909
20
101.7624028
40
0.6275876
50
149.9020181
51
179.9917259
0
ARC
8
DEFAULT_255_2_778
10
22.5142085
20
101.7624919
40
0.6265053
50
179.9998528
51
184.1222391
0
ARC
8
DEFAULT_255_2_778
10
22.5146614
20
101.7625237
40
0.6269594
50
184.1221623
51
187.4689751
0
ARC
8
DEFAULT_255_2_778
10
1.5680715
20
101.7617518
40
0.630043
50
352.6385712
51
356.8343016
0
ARC
8
DEFAULT_255_2_778
10
1.5676506
20
101.7617772
40
0.6304647
50
356.8341107
51
0.0004706
0
ARC
8
DEFAULT_255_2_778
10
1.568849
20
101.7619935
40
0.6292665
50
359.980775
51
30.0524626
0
ARC
8
DEFAULT_255_2_778
10
21.1679909
20
100.4503664
40
0.7482052
50
1.237533
51
45.4455719
0
ARC
8
DEFAULT_255_2_778
10
22.6592577
20
100.5976827
40
0.7438181
50
67.3484316
51
90.0024072
0
LINE
8
DEFAULT_255_2_778
10
22.6592265
20
101.3415007
11
22.6589703
21
101.3415007
0
ARC
8
DEFAULT_255_2_778
10
22.6592092
20
100.5974613
40
0.7440394
50
90.018395
51
112.5880608
0
ARC
8
DEFAULT_255_2_778
10
21.9152752
20
101.2183692
40
0.4628838
50
8.2044799
51
89.9783985
0
ARC
8
DEFAULT_255_2_778
10
21.9154642
20
101.2119532
40
0.4692999
50
90.0017696
51
92.7165864
0
ARC
8
DEFAULT_255_2_778
10
1.4263123
20
100.5975463
40
0.7439544
50
90.0262451
51
112.6494433
0
LINE
8
DEFAULT_255_2_778
10
1.4259715
20
101.3415006
11
1.4263541
21
101.3415007
0
ARC
8
DEFAULT_255_2_778
10
1.4264168
20
100.5978792
40
0.7436216
50
67.4054797
51
90.0048353
0
ARC
8
DEFAULT_255_2_778
10
2.1704191
20
101.2181945
40
0.4630586
50
90.0279498
51
171.7768061
0
ARC
8
DEFAULT_255_2_778
10
2.1701787
20
101.2119531
40
0.4692999
50
87.2834137
51
89.9982305
0
ARC
8
DEFAULT_255_2_778
10
0.9438967
20
98.5774899
40
0.7075754
50
179.9847701
51
180.0456906
0
ARC
8
DEFAULT_255_2_778
10
1.7308689
20
98.5777724
40
1.4945476
50
134.8344841
51
180.0036201
0
ARC
8
DEFAULT_255_2_778
10
1.7387265
20
98.5801962
40
1.4983866
50
106.4120187
51
135.1129014
0
ARC
8
DEFAULT_255_2_778
10
1.7369794
20
98.5830824
40
1.4951247
50
100.5932833
51
106.3790458
0
ARC
8
DEFAULT_255_2_778
10
18.3516039
20
2.4015384
40
0.7947217
50
269.7273075
51
270.0029692
0
ARC
8
DEFAULT_255_2_778
10
18.3510241
20
2.4269001
40
0.8200837
50
270.0433856
51
305.2063868
0
ARC
8
DEFAULT_255_2_778
10
3.8679535
20
92.6324739
40
0.1992517
50
89.980451
51
135.1383229
0
ARC
8
DEFAULT_255_2_778
10
3.8665371
20
92.6323798
40
0.1983171
50
134.8303994
51
179.9732592
0
ARC
8
DEFAULT_255_2_778
10
3.9005791
20
92.6325346
40
0.232359
50
180.0153489
51
180.1994804
0
ARC
8
DEFAULT_255_2_778
10
3.8691065
20
76.2800257
40
0.2008906
50
179.5722039
51
179.9998918
0
ARC
8
DEFAULT_255_2_778
10
3.8667005
20
76.2799463
40
0.1984847
50
179.9769811
51
224.988092
0
ARC
8
DEFAULT_255_2_778
10
3.8666422
20
76.2800047
40
0.1984847
50
225.011908
51
270.0230189
0
ARC
8
DEFAULT_255_2_778
10
3.8667216
20
76.2824106
40
0.2008906
50
270.0001082
51
270.4277961
0
ARC
8
DEFAULT_255_2_778
10
20.2182213
20
76.2807511
40
0.1992255
50
270.000044
51
271.0647606
0
ARC
8
DEFAULT_255_2_778
10
20.2181531
20
76.2815838
40
0.2000593
50
271.0798572
51
315.0425573
0
ARC
8
DEFAULT_255_2_778
10
20.2192459
20
76.2814265
40
0.199176
50
314.8524786
51
0.1148117
0
ARC
8
DEFAULT_255_2_778
10
20.240729
20
92.6320083
40
0.1774928
50
359.9087633
51
0.0304103
0
ARC
8
DEFAULT_255_2_778
10
20.2194968
20
92.6322112
40
0.1987251
50
359.9686547
51
45.1202254
0
ARC
8
DEFAULT_255_2_778
10
20.2183708
20
92.6321885
40
0.1995373
50
44.895744
51
90.0428858
0
LINE
8
DEFAULT_255_2_778
10
22.9457215
20
101.2844256
11
23.1492215
21
101.2844256
0
LINE
8
DEFAULT_255_2_778
10
23.1492215
20
101.2844256
11
23.5270215
21
99.5037256
0
LINE
8
DEFAULT_255_2_778
10
1.9145215
20
102.0768256
11
2.1130215
21
102.0768256
0
LINE
8
DEFAULT_255_2_778
10
21.5427215
20
102.0768256
11
21.5427215
21
103.1491256
0
LINE
8
DEFAULT_255_2_778
10
20.5425215
20
103.4121256
11
3.5428215
21
103.4121256
0
LINE
8
DEFAULT_255_2_778
10
2.5427215
20
103.1491256
11
2.5427215
21
102.0768256
0
LINE
8
DEFAULT_255_2_778
10
2.3926215
20
101.1574256
11
2.3926215
21
100.7234256
0
LINE
8
DEFAULT_255_2_778
10
2.3926215
20
100.7234256
11
21.6927215
21
100.7234256
0
LINE
8
DEFAULT_255_2_778
10
21.6927215
20
100.7234256
11
21.6927215
21
101.1574256
0
LINE
8
DEFAULT_255_2_778
10
3.6404215
20
102.3649256
11
3.6407215
21
102.3649256
0
LINE
8
DEFAULT_255_2_778
10
2.3926215
20
101.1574256
11
2.3926215
21
101.3883256
0
LINE
8
DEFAULT_255_2_778
10
21.6929215
20
101.3881256
11
21.6929215
21
101.1571256
0
LINE
8
DEFAULT_255_2_778
10
21.6929215
20
100.3424256
11
2.3926215
21
100.3424256
0
LINE
8
DEFAULT_255_2_778
10
21.6927215
20
102.0765256
11
21.6927215
21
104.2742256
0
LINE
8
DEFAULT_255_2_778
10
21.6927215
20
104.2742256
11
19.1926215
21
104.2742256
0
LINE
8
DEFAULT_255_2_778
10
19.1926215
20
104.2742256
11
19.1926215
21
103.9323256
0
LINE
8
DEFAULT_255_2_778
10
17.6927215
20
103.5378256
11
16.7926215
21
103.5378256
0
LINE
8
DEFAULT_255_2_778
10
15.2927215
20
103.9323256
11
15.2927215
21
104.2742256
0
LINE
8
DEFAULT_255_2_778
10
15.2927215
20
104.2742256
11
12.7926215
21
104.2742256
0
LINE
8
DEFAULT_255_2_778
10
12.7926215
20
104.2742256
11
12.7926215
21
103.6691256
0
LINE
8
DEFAULT_255_2_778
10
12.7926215
20
103.6691256
11
12.7355215
21
103.5936256
0
LINE
8
DEFAULT_255_2_778
10
12.7355215
20
103.5936256
11
12.5730215
21
103.5296256
0
LINE
8
DEFAULT_255_2_778
10
12.5730215
20
103.5296256
11
12.3296215
21
103.4868256
0
LINE
8
DEFAULT_255_2_778
10
12.3296215
20
103.4868256
11
12.0425215
21
103.4717256
0
LINE
8
DEFAULT_255_2_778
10
12.0425215
20
103.4717256
11
11.7555215
21
103.4868256
0
LINE
8
DEFAULT_255_2_778
10
11.7555215
20
103.4868256
11
11.5120215
21
103.5296256
0
LINE
8
DEFAULT_255_2_778
10
11.5120215
20
103.5296256
11
11.3496215
21
103.5936256
0
LINE
8
DEFAULT_255_2_778
10
11.3496215
20
103.5936256
11
11.2924215
21
103.6691256
0
LINE
8
DEFAULT_255_2_778
10
11.2924215
20
103.6691256
11
11.2924215
21
104.2742256
0
LINE
8
DEFAULT_255_2_778
10
11.2924215
20
104.2742256
11
8.7924215
21
104.2742256
0
LINE
8
DEFAULT_255_2_778
10
8.7924215
20
104.2742256
11
8.7924215
21
103.9323256
0
LINE
8
DEFAULT_255_2_778
10
7.2925215
20
103.5378256
11
6.3924215
21
103.5378256
0
LINE
8
DEFAULT_255_2_778
10
4.8924215
20
103.9323256
11
4.8924215
21
104.2742256
0
LINE
8
DEFAULT_255_2_778
10
4.8924215
20
104.2742256
11
2.3926215
21
104.2742256
0
LINE
8
DEFAULT_255_2_778
10
2.3926215
20
104.2742256
11
2.3926215
21
102.0768256
0
LINE
8
DEFAULT_255_2_778
10
11.9174215
20
103.4748256
11
12.0428215
21
103.6918256
0
LINE
8
DEFAULT_255_2_778
10
12.0428215
20
103.6918256
11
12.1682215
21
103.4748256
0
LINE
8
DEFAULT_255_2_778
10
12.7929215
20
103.9418256
11
11.2930215
21
103.9418256
0
LINE
8
DEFAULT_255_2_778
10
12.7929215
20
104.0419256
11
11.2930215
21
104.0419256
0
LINE
8
DEFAULT_255_2_778
10
12.0142215
20
103.6421256
11
11.3004215
21
103.6421256
0
LINE
8
DEFAULT_255_2_778
10
12.7857215
20
103.6421256
11
12.0719215
21
103.6421256
0
LINE
8
DEFAULT_255_2_778
10
15.2927215
20
104.2742256
11
15.2927215
21
104.4292256
0
LINE
8
DEFAULT_255_2_778
10
15.2927215
20
104.4292256
11
12.7926215
21
104.4292256
0
LINE
8
DEFAULT_255_2_778
10
12.7926215
20
104.4292256
11
12.7926215
21
104.2742256
0
LINE
8
DEFAULT_255_2_778
10
11.2927215
20
104.2742256
11
11.2927215
21
104.4292256
0
LINE
8
DEFAULT_255_2_778
10
11.2927215
20
104.4292256
11
8.7927215
21
104.4292256
0
LINE
8
DEFAULT_255_2_778
10
8.7927215
20
104.4292256
11
8.7927215
21
104.2742256
0
LINE
8
DEFAULT_255_2_778
10
2.2376215
20
69.3095256
11
2.2376215
21
69.1296256
0
LINE
8
DEFAULT_255_2_778
10
2.2376215
20
69.1296256
11
6.2328215
21
69.1296256
0
LINE
8
DEFAULT_255_2_778
10
6.2328215
20
69.1296256
11
6.2328215
21
72.2802256
0
LINE
8
DEFAULT_255_2_778
10
6.2328215
20
72.2802256
11
6.9922215
21
72.2802256
0
LINE
8
DEFAULT_255_2_778
10
6.9922215
20
72.2802256
11
6.9922215
21
72.4601256
0
LINE
8
DEFAULT_255_2_778
10
6.9922215
20
72.4601256
11
6.0529215
21
72.4601256
0
LINE
8
DEFAULT_255_2_778
10
6.0529215
20
72.4601256
11
6.0529215
21
69.3095256
0
LINE
8
DEFAULT_255_2_778
10
6.0529215
20
69.3095256
11
2.2376215
21
69.3095256
0
LINE
8
DEFAULT_255_2_778
10
2.3609215
20
-0.0118744
11
2.3675215
21
-0.2034744
0
LINE
8
DEFAULT_255_2_778
10
2.3675215
20
-0.2034744
11
1.8410215
21
-0.2034744
0
LINE
8
DEFAULT_255_2_778
10
1.8410215
20
-0.2034744
11
1.8341215
21
-0.0073744
0
LINE
8
DEFAULT_255_2_778
10
23.5977215
20
73.0766256
11
23.5977215
21
73.5767256
0
LINE
8
DEFAULT_255_2_778
10
18.2878215
20
1.6068256
11
18.2878215
21
1.7568256
0
LINE
8
DEFAULT_255_2_778
10
18.8479215
20
0.4633256
11
18.8119215
21
0.4628256
0
LINE
8
DEFAULT_255_2_778
10
18.8119215
20
0.4628256
11
18.7659215
21
0.4620256
0
LINE
8
DEFAULT_255_2_778
10
18.7659215
20
0.4620256
11
18.7016215
21
0.4609256
0
LINE
8
DEFAULT_255_2_778
10
18.7016215
20
0.4609256
11
18.5394215
21
0.4580256
0
LINE
8
DEFAULT_255_2_778
10
18.5394215
20
0.4580256
11
18.3481215
21
0.4546256
0
LINE
8
DEFAULT_255_2_778
10
18.3481215
20
0.4546256
11
18.3481215
21
1.6068256
0
LINE
8
DEFAULT_255_2_778
10
18.3481215
20
1.6068256
11
14.2428215
21
1.6068256
0
LINE
8
DEFAULT_255_2_778
10
14.2428215
20
1.6068256
11
14.2428215
21
0.8067256
0
LINE
8
DEFAULT_255_2_778
10
14.2428215
20
0.8067256
11
12.5429215
21
0.8067256
0
LINE
8
DEFAULT_255_2_778
10
18.8476215
20
1.5674256
11
19.3477215
21
1.5674256
0
LINE
8
DEFAULT_255_2_778
10
19.3477215
20
1.5674256
11
22.2615215
21
1.5928256
0
LINE
8
DEFAULT_255_2_778
10
22.2615215
20
1.5928256
11
23.8474215
21
1.5928256
0
LINE
8
DEFAULT_255_2_778
10
23.8474215
20
1.5928256
11
23.8474215
21
73.0769256
0
LINE
8
DEFAULT_255_2_778
10
23.8474215
20
73.0769256
11
22.2615215
21
73.0769256
0
LINE
8
DEFAULT_255_2_778
10
14.2428215
20
1.6068256
11
14.0428215
21
1.6068256
0
LINE
8
DEFAULT_255_2_778
10
14.0428215
20
1.6068256
11
17.2575215
21
1.8317256
0
LINE
8
DEFAULT_255_2_778
10
11.1374215
20
0.4075256
11
12.0425215
21
0.3995256
0
LINE
8
DEFAULT_255_2_778
10
12.0425215
20
0.3995256
11
18.3475215
21
0.4546256
0
LINE
8
DEFAULT_255_2_778
10
10.6373215
20
0.4162256
11
10.6733215
21
0.4157256
0
LINE
8
DEFAULT_255_2_778
10
10.6733215
20
0.4157256
11
10.7193215
21
0.4149256
0
LINE
8
DEFAULT_255_2_778
10
10.7193215
20
0.4149256
11
10.7836215
21
0.4138256
0
LINE
8
DEFAULT_255_2_778
10
10.7836215
20
0.4138256
11
10.9458215
21
0.4109256
0
LINE
8
DEFAULT_255_2_778
10
10.9458215
20
0.4109256
11
11.1371215
21
0.4075256
0
LINE
8
DEFAULT_255_2_778
10
11.1371215
20
0.4075256
11
11.1371215
21
1.6068256
0
LINE
8
DEFAULT_255_2_778
10
11.1371215
20
1.6068256
11
14.0425215
21
1.6068256
0
LINE
8
DEFAULT_255_2_778
10
14.0425215
20
1.6068256
11
14.0425215
21
1.3330256
0
LINE
8
DEFAULT_255_2_778
10
2.1693215
20
100.4663256
11
2.1323215
21
100.0112256
0
LINE
8
DEFAULT_255_2_778
10
8.7927215
20
104.0419256
11
8.0426215
21
104.0419256
0
LINE
8
DEFAULT_255_2_778
10
16.0425215
20
104.0419256
11
15.2924215
21
104.0419256
0
LINE
8
DEFAULT_255_2_778
10
8.7924215
20
103.9418256
11
7.5039215
21
103.9418256
0
LINE
8
DEFAULT_255_2_778
10
7.0226215
20
103.6418256
11
8.3074215
21
103.6418256
0
LINE
8
DEFAULT_255_2_778
10
15.7774215
20
103.6418256
11
17.0622215
21
103.6418256
0
LINE
8
DEFAULT_255_2_778
10
16.5809215
20
103.9418256
11
15.2924215
21
103.9418256
0
LINE
8
DEFAULT_255_2_778
10
2.3926215
20
100.0067256
11
2.3926215
21
100.7234256
0
LINE
8
DEFAULT_255_2_778
10
21.6927215
20
100.7234256
11
21.6927215
21
100.0067256
0
LINE
8
DEFAULT_255_2_778
10
21.4244215
20
102.0768256
11
22.1705215
21
102.0768256
0
LINE
8
DEFAULT_255_2_778
10
0.5583215
20
99.5037256
11
0.9361215
21
101.2844256
0
LINE
8
DEFAULT_255_2_778
10
0.9361215
20
101.2844256
11
1.1398215
21
101.2844256
0
LINE
8
DEFAULT_255_2_778
10
21.8930215
20
101.6810256
11
21.6329215
21
101.6810256
0
LINE
8
DEFAULT_255_2_778
10
2.4530215
20
101.6810256
11
2.1929215
21
101.6810256
0
LINE
8
DEFAULT_255_2_778
10
2.1135215
20
102.0771256
11
2.6525215
21
102.0771256
0
LINE
8
DEFAULT_255_2_778
10
21.9160215
20
100.4665256
11
21.9530215
21
100.0115256
0
LINE
8
DEFAULT_255_2_778
10
23.2553215
20
99.7712256
11
22.9457215
21
101.2841256
0
LINE
8
DEFAULT_255_2_778
10
0.8303215
20
99.7712256
11
1.1398215
21
101.2841256
0
LINE
8
DEFAULT_255_2_778
10
1.7124215
20
101.2846256
11
1.4454215
21
99.9670256
0
LINE
8
DEFAULT_255_2_778
10
1.4454215
20
99.9670256
11
1.8037215
21
100.0112256
0
LINE
8
DEFAULT_255_2_778
10
1.8037215
20
100.0112256
11
1.8079215
21
100.0070256
0
LINE
8
DEFAULT_255_2_778
10
21.6927215
20
104.2742256
11
21.6927215
21
104.4292256
0
LINE
8
DEFAULT_255_2_778
10
21.6927215
20
104.4292256
11
19.1926215
21
104.4292256
0
LINE
8
DEFAULT_255_2_778
10
19.1926215
20
104.4292256
11
19.1926215
21
104.2742256
0
LINE
8
DEFAULT_255_2_778
10
4.8927215
20
104.2742256
11
4.8927215
21
104.4292256
0
LINE
8
DEFAULT_255_2_778
10
4.8927215
20
104.4292256
11
2.3926215
21
104.4292256
0
LINE
8
DEFAULT_255_2_778
10
2.3926215
20
104.4292256
11
2.3926215
21
104.2742256
0
LINE
8
DEFAULT_255_2_778
10
18.2076215
20
72.4966256
11
18.2097215
21
73.5767256
0
LINE
8
DEFAULT_255_2_778
10
18.2097215
20
73.5767256
11
18.2076215
21
73.3266256
0
LINE
8
DEFAULT_255_2_778
10
18.2076215
20
73.3266256
11
23.5977215
21
73.3266256
0
LINE
8
DEFAULT_255_2_778
10
18.8238215
20
1.7568256
11
18.2078215
21
1.7568256
0
LINE
8
DEFAULT_255_2_778
10
18.2078215
20
1.7568256
11
18.2078215
21
3.1269256
0
LINE
8
DEFAULT_255_2_778
10
18.8479215
20
3.1269256
11
18.8479215
21
1.5674256
0
LINE
8
DEFAULT_255_2_778
10
18.8479215
20
1.5674256
11
18.8479215
21
1.1449256
0
LINE
8
DEFAULT_255_2_778
10
18.8479215
20
1.1449256
11
18.8479215
21
0.7866256
0
LINE
8
DEFAULT_255_2_778
10
18.8479215
20
0.7866256
11
18.8479215
21
0.5472256
0
LINE
8
DEFAULT_255_2_778
10
18.8479215
20
0.5472256
11
18.8479215
21
0.4630256
0
LINE
8
DEFAULT_255_2_778
10
18.8479215
20
0.4630256
11
19.3479215
21
-0.0324744
0
LINE
8
DEFAULT_255_2_778
10
19.3479215
20
-0.0324744
11
19.2723215
21
-0.0330744
0
LINE
8
DEFAULT_255_2_778
10
19.2723215
20
-0.0330744
11
19.0564215
21
-0.0348744
0
LINE
8
DEFAULT_255_2_778
10
19.0564215
20
-0.0348744
11
18.7333215
21
-0.0377744
0
LINE
8
DEFAULT_255_2_778
10
18.7333215
20
-0.0377744
11
18.3523215
21
-0.0412744
0
LINE
8
DEFAULT_255_2_778
10
18.3523215
20
-0.0412744
11
12.0431215
21
-0.0962744
0
LINE
8
DEFAULT_255_2_778
10
12.0431215
20
-0.0962744
11
11.1334215
21
-0.0883744
0
LINE
8
DEFAULT_255_2_778
10
11.1334215
20
-0.0883744
11
10.7540215
21
-0.0848744
0
LINE
8
DEFAULT_255_2_778
10
10.7540215
20
-0.0848744
11
10.4323215
21
-0.0819744
0
LINE
8
DEFAULT_255_2_778
10
10.4323215
20
-0.0819744
11
10.2174215
21
-0.0801744
0
LINE
8
DEFAULT_255_2_778
10
10.2174215
20
-0.0801744
11
10.1420215
21
-0.0795744
0
LINE
8
DEFAULT_255_2_778
10
10.1420215
20
-0.0795744
11
1.8241215
21
-0.0070744
0
LINE
8
DEFAULT_255_2_778
10
1.8241215
20
-0.0070744
11
1.8241215
21
1.5928256
0
LINE
8
DEFAULT_255_2_778
10
1.8241215
20
1.5928256
11
1.8241215
21
66.4657256
0
LINE
8
DEFAULT_255_2_778
10
1.8241215
20
66.4657256
11
7.1377215
21
66.4657256
0
LINE
8
DEFAULT_255_2_778
10
7.1377215
20
66.4657256
11
7.1377215
21
73.3258256
0
LINE
8
DEFAULT_255_2_778
10
7.1377215
20
73.3258256
11
10.1420215
21
73.3258256
0
LINE
8
DEFAULT_255_2_778
10
10.1420215
20
73.3258256
11
10.6376215
21
73.3258256
0
LINE
8
DEFAULT_255_2_778
10
10.6376215
20
73.3258256
11
10.6376215
21
72.4969256
0
LINE
8
DEFAULT_255_2_778
10
10.6394215
20
3.1269256
11
10.6394215
21
1.5203256
0
LINE
8
DEFAULT_255_2_778
10
10.6394215
20
1.5203256
11
10.6394215
21
1.0978256
0
LINE
8
DEFAULT_255_2_778
10
10.6394215
20
1.0978256
11
10.6394215
21
0.7395256
0
LINE
8
DEFAULT_255_2_778
10
10.6394215
20
0.7395256
11
10.6394215
21
0.5001256
0
LINE
8
DEFAULT_255_2_778
10
10.6394215
20
0.5001256
11
10.6394215
21
0.4159256
0
LINE
8
DEFAULT_255_2_778
10
10.6394215
20
0.4159256
11
10.1439215
21
-0.0795744
0
LINE
8
DEFAULT_255_2_778
10
10.1439215
20
-0.0795744
11
10.1431215
21
-0.0462744
0
LINE
8
DEFAULT_255_2_778
10
10.1431215
20
-0.0462744
11
10.1426215
21
0.0490256
0
LINE
8
DEFAULT_255_2_778
10
10.1426215
20
0.0490256
11
10.1420215
21
0.3892256
0
LINE
8
DEFAULT_255_2_778
10
10.1420215
20
0.3892256
11
10.1426215
21
0.8925256
0
LINE
8
DEFAULT_255_2_778
10
10.1426215
20
0.8925256
11
10.1431215
21
1.1959256
0
LINE
8
DEFAULT_255_2_778
10
10.1431215
20
1.1959256
11
10.1439215
21
1.5208256
0
LINE
8
DEFAULT_255_2_778
10
10.1439215
20
1.5208256
11
10.1439215
21
3.1274256
0
LINE
8
DEFAULT_255_2_778
10
0.2376215
20
98.5769256
11
0.2376215
21
66.7158256
0
LINE
8
DEFAULT_255_2_778
10
0.2376215
20
66.7158256
11
1.8293215
21
66.7158256
0
LINE
8
DEFAULT_255_2_778
10
1.8293215
20
66.7158256
11
1.8293215
21
96.0067256
0
LINE
8
DEFAULT_255_2_778
10
1.8293215
20
96.0067256
11
1.8077215
21
100.0067256
0
LINE
8
DEFAULT_255_2_778
10
1.8077215
20
100.0067256
11
22.6319215
21
100.0067256
0
LINE
8
DEFAULT_255_2_778
10
22.6319215
20
100.0067256
11
22.3729215
21
101.2844256
0
LINE
8
DEFAULT_255_2_778
10
6.9924215
20
72.4601256
11
6.9924215
21
73.5767256
0
LINE
8
DEFAULT_255_2_778
10
6.9924215
20
73.5767256
11
22.2560215
21
73.5767256
0
LINE
8
DEFAULT_255_2_778
10
23.8477215
20
96.0067256
11
20.5428215
21
96.0067256
0
LINE
8
DEFAULT_255_2_778
10
3.5428215
20
96.0067256
11
0.2379215
21
96.0067256
0
LINE
8
DEFAULT_255_2_778
10
6.9924215
20
67.2055256
11
6.9924215
21
72.2799256
0
LINE
8
DEFAULT_255_2_778
10
23.8477215
20
73.5767256
11
22.2560215
21
73.5767256
0
LINE
8
DEFAULT_255_2_778
10
22.2560215
20
73.5767256
11
22.2560215
21
96.0067256
0
LINE
8
DEFAULT_255_2_778
10
22.2560215
20
96.0067256
11
22.2777215
21
100.0067256
0
LINE
8
DEFAULT_255_2_778
10
12.8477215
20
73.5769256
11
12.8477215
21
72.4969256
0
LINE
8
DEFAULT_255_2_778
10
23.8477215
20
73.0769256
11
23.8477215
21
98.5769256
0
LINE
8
DEFAULT_255_2_778
10
19.0976215
20
73.0769256
11
19.0976215
21
73.3269256
0
LINE
8
DEFAULT_255_2_778
10
19.0976215
20
73.3269256
11
19.0976215
21
73.0769256
0
LINE
8
DEFAULT_255_2_778
10
19.0976215
20
73.0769256
11
19.3477215
21
73.0769256
0
LINE
8
DEFAULT_255_2_778
10
19.3477215
20
3.1269256
11
19.3477215
21
1.5674256
0
LINE
8
DEFAULT_255_2_778
10
19.3477215
20
1.5674256
11
19.3485215
21
1.2428256
0
LINE
8
DEFAULT_255_2_778
10
19.3485215
20
1.2428256
11
19.3490215
21
0.9393256
0
LINE
8
DEFAULT_255_2_778
10
19.3490215
20
0.9393256
11
19.3495215
21
0.4360256
0
LINE
8
DEFAULT_255_2_778
10
19.3495215
20
0.4360256
11
19.3490215
21
0.0958256
0
LINE
8
DEFAULT_255_2_778
10
19.3490215
20
0.0958256
11
19.3485215
21
0.0005256
0
LINE
8
DEFAULT_255_2_778
10
19.3485215
20
0.0005256
11
19.3477215
21
-0.0327744
0
LINE
8
DEFAULT_255_2_778
10
19.3477215
20
-0.0327744
11
22.2615215
21
-0.0073744
0
LINE
8
DEFAULT_255_2_778
10
22.2615215
20
-0.0073744
11
22.2615215
21
1.5925256
0
LINE
8
DEFAULT_255_2_778
10
22.2615215
20
1.5925256
11
22.2615215
21
73.0763256
0
LINE
8
DEFAULT_255_2_778
10
22.2615215
20
73.0763256
11
19.3477215
21
73.0763256
0
LINE
8
DEFAULT_255_2_778
10
19.3477215
20
73.0763256
11
19.3477215
21
72.4964256
0
LINE
8
DEFAULT_255_2_778
10
3.5362215
20
97.2230256
11
20.5494215
21
97.2230256
0
LINE
8
DEFAULT_255_2_778
10
3.5362215
20
97.2238256
11
3.5428215
21
96.0065256
0
LINE
8
DEFAULT_255_2_778
10
3.5428215
20
96.0065256
11
3.5428215
21
93.5165256
0
LINE
8
DEFAULT_255_2_778
10
3.5428215
20
93.5165256
11
20.5428215
21
93.5165256
0
LINE
8
DEFAULT_255_2_778
10
20.5428215
20
93.5165256
11
20.5428215
21
96.0065256
0
LINE
8
DEFAULT_255_2_778
10
20.5428215
20
96.0065256
11
20.5494215
21
97.2238256
0
LINE
8
DEFAULT_255_2_778
10
3.6682215
20
92.6317256
11
3.6682215
21
76.2815256
0
LINE
8
DEFAULT_255_2_778
10
3.8682215
20
76.0815256
11
20.2182215
21
76.0815256
0
LINE
8
DEFAULT_255_2_778
10
20.4184215
20
76.2818256
11
20.4182215
21
92.6317256
0
LINE
8
DEFAULT_255_2_778
10
20.2182215
20
92.8317256
11
3.8680215
21
92.8317256
0
LINE
8
DEFAULT_255_2_778
10
20.5431215
20
75.9566256
11
20.5431215
21
92.9569256
0
LINE
8
DEFAULT_255_2_778
10
20.5431215
20
92.9569256
11
3.5428215
21
92.9569256
0
LINE
8
DEFAULT_255_2_778
10
3.5428215
20
92.9569256
11
3.5428215
21
75.9569256
0
LINE
8
DEFAULT_255_2_778
10
3.5428215
20
75.9569256
11
20.5431215
21
75.9566256
0
ARC
8
DEFAULT_255_2_778
10
7.4835559
20
95.467042
40
0.6882221
50
70.6313466
51
91.0764067
0
ARC
8
DEFAULT_255_2_778
10
7.5574445
20
95.6929619
40
0.4506138
50
48.2112649
51
69.9678105
0
ARC
8
DEFAULT_255_2_778
10
7.5699941
20
95.7121279
40
0.4279741
50
357.7120779
51
47.7540932
0
ARC
8
DEFAULT_255_2_778
10
7.5168754
20
95.6813997
40
0.4809452
50
332.6635747
51
1.6255259
0
ARC
8
DEFAULT_255_2_778
10
7.6193469
20
95.6387133
40
0.3704279
50
310.6438742
51
331.2501854
0
ARC
8
DEFAULT_255_2_778
10
7.551748
20
95.7332271
40
0.4862817
50
278.6477666
51
309.433738
0
ARC
8
DEFAULT_255_2_778
10
7.4742749
20
96.1148254
40
0.8754016
50
269.623801
51
279.9055348
0
ARC
8
DEFAULT_255_2_778
10
7.4833662
20
95.8324178
40
0.4304636
50
268.3041425
51
292.79055
0
ARC
8
DEFAULT_255_2_778
10
7.5437511
20
95.6714823
40
0.2587879
50
294.2674687
51
311.2927777
0
ARC
8
DEFAULT_255_2_778
10
7.5311689
20
95.6724825
40
0.2679869
50
313.1731939
51
1.6766211
0
ARC
8
DEFAULT_255_2_778
10
7.3415172
20
95.693378
40
0.45771
50
358.3656163
51
0.0081
0
ARC
8
DEFAULT_255_2_778
10
7.5172836
20
95.7063661
40
0.2822395
50
357.3755744
51
45.665074
0
ARC
8
DEFAULT_255_2_778
10
7.4982534
20
95.667666
40
0.3234987
50
48.0450853
51
89.2456293
0
ARC
8
DEFAULT_255_2_778
10
7.4714092
20
95.4613372
40
0.5307117
50
86.640144
51
88.8536123
0
LINE
8
DEFAULT_255_2_778
10
7.4685271
20
95.2396427
11
7.1139271
21
95.2396427
0
LINE
8
DEFAULT_255_2_778
10
7.1139271
20
95.2396427
11
7.1139271
21
94.6504427
0
LINE
8
DEFAULT_255_2_778
10
7.1139271
20
94.6504427
11
6.9155271
21
94.6504427
0
LINE
8
DEFAULT_255_2_778
10
6.9155271
20
94.6504427
11
6.9155271
21
96.1551427
0
LINE
8
DEFAULT_255_2_778
10
6.9155271
20
96.1551427
11
7.4706271
21
96.1551427
0
LINE
8
DEFAULT_255_2_778
10
7.4685271
20
95.2394427
11
7.4685271
21
95.2396427
0
LINE
8
DEFAULT_255_2_778
10
7.1139271
20
95.9921427
11
7.1139271
21
95.4021427
0
LINE
8
DEFAULT_255_2_778
10
7.1139271
20
95.4021427
11
7.4706271
21
95.4021427
0
LINE
8
DEFAULT_255_2_778
10
7.4820271
20
95.9919427
11
7.1139271
21
95.9919427
0
LINE
8
DEFAULT_255_2_778
10
7.1139271
20
95.9919427
11
7.1139271
21
95.9921427
0
ARC
8
DEFAULT_255_2_778
10
7.3590858
20
96.5866929
40
1.8292162
50
318.1706035
51
323.5099663
0
ARC
8
DEFAULT_255_2_778
10
8.2594684
20
95.9220747
40
0.7101082
50
323.4199637
51
331.2261412
0
ARC
8
DEFAULT_255_2_778
10
8.5685729
20
95.7518393
40
0.3572266
50
331.2946586
51
359.7790074
0
ARC
8
DEFAULT_255_2_778
10
8.6565064
20
95.7606398
40
0.2694828
50
357.8354195
51
42.7489932
0
ARC
8
DEFAULT_255_2_778
10
8.675243
20
95.7692464
40
0.2499637
50
44.2157001
51
92.555724
0
ARC
8
DEFAULT_255_2_778
10
8.6500713
20
95.7067864
40
0.3124899
50
87.4275177
51
125.1733766
0
ARC
8
DEFAULT_255_2_778
10
8.6190453
20
95.7658331
40
0.2465036
50
127.1850162
51
135.7757917
0
ARC
8
DEFAULT_255_2_778
10
8.6635715
20
95.7353785
40
0.2997951
50
137.5403279
51
180.2665324
0
ARC
8
DEFAULT_255_2_778
10
8.8663516
20
95.7119531
40
0.5030545
50
177.4899888
51
180.0218302
0
ARC
8
DEFAULT_255_2_778
10
8.6157906
20
95.7295847
40
0.4441515
50
134.2444288
51
182.2998303
0
ARC
8
DEFAULT_255_2_778
10
8.6287011
20
95.6991032
40
0.4751475
50
92.3239131
51
132.7949647
0
ARC
8
DEFAULT_255_2_778
10
8.6634308
20
95.4466491
40
0.7292127
50
89.9476648
51
94.2464994
0
ARC
8
DEFAULT_255_2_778
10
8.6773871
20
95.6219745
40
0.5540463
50
66.7301469
51
91.3745215
0
ARC
8
DEFAULT_255_2_778
10
8.7353364
20
95.7762812
40
0.3894747
50
48.0097004
51
65.5935925
0
ARC
8
DEFAULT_255_2_778
10
8.7430944
20
95.788605
40
0.375133
50
357.5947027
51
47.6311366
0
ARC
8
DEFAULT_255_2_778
10
8.6334531
20
95.785858
40
0.4846181
50
333.65666
51
358.4632472
0
ARC
8
DEFAULT_255_2_778
10
8.1289509
20
96.0199614
40
1.0407068
50
322.2954777
51
334.4318791
0
ARC
8
DEFAULT_255_2_778
10
7.4749401
20
96.5070399
40
1.8560935
50
317.1085583
51
322.7468394
0
LINE
8
DEFAULT_255_2_778
10
9.1871969
20
94.8066614
11
9.1871969
21
94.6505614
0
LINE
8
DEFAULT_255_2_778
10
9.1871969
20
94.6505614
11
8.2010969
21
94.6505614
0
LINE
8
DEFAULT_255_2_778
10
8.2010969
20
94.6505614
11
8.2010969
21
94.7881614
0
LINE
8
DEFAULT_255_2_778
10
8.2010969
20
94.7881614
11
8.7220969
21
95.3667614
0
LINE
8
DEFAULT_255_2_778
10
8.3632969
20
95.7117614
11
8.1719969
21
95.7117614
0
LINE
8
DEFAULT_255_2_778
10
8.8347969
20
95.2437614
11
8.4317969
21
94.8066614
0
LINE
8
DEFAULT_255_2_778
10
8.4317969
20
94.8066614
11
9.1871969
21
94.8066614
0
LINE
8
DEFAULT_255_2_778
10
9.1871969
20
94.8066614
11
9.1871969
21
94.8066614
0
ARC
8
DEFAULT_255_2_778
10
9.4888368
20
95.2799294
40
1.4285026
50
350.734489
51
0.4979736
0
ARC
8
DEFAULT_255_2_778
10
10.1987428
20
95.1586091
40
0.7083461
50
333.78456
51
351.1741616
0
ARC
8
DEFAULT_255_2_778
10
10.4321712
20
95.0521839
40
0.4519799
50
325.0163747
51
332.8162474
0
ARC
8
DEFAULT_255_2_778
10
10.489321
20
95.0182653
40
0.3857412
50
273.0550246
51
324.2772085
0
ARC
8
DEFAULT_255_2_778
10
10.4450685
20
95.2819836
40
0.6521399
50
269.896064
51
275.7035477
0
ARC
8
DEFAULT_255_2_778
10
10.4304615
20
95.1243594
40
0.4946968
50
244.5583795
51
271.5549585
0
ARC
8
DEFAULT_255_2_778
10
10.3809809
20
95.0000312
40
0.3612746
50
215.6156356
51
243.1740282
0
ARC
8
DEFAULT_255_2_778
10
10.5669314
20
95.1204243
40
0.5826451
50
192.3016926
51
214.5914129
0
ARC
8
DEFAULT_255_2_778
10
11.1422745
20
95.2588773
40
1.1743452
50
181.4670895
51
192.9209371
0
ARC
8
DEFAULT_255_2_778
10
11.6640624
20
95.2893687
40
1.6968291
50
180.7673276
51
182.0452536
0
ARC
8
DEFAULT_255_2_778
10
11.354289
20
95.5345112
40
1.3869596
50
170.5005749
51
180.5150005
0
ARC
8
DEFAULT_255_2_778
10
10.6600938
20
95.6564739
40
0.6821793
50
152.7817672
51
170.9811527
0
ARC
8
DEFAULT_255_2_778
10
10.4416297
20
95.7597303
40
0.4407523
50
144.6167633
51
151.7289566
0
ARC
8
DEFAULT_255_2_778
10
10.3932887
20
95.7877772
40
0.3851339
50
93.6920919
51
143.8542976
0
ARC
8
DEFAULT_255_2_778
10
10.4403232
20
95.5183273
40
0.657719
50
89.8726145
51
96.2702659
0
ARC
8
DEFAULT_255_2_778
10
10.4549985
20
95.6596409
40
0.5165729
50
66.3349098
51
91.4656819
0
ARC
8
DEFAULT_255_2_778
10
10.5133579
20
95.8109979
40
0.3545942
50
36.2043243
51
65.1550684
0
ARC
8
DEFAULT_255_2_778
10
10.3518168
20
95.7059982
40
0.5470685
50
12.7203506
51
35.0845568
0
ARC
8
DEFAULT_255_2_778
10
9.7762264
20
95.5628604
40
1.1401226
50
1.906413
51
13.3678295
0
ARC
8
DEFAULT_255_2_778
10
9.1957364
20
95.5258911
40
1.7216114
50
0.4876853
51
2.4934115
0
ARC
8
DEFAULT_255_2_778
10
9.554464
20
95.5659939
40
1.1715824
50
359.4156212
51
8.8931467
0
ARC
8
DEFAULT_255_2_778
10
10.2455697
20
95.6807061
40
0.471096
50
8.1033534
51
27.5105222
0
ARC
8
DEFAULT_255_2_778
10
10.421238
20
95.7627623
40
0.2775146
50
29.2379232
51
31.568179
0
ARC
8
DEFAULT_255_2_778
10
10.4578429
20
95.7850204
40
0.2346744
50
31.6167183
51
93.9234788
0
ARC
8
DEFAULT_255_2_778
10
10.4257021
20
95.7879302
40
0.2317733
50
86.0208881
51
148.6409819
0
ARC
8
DEFAULT_255_2_778
10
10.6202544
20
95.6859292
40
0.451209
50
150.4373036
51
170.8727137
0
ARC
8
DEFAULT_255_2_778
10
11.2464884
20
95.570027
40
1.0880039
50
170.0776966
51
180.0780568
0
ARC
8
DEFAULT_255_2_778
10
11.3011413
20
95.2504805
40
1.1427216
50
179.3850626
51
189.4522097
0
ARC
8
DEFAULT_255_2_778
10
10.6405946
20
95.1342537
40
0.4720961
50
188.7032912
51
208.8374485
0
ARC
8
DEFAULT_255_2_778
10
10.4813153
20
95.0564734
40
0.2951812
50
210.5244054
51
211.4082925
0
ARC
8
DEFAULT_255_2_778
10
10.4320668
20
95.0207067
40
0.2345599
50
210.2208196
51
272.8881603
0
ARC
8
DEFAULT_255_2_778
10
10.4573908
20
95.0173826
40
0.2313324
50
266.6531451
51
328.3351527
0
ARC
8
DEFAULT_255_2_778
10
10.2750036
20
95.1174594
40
0.4392306
50
329.7134965
51
350.5352521
0
ARC
8
DEFAULT_255_2_778
10
9.6284393
20
95.2414902
40
1.0975057
50
349.6988452
51
359.8043003
0
ARC
8
DEFAULT_255_2_778
10
9.0657115
20
95.2617676
40
1.660401
50
359.1708995
51
359.2917956
0
ARC
8
DEFAULT_255_2_778
10
11.725848
20
95.7572162
40
0.3489812
50
326.0349209
51
0.907714
0
ARC
8
DEFAULT_255_2_778
10
11.680135
20
95.7908938
40
0.405717
50
295.4819845
51
325.6970965
0
ARC
8
DEFAULT_255_2_778
10
11.6904227
20
95.0259744
40
0.4311848
50
35.5620593
51
67.6070327
0
ARC
8
DEFAULT_255_2_778
10
11.7384382
20
95.0613054
40
0.3715778
50
359.2659147
51
35.4362082
0
ARC
8
DEFAULT_255_2_778
10
11.7167338
20
95.0395959
40
0.3936168
50
311.6426861
51
2.4678814
0
ARC
8
DEFAULT_255_2_778
10
11.66652
20
95.113512
40
0.48236
50
272.4395782
51
310.2657342
0
ARC
8
DEFAULT_255_2_778
10
11.6320811
20
95.369567
40
0.7400224
50
269.9461428
51
274.2600189
0
ARC
8
DEFAULT_255_2_778
10
11.6179185
20
95.2006801
40
0.5712941
50
245.8008143
51
271.3507464
0
ARC
8
DEFAULT_255_2_778
10
11.5648673
20
95.062259
40
0.4233728
50
228.3830646
51
244.6706069
0
ARC
8
DEFAULT_255_2_778
10
11.5474551
20
95.0395378
40
0.3948275
50
177.560305
51
228.0822607
0
ARC
8
DEFAULT_255_2_778
10
11.5355102
20
95.0605795
40
0.3825481
50
145.647499
51
180.6342585
0
ARC
8
DEFAULT_255_2_778
10
11.5610687
20
95.0417875
40
0.4142542
50
112.2688933
51
145.4964555
0
ARC
8
DEFAULT_255_2_778
10
11.5735432
20
95.7797139
40
0.3929824
50
213.5118182
51
244.455663
0
ARC
8
DEFAULT_255_2_778
10
11.5421522
20
95.756881
40
0.3542073
50
179.1323309
51
213.2358282
0
ARC
8
DEFAULT_255_2_778
10
11.5859444
20
95.7784125
40
0.3982871
50
139.8934924
51
182.3264532
0
ARC
8
DEFAULT_255_2_778
10
11.5635327
20
95.7869785
40
0.37571
50
132.4630179
51
138.6907675
0
ARC
8
DEFAULT_255_2_778
10
11.6028376
20
95.7318449
40
0.4429945
50
91.0576781
51
131.3990642
0
ARC
8
DEFAULT_255_2_778
10
11.6310592
20
95.4999066
40
0.6758382
50
89.9723373
51
93.0872879
0
ARC
8
DEFAULT_255_2_778
10
11.6454697
20
95.6840079
40
0.4919385
50
60.6898549
51
91.6406035
0
ARC
8
DEFAULT_255_2_778
10
11.6821401
20
95.7680179
40
0.4008362
50
47.6269745
51
59.3818261
0
ARC
8
DEFAULT_255_2_778
10
11.6868485
20
95.7806428
40
0.3883686
50
357.2984483
51
46.8848648
0
ARC
8
DEFAULT_255_2_778
10
11.6422228
20
95.0717404
40
0.2766695
50
357.7844742
51
44.7864507
0
ARC
8
DEFAULT_255_2_778
10
11.6410371
20
95.0625344
40
0.2840536
50
45.9359659
51
92.3710559
0
ARC
8
DEFAULT_255_2_778
10
11.6165357
20
95.0675515
40
0.2790846
50
87.3815747
51
134.166269
0
ARC
8
DEFAULT_255_2_778
10
11.6244782
20
95.0733032
40
0.2806605
50
136.1478451
51
182.5033054
0
ARC
8
DEFAULT_255_2_778
10
11.6114549
20
95.0466185
40
0.2677583
50
176.9115163
51
224.3500007
0
ARC
8
DEFAULT_255_2_778
10
11.6099259
20
95.0698424
40
0.283451
50
227.9252604
51
270.9611897
0
ARC
8
DEFAULT_255_2_778
10
11.6312721
20
95.2668402
40
0.4806955
50
268.022032
51
270.0135148
0
ARC
8
DEFAULT_255_2_778
10
11.6453128
20
95.089399
40
0.3035739
50
267.3704646
51
305.6523835
0
ARC
8
DEFAULT_255_2_778
10
11.6758949
20
95.0322222
40
0.2394387
50
307.6811383
51
314.0207864
0
ARC
8
DEFAULT_255_2_778
10
11.652631
20
95.0471521
40
0.2664169
50
315.3873423
51
2.9891126
0
ARC
8
DEFAULT_255_2_778
10
11.6210317
20
95.7732255
40
0.2461371
50
87.5891269
51
134.3130955
0
ARC
8
DEFAULT_255_2_778
10
11.635298
20
95.7729945
40
0.2564654
50
136.558148
51
183.0061231
0
ARC
8
DEFAULT_255_2_778
10
11.6332679
20
95.7483666
40
0.2543282
50
177.4809412
51
223.2377849
0
ARC
8
DEFAULT_255_2_778
10
11.620142
20
95.746815
40
0.2438296
50
225.085354
51
272.6429687
0
ARC
8
DEFAULT_255_2_778
10
11.6427892
20
95.7464006
40
0.243423
50
267.3148658
51
314.9568115
0
ARC
8
DEFAULT_255_2_778
10
11.6285401
20
95.7485864
40
0.2551808
50
316.8743796
51
2.4612305
0
ARC
8
DEFAULT_255_2_778
10
11.6289926
20
95.7696003
40
0.2546915
50
357.7373045
51
44.0378156
0
ARC
8
DEFAULT_255_2_778
10
11.6387711
20
95.7751353
40
0.2438306
50
44.7000951
51
91.8062832
0
ARC
8
DEFAULT_255_2_778
10
14.1015376
20
95.4703838
40
0.6848931
50
60.8176109
51
91.1254253
0
ARC
8
DEFAULT_255_2_778
10
14.1429373
20
95.5590877
40
0.5873051
50
26.5112149
51
60.1243262
0
ARC
8
DEFAULT_255_2_778
10
13.9569336
20
95.4677451
40
0.7945238
50
359.8879916
51
26.4182339
0
ARC
8
DEFAULT_255_2_778
10
13.704655
20
95.4492553
40
1.0469379
50
0.2183326
51
0.926927
0
ARC
8
DEFAULT_255_2_778
10
13.9148506
20
95.3433459
40
0.8368487
50
338.4115849
51
0.944798
0
ARC
8
DEFAULT_255_2_778
10
14.0690619
20
95.2927111
40
0.6748937
50
332.7929524
51
337.5916986
0
ARC
8
DEFAULT_255_2_778
10
14.1508219
20
95.2435124
40
0.5797207
50
299.3179603
51
333.4229417
0
ARC
8
DEFAULT_255_2_778
10
14.0895248
20
95.3735346
40
0.7231758
50
270.2123586
51
298.5082078
0
ARC
8
DEFAULT_255_2_778
10
14.0691149
20
95.6163245
40
0.9662366
50
270.6208964
51
271.3693317
0
ARC
8
DEFAULT_255_2_778
10
14.0843116
20
95.3275191
40
0.5150573
50
268.4729001
51
296.9382406
0
ARC
8
DEFAULT_255_2_778
10
14.1267745
20
95.2235152
40
0.4032078
50
298.2544041
51
318.2915706
0
ARC
8
DEFAULT_255_2_778
10
14.047534
20
95.2806514
40
0.5004804
50
319.4441823
51
351.5030831
0
ARC
8
DEFAULT_255_2_778
10
13.677032
20
95.3559878
40
0.8782696
50
350.2135292
51
0.349476
0
ARC
8
DEFAULT_255_2_778
10
13.7784731
20
95.4620127
40
0.7769173
50
359.0583544
51
16.7830781
0
ARC
8
DEFAULT_255_2_778
10
14.0760283
20
95.5490202
40
0.4669205
50
17.1042586
51
39.7751168
0
ARC
8
DEFAULT_255_2_778
10
14.120912
20
95.5742738
40
0.4163721
50
41.0558685
51
88.6722678
0
ARC
8
DEFAULT_255_2_778
10
14.0871062
20
95.3354818
40
0.6564921
50
86.2047868
51
89.4606942
0
LINE
8
DEFAULT_255_2_778
10
9.8070855
20
95.3677448
11
9.8070855
21
95.2116448
0
LINE
8
DEFAULT_255_2_778
10
9.8070855
20
95.2116448
11
9.3027855
21
95.2116448
0
LINE
8
DEFAULT_255_2_778
10
9.3027855
20
95.2116448
11
9.3027855
21
95.3677448
0
LINE
8
DEFAULT_255_2_778
10
9.3027855
20
95.3677448
11
9.8070855
21
95.3677448
0
LINE
8
DEFAULT_255_2_778
10
9.8070855
20
95.3677448
11
9.8070855
21
95.3677448
0
LINE
8
DEFAULT_255_2_778
10
10.9172855
20
95.5405448
11
10.9172855
21
95.2923448
0
LINE
8
DEFAULT_255_2_778
10
9.9673855
20
95.2666448
11
9.9673855
21
95.5220448
0
LINE
8
DEFAULT_255_2_778
10
10.9172855
20
95.5405448
11
10.9172855
21
95.5405448
0
LINE
8
DEFAULT_255_2_778
10
10.7259855
20
95.2407448
11
10.7259855
21
95.5540448
0
LINE
8
DEFAULT_255_2_778
10
10.1584855
20
95.5685448
11
10.1584855
21
95.2627448
0
LINE
8
DEFAULT_255_2_778
10
10.7259855
20
95.2412448
11
10.7259855
21
95.2407448
0
LINE
8
DEFAULT_255_2_778
10
12.0747855
20
95.7622448
11
12.0747855
21
95.7627448
0
LINE
8
DEFAULT_255_2_778
10
11.9186855
20
95.0610448
11
11.9186855
21
95.0610448
0
LINE
8
DEFAULT_255_2_778
10
11.6310855
20
96.0188448
11
11.6313855
21
96.0191448
0
LINE
8
DEFAULT_255_2_778
10
13.4400855
20
96.1554448
11
13.4400855
21
95.9921448
0
LINE
8
DEFAULT_255_2_778
10
13.4400855
20
95.9921448
11
12.9563855
21
95.9921448
0
LINE
8
DEFAULT_255_2_778
10
12.9563855
20
95.9921448
11
12.9563855
21
94.6507448
0
LINE
8
DEFAULT_255_2_778
10
12.9563855
20
94.6507448
11
12.7590855
21
94.6507448
0
LINE
8
DEFAULT_255_2_778
10
12.7590855
20
94.6507448
11
12.7590855
21
95.9921448
0
LINE
8
DEFAULT_255_2_778
10
12.7590855
20
95.9921448
11
12.2764855
21
95.9921448
0
LINE
8
DEFAULT_255_2_778
10
12.2764855
20
95.9921448
11
12.2764855
21
96.1554448
0
LINE
8
DEFAULT_255_2_778
10
12.2764855
20
96.1554448
11
13.4400855
21
96.1554448
0
LINE
8
DEFAULT_255_2_778
10
13.4400855
20
96.1554448
11
13.4400855
21
96.1554448
0
LINE
8
DEFAULT_255_2_778
10
14.0798855
20
94.6504448
11
13.6633855
21
94.6504448
0
LINE
8
DEFAULT_255_2_778
10
13.6633855
20
94.6504448
11
13.6633855
21
96.1551448
0
LINE
8
DEFAULT_255_2_778
10
13.6633855
20
96.1551448
11
14.0880855
21
96.1551448
0
LINE
8
DEFAULT_255_2_778
10
14.7515855
20
95.4532448
11
14.7515855
21
95.3571448
0
LINE
8
DEFAULT_255_2_778
10
14.0795855
20
94.6501448
11
14.0798855
21
94.6504448
0
LINE
8
DEFAULT_255_2_778
10
14.0932855
20
95.9919448
11
13.8617855
21
95.9919448
0
LINE
8
DEFAULT_255_2_778
10
13.8617855
20
95.9919448
11
13.8617855
21
94.8126448
0
LINE
8
DEFAULT_255_2_778
10
13.8617855
20
94.8126448
11
14.0705855
21
94.8126448
0
LINE
8
DEFAULT_255_2_778
10
14.5552855
20
95.3613448
11
14.5552855
21
95.4492448
0
LINE
8
DEFAULT_255_2_778
10
14.0932855
20
95.9919448
11
14.0932855
21
95.9919448
0
ARC
8
DEFAULT_255_2_778
10
14.1596858
20
96.5866929
40
1.8292162
50
318.1706035
51
323.5099663
0
ARC
8
DEFAULT_255_2_778
10
15.0600684
20
95.9220747
40
0.7101082
50
323.4199637
51
331.2261412
0
ARC
8
DEFAULT_255_2_778
10
15.3691729
20
95.7518393
40
0.3572266
50
331.2946586
51
359.7790074
0
ARC
8
DEFAULT_255_2_778
10
15.4571064
20
95.7606398
40
0.2694828
50
357.8354195
51
42.7489932
0
ARC
8
DEFAULT_255_2_778
10
15.475843
20
95.7692464
40
0.2499637
50
44.2157001
51
92.555724
0
ARC
8
DEFAULT_255_2_778
10
15.4506713
20
95.7067864
40
0.3124899
50
87.4275177
51
125.1733766
0
ARC
8
DEFAULT_255_2_778
10
15.4196453
20
95.7658331
40
0.2465036
50
127.1850162
51
135.7757917
0
ARC
8
DEFAULT_255_2_778
10
15.4641715
20
95.7353785
40
0.2997951
50
137.5403279
51
180.2665324
0
ARC
8
DEFAULT_255_2_778
10
15.6669516
20
95.7119531
40
0.5030545
50
177.4899888
51
180.0218302
0
ARC
8
DEFAULT_255_2_778
10
15.4163906
20
95.7295847
40
0.4441515
50
134.2444288
51
182.2998303
0
ARC
8
DEFAULT_255_2_778
10
15.4293011
20
95.6991032
40
0.4751475
50
92.3239131
51
132.7949647
0
ARC
8
DEFAULT_255_2_778
10
15.4640308
20
95.4466491
40
0.7292127
50
89.9476648
51
94.2464994
0
ARC
8
DEFAULT_255_2_778
10
15.4779871
20
95.6219745
40
0.5540463
50
66.7301469
51
91.3745215
0
ARC
8
DEFAULT_255_2_778
10
15.5359364
20
95.7762812
40
0.3894747
50
48.0097004
51
65.5935925
0
ARC
8
DEFAULT_255_2_778
10
15.5436944
20
95.788605
40
0.375133
50
357.5947027
51
47.6311366
0
ARC
8
DEFAULT_255_2_778
10
15.4340531
20
95.785858
40
0.4846181
50
333.65666
51
358.4632472
0
ARC
8
DEFAULT_255_2_778
10
14.9295509
20
96.0199614
40
1.0407068
50
322.2954777
51
334.4318791
0
ARC
8
DEFAULT_255_2_778
10
14.2755401
20
96.5070399
40
1.8560935
50
317.1085583
51
322.7468394
0
LINE
8
DEFAULT_255_2_778
10
15.9877969
20
94.8066614
11
15.9877969
21
94.6505614
0
LINE
8
DEFAULT_255_2_778
10
15.9877969
20
94.6505614
11
15.0016969
21
94.6505614
0
LINE
8
DEFAULT_255_2_778
10
15.0016969
20
94.6505614
11
15.0016969
21
94.7881614
0
LINE
8
DEFAULT_255_2_778
10
15.0016969
20
94.7881614
11
15.5226969
21
95.3667614
0
LINE
8
DEFAULT_255_2_778
10
15.1638969
20
95.7117614
11
14.9725969
21
95.7117614
0
LINE
8
DEFAULT_255_2_778
10
15.6353969
20
95.2437614
11
15.2323969
21
94.8066614
0
LINE
8
DEFAULT_255_2_778
10
15.2323969
20
94.8066614
11
15.9877969
21
94.8066614
0
LINE
8
DEFAULT_255_2_778
10
15.9877969
20
94.8066614
11
15.9877969
21
94.8066614
0
ARC
8
DEFAULT_255_2_778
10
16.8079559
20
95.467042
40
0.6882221
50
70.6313466
51
91.0764067
0
ARC
8
DEFAULT_255_2_778
10
16.8818445
20
95.6929619
40
0.4506138
50
48.2112649
51
69.9678105
0
ARC
8
DEFAULT_255_2_778
10
16.8943941
20
95.7121279
40
0.4279741
50
357.7120779
51
47.7540932
0
ARC
8
DEFAULT_255_2_778
10
16.8412754
20
95.6813997
40
0.4809452
50
332.6635747
51
1.6255259
0
ARC
8
DEFAULT_255_2_778
10
16.9437469
20
95.6387133
40
0.3704279
50
310.6438742
51
331.2501854
0
ARC
8
DEFAULT_255_2_778
10
16.876148
20
95.7332271
40
0.4862817
50
278.6477666
51
309.433738
0
ARC
8
DEFAULT_255_2_778
10
16.7986749
20
96.1148254
40
0.8754016
50
269.623801
51
279.9055348
0
ARC
8
DEFAULT_255_2_778
10
16.8077662
20
95.8324178
40
0.4304636
50
268.3041425
51
292.79055
0
ARC
8
DEFAULT_255_2_778
10
16.8681511
20
95.6714823
40
0.2587879
50
294.2674687
51
311.2927777
0
ARC
8
DEFAULT_255_2_778
10
16.8555689
20
95.6724825
40
0.2679869
50
313.1731939
51
1.6766211
0
ARC
8
DEFAULT_255_2_778
10
16.6659172
20
95.693378
40
0.45771
50
358.3656163
51
0.0081
0
ARC
8
DEFAULT_255_2_778
10
16.8416836
20
95.7063661
40
0.2822395
50
357.3755744
51
45.665074
0
ARC
8
DEFAULT_255_2_778
10
16.8226534
20
95.667666
40
0.3234987
50
48.0450853
51
89.2456293
0
ARC
8
DEFAULT_255_2_778
10
16.7958092
20
95.4613372
40
0.5307117
50
86.640144
51
88.8536123
0
LINE
8
DEFAULT_255_2_778
10
16.7929271
20
95.2396427
11
16.4383271
21
95.2396427
0
LINE
8
DEFAULT_255_2_778
10
16.4383271
20
95.2396427
11
16.4383271
21
94.6504427
0
LINE
8
DEFAULT_255_2_778
10
16.4383271
20
94.6504427
11
16.2399271
21
94.6504427
0
LINE
8
DEFAULT_255_2_778
10
16.2399271
20
94.6504427
11
16.2399271
21
96.1551427
0
LINE
8
DEFAULT_255_2_778
10
16.2399271
20
96.1551427
11
16.7950271
21
96.1551427
0
LINE
8
DEFAULT_255_2_778
10
16.7929271
20
95.2394427
11
16.7929271
21
95.2396427
0
LINE
8
DEFAULT_255_2_778
10
16.4383271
20
95.9921427
11
16.4383271
21
95.4021427
0
LINE
8
DEFAULT_255_2_778
10
16.4383271
20
95.4021427
11
16.7950271
21
95.4021427
0
LINE
8
DEFAULT_255_2_778
10
16.8064271
20
95.9919427
11
16.4383271
21
95.9919427
0
LINE
8
DEFAULT_255_2_778
10
16.4383271
20
95.9919427
11
16.4383271
21
95.9921427
0
ENDSEC
0
EOF