0
SECTION
2
HEADER
9
$MEASUREMENT
70
1
0
ENDSEC
0
SECTION
2
TABLES
0
TABLE
2
LTYPE
0
LTYPE
72
65
70
64
2
CONTINUOUS
3
______
73
0
40
0
0
ENDTAB
0
TABLE
2
LAYER
0
LAYER
2
DEFAULT_255_2_778
70
0
62
255
6
CONTINUOUS
0
LAYER
2
DEFAULT_255_1_388
70
0
62
255
6
CONTINUOUS
0
ENDTAB
0
ENDSEC
0
SECTION
2
ENTITIES
0
ARC
8
DEFAULT_255_2_778
10
3.5700693
20
75.805203
40
0.7914215
50
129.1312896
51
180.1450914
0
ARC
8
DEFAULT_255_2_778
10
3.5703345
20
75.8056901
40
0.7912112
50
89.854026
51
129.1684493
0
ARC
8
DEFAULT_255_2_778
10
25.7993937
20
75.8053767
40
0.7915249
50
39.4792447
51
90.147911
0
ARC
8
DEFAULT_255_2_778
10
25.7999935
20
75.8052233
40
0.7911595
50
359.8533901
51
39.5154338
0
ARC
8
DEFAULT_255_2_778
10
25.7996693
20
-1.9863492
40
0.7914836
50
309.4761667
51
0.1482649
0
ARC
8
DEFAULT_255_2_778
10
25.799398
20
-1.9867803
40
0.7913235
50
269.8517415
51
309.511178
0
ARC
8
DEFAULT_255_2_778
10
3.570342
20
-1.9867221
40
0.7913815
50
219.1282118
51
270.1454017
0
ARC
8
DEFAULT_255_2_778
10
3.5700247
20
-1.9863397
40
0.7913769
50
179.8524075
51
219.1641908
0
LINE
8
DEFAULT_255_2_778
10
3.5723503
20
76.5968989
11
25.7973503
21
76.5968989
0
LINE
8
DEFAULT_255_2_778
10
26.5911503
20
75.8031989
11
26.5911503
21
-1.9843011
0
LINE
8
DEFAULT_255_2_778
10
25.7973503
20
-2.7781011
11
3.5723503
21
-2.7781011
0
LINE
8
DEFAULT_255_2_778
10
2.7786503
20
-1.9843011
11
2.7786503
21
75.8031989
0
LINE
8
DEFAULT_255_1_388
10
10.1323094
20
-0.1247683
11
9.8223868
21
-0.1247683
0
LINE
8
DEFAULT_255_1_388
10
9.8223868
20
-0.1247683
11
9.8223868
21
-0.6398
0
LINE
8
DEFAULT_255_1_388
10
9.8223868
20
-0.6398
11
9.6489024
21
-0.6398
0
LINE
8
DEFAULT_255_1_388
10
9.6489024
20
-0.6398
11
9.6489024
21
0.6757898
0
LINE
8
DEFAULT_255_1_388
10
9.6489024
20
0.6757898
11
10.1341165
21
0.6757898
0
LINE
8
DEFAULT_255_1_388
10
9.8223868
20
0.5330267
11
9.8223868
21
0.0170914
0
LINE
8
DEFAULT_255_1_388
10
9.8223868
20
0.0170914
11
10.1341165
21
0.0170914
0
LINE
8
DEFAULT_255_1_388
10
10.1440557
20
0.5330267
11
9.8223868
21
0.5330267
0
ARC
8
DEFAULT_255_1_388
10
10.1388538
20
-0.0058666
40
0.6816729
50
78.8380084
51
90.398184
0
ARC
8
DEFAULT_255_1_388
10
10.1856569
20
0.2214796
40
0.449571
50
58.9633273
51
79.0810717
0
ARC
8
DEFAULT_255_1_388
10
10.2195953
20
0.2844823
40
0.3781049
50
48.0194715
51
58.4475592
0
ARC
8
DEFAULT_255_1_388
10
10.2295773
20
0.2940818
40
0.3642936
50
3.3374546
51
48.1766642
0
ARC
8
DEFAULT_255_1_388
10
10.091058
20
0.2741581
40
0.5038766
50
359.9483251
51
4.6822857
0
ARC
8
DEFAULT_255_1_388
10
10.1050503
20
0.2693779
40
0.4899031
50
346.1879032
51
0.5059221
0
ARC
8
DEFAULT_255_1_388
10
10.2579295
20
0.2296763
40
0.3319729
50
310.8832219
51
346.5426612
0
ARC
8
DEFAULT_255_1_388
10
10.2232143
20
0.2765853
40
0.3901853
50
286.6925305
51
310.228778
0
ARC
8
DEFAULT_255_1_388
10
10.1591873
20
0.4779585
40
0.6014737
50
274.6848219
51
287.0247342
0
ARC
8
DEFAULT_255_1_388
10
10.1338422
20
0.7264088
40
0.8511785
50
269.8968222
51
275.0192639
0
ARC
8
DEFAULT_255_1_388
10
10.1369415
20
0.4926144
40
0.4755314
50
269.6596206
51
279.4150542
0
ARC
8
DEFAULT_255_1_388
10
10.1658873
20
0.3248945
40
0.3053379
50
279.2050006
51
294.9901776
0
ARC
8
DEFAULT_255_1_388
10
10.1985508
20
0.2520353
40
0.2255036
50
295.2886769
51
311.2912669
0
ARC
8
DEFAULT_255_1_388
10
10.2065249
20
0.2401938
40
0.2113522
50
311.7853512
51
347.2860549
0
ARC
8
DEFAULT_255_1_388
10
10.095841
20
0.268643
40
0.3256011
50
346.6891629
51
0.1057086
0
ARC
8
DEFAULT_255_1_388
10
10.003587
20
0.2719247
40
0.417863
50
359.63239
51
359.9961329
0
ARC
8
DEFAULT_255_1_388
10
10.1200475
20
0.2746987
40
0.3014155
50
359.4673371
51
15.5931159
0
ARC
8
DEFAULT_255_1_388
10
10.1903538
20
0.2936937
40
0.2285918
50
15.7441779
51
46.620186
0
ARC
8
DEFAULT_255_1_388
10
10.1737298
20
0.2745361
40
0.2539359
50
46.8628482
51
75.6676625
0
ARC
8
DEFAULT_255_1_388
10
10.1406354
20
0.1554243
40
0.3775415
50
75.2763152
51
88.2916439
0
ARC
8
DEFAULT_255_1_388
10
10.1340354
20
0.0552097
40
0.4779221
50
87.8589087
51
88.7986197
0
LINE
8
DEFAULT_255_1_388
10
11.6349371
20
-0.5033618
11
11.6349371
21
-0.6398
0
LINE
8
DEFAULT_255_1_388
10
11.6349371
20
-0.6398
11
10.7729366
21
-0.6398
0
LINE
8
DEFAULT_255_1_388
10
10.7729366
20
-0.6398
11
10.7729366
21
-0.5196259
0
LINE
8
DEFAULT_255_1_388
10
10.7729366
20
-0.5196259
11
11.2283331
21
-0.0136298
0
LINE
8
DEFAULT_255_1_388
10
10.9147962
20
0.2881607
11
10.7476368
21
0.2881607
0
LINE
8
DEFAULT_255_1_388
10
11.3268216
20
-0.121154
11
10.9744314
21
-0.5033618
0
LINE
8
DEFAULT_255_1_388
10
10.9744314
20
-0.5033618
11
11.6349371
21
-0.5033618
0
ARC
8
DEFAULT_255_1_388
10
9.710739
20
1.3283983
40
2.0258655
50
318.5132526
51
320.7829045
0
ARC
8
DEFAULT_255_1_388
10
10.3055347
20
0.8442929
40
1.2589638
50
320.7372878
51
323.9739031
0
ARC
8
DEFAULT_255_1_388
10
10.7464279
20
0.5248554
40
0.7145141
50
323.8962701
51
328.64194
0
ARC
8
DEFAULT_255_1_388
10
10.9766536
20
0.3828545
40
0.4440242
50
328.8294576
51
331.7891185
0
ARC
8
DEFAULT_255_1_388
10
11.0888856
20
0.3249374
40
0.3177517
50
331.4254512
51
352.9365785
0
ARC
8
DEFAULT_255_1_388
10
11.1041856
20
0.321505
40
0.3021496
50
353.2257659
51
0.0166158
0
ARC
8
DEFAULT_255_1_388
10
11.1278617
20
0.3240894
40
0.2784847
50
359.486299
51
15.9343185
0
ARC
8
DEFAULT_255_1_388
10
11.1848884
20
0.3394269
40
0.2194403
50
16.1712913
51
43.5286088
0
ARC
8
DEFAULT_255_1_388
10
11.1935828
20
0.3481191
40
0.2071504
50
43.4417391
51
83.1661095
0
ARC
8
DEFAULT_255_1_388
10
11.1784989
20
0.2652316
40
0.2912888
50
82.160179
51
90.1505708
0
ARC
8
DEFAULT_255_1_388
10
11.1749471
20
0.2048279
40
0.3517025
50
89.5460741
51
102.5418361
0
ARC
8
DEFAULT_255_1_388
10
11.1476191
20
0.3207933
40
0.2325748
50
102.1738499
51
129.206123
0
ARC
8
DEFAULT_255_1_388
10
11.1387644
20
0.3347664
40
0.2161591
50
129.72865
51
135.753947
0
ARC
8
DEFAULT_255_1_388
10
11.1524127
20
0.3238728
40
0.2335433
50
136.1757367
51
166.3673339
0
ARC
8
DEFAULT_255_1_388
10
11.2656815
20
0.2935148
40
0.3507873
50
165.9090694
51
178.8684636
0
ARC
8
DEFAULT_255_1_388
10
11.3632586
20
0.2882263
40
0.4484624
50
178.4391136
51
180.0083808
0
ARC
8
DEFAULT_255_1_388
10
11.2053288
20
0.2926197
40
0.4577138
50
163.2878482
51
180.5581842
0
ARC
8
DEFAULT_255_1_388
10
11.1151329
20
0.3174393
40
0.3641968
50
133.4540601
51
162.947111
0
ARC
8
DEFAULT_255_1_388
10
11.1352211
20
0.2960789
40
0.3935189
50
100.7869829
51
133.4382499
0
ARC
8
DEFAULT_255_1_388
10
11.1743456
20
0.1218399
40
0.5720313
50
89.660664
51
101.3702276
0
ARC
8
DEFAULT_255_1_388
10
11.1818065
20
0.1287263
40
0.5651495
50
78.2172678
51
90.412935
0
ARC
8
DEFAULT_255_1_388
10
11.2217531
20
0.3114511
40
0.378122
50
55.9269121
51
78.4888449
0
ARC
8
DEFAULT_255_1_388
10
11.2438246
20
0.3495187
40
0.3342379
50
47.929771
51
55.4049217
0
ARC
8
DEFAULT_255_1_388
10
11.2552776
20
0.3611618
40
0.3179217
50
4.334829
51
48.0560205
0
ARC
8
DEFAULT_255_1_388
10
11.1320578
20
0.3420487
40
0.442341
50
359.9251713
51
5.5971671
0
ARC
8
DEFAULT_255_1_388
10
11.1802732
20
0.3483728
40
0.3941854
50
337.8914027
51
358.9967534
0
ARC
8
DEFAULT_255_1_388
10
10.8750303
20
0.4661295
40
0.7213271
50
326.9132501
51
338.3508308
0
ARC
8
DEFAULT_255_1_388
10
10.4266414
20
0.7535105
40
1.2538973
50
319.6471833
51
327.0959558
0
ARC
8
DEFAULT_255_1_388
10
9.9953073
20
1.109305
40
1.8129975
50
317.2588228
51
319.9045804
0
LINE
8
DEFAULT_255_1_388
10
12.1770757
20
-0.0127263
11
12.1770757
21
-0.1491645
0
LINE
8
DEFAULT_255_1_388
10
12.1770757
20
-0.1491645
11
11.7361363
21
-0.1491645
0
LINE
8
DEFAULT_255_1_388
10
11.7361363
20
-0.1491645
11
11.7361363
21
-0.0127263
0
LINE
8
DEFAULT_255_1_388
10
11.7361363
20
-0.0127263
11
12.1770757
21
-0.0127263
0
LINE
8
DEFAULT_255_1_388
10
13.147504
20
0.138169
11
13.147504
21
-0.0786865
0
LINE
8
DEFAULT_255_1_388
10
12.3171282
20
-0.1012756
11
12.3171282
21
0.1219048
0
LINE
8
DEFAULT_255_1_388
10
12.9803445
20
-0.1238647
11
12.9803445
21
0.1499153
0
LINE
8
DEFAULT_255_1_388
10
12.4842876
20
0.1625652
11
12.4842876
21
-0.1048898
0
ARC
8
DEFAULT_255_1_388
10
11.7697374
20
-0.0841882
40
1.3777776
50
353.8440855
51
0.2287917
0
ARC
8
DEFAULT_255_1_388
10
12.2916391
20
-0.1424586
40
0.852639
50
344.4934746
51
353.9763743
0
ARC
8
DEFAULT_255_1_388
10
12.6283198
20
-0.2381809
40
0.5026273
50
329.2803599
51
344.7473406
0
ARC
8
DEFAULT_255_1_388
10
12.7398694
20
-0.2993962
40
0.3754848
50
324.9361395
51
328.6153007
0
ARC
8
DEFAULT_255_1_388
10
12.7824344
20
-0.3291414
40
0.3235566
50
280.5801797
51
324.9173226
0
ARC
8
DEFAULT_255_1_388
10
12.7372972
20
-0.1411764
40
0.5167077
50
269.5979457
51
281.6732777
0
ARC
8
DEFAULT_255_1_388
10
12.7291876
20
-0.1546887
40
0.5032026
50
256.6228565
51
270.5105488
0
ARC
8
DEFAULT_255_1_388
10
12.6839619
20
-0.3288655
40
0.3233092
50
215.8618351
51
257.2787793
0
ARC
8
DEFAULT_255_1_388
10
12.7988326
20
-0.2517894
40
0.4615831
50
197.9695203
51
215.2622745
0
ARC
8
DEFAULT_255_1_388
10
13.0784001
20
-0.1574359
40
0.7566307
50
187.8816486
51
198.2346584
0
ARC
8
DEFAULT_255_1_388
10
13.5237239
20
-0.0931547
40
1.2065653
50
180.8977266
51
188.0054894
0
ARC
8
DEFAULT_255_1_388
10
13.8287453
20
-0.08166
40
1.5117443
50
180.7434591
51
181.152202
0
ARC
8
DEFAULT_255_1_388
10
13.6612449
20
0.1273371
40
1.3441277
50
173.7674302
51
180.2315596
0
ARC
8
DEFAULT_255_1_388
10
13.1530318
20
0.1847779
40
0.8326847
50
164.3058537
51
173.9000553
0
ARC
8
DEFAULT_255_1_388
10
12.8254318
20
0.2791652
40
0.4917711
50
148.7922028
51
164.5682288
0
ARC
8
DEFAULT_255_1_388
10
12.7185055
20
0.3388457
40
0.3694204
50
144.5883979
51
148.1161588
0
ARC
8
DEFAULT_255_1_388
10
12.6797801
20
0.3658667
40
0.322202
50
101.6440149
51
144.5142619
0
ARC
8
DEFAULT_255_1_388
10
12.7275993
20
0.1758337
40
0.5180451
50
89.528284
51
102.5820197
0
ARC
8
DEFAULT_255_1_388
10
12.7364985
20
0.1714376
40
0.5224441
50
77.0437914
51
90.508231
0
ARC
8
DEFAULT_255_1_388
10
12.7817239
20
0.3562272
40
0.3322297
50
48.2777708
51
77.4996087
0
ARC
8
DEFAULT_255_1_388
10
12.7898979
20
0.3707557
40
0.315966
50
36.3141586
51
47.6307332
0
ARC
8
DEFAULT_255_1_388
10
12.6921701
20
0.3049159
40
0.4337313
50
18.2931065
51
35.6770203
0
ARC
8
DEFAULT_255_1_388
10
12.4060542
20
0.2067107
40
0.7362203
50
8.0246996
51
18.5605636
0
ARC
8
DEFAULT_255_1_388
10
11.9376897
20
0.1375432
40
1.2096583
50
1.127539
51
8.1718423
0
ARC
8
DEFAULT_255_1_388
10
11.572803
20
0.1232374
40
1.5747719
50
0.5432713
51
1.38669
0
ARC
8
DEFAULT_255_1_388
10
11.7785409
20
0.1539163
40
1.2018103
50
359.8092569
51
4.9408001
0
ARC
8
DEFAULT_255_1_388
10
12.252199
20
0.19619
40
0.7262727
50
4.8364937
51
12.2906017
0
ARC
8
DEFAULT_255_1_388
10
12.5621455
20
0.2652485
40
0.4087324
50
12.0806994
51
23.8171225
0
ARC
8
DEFAULT_255_1_388
10
12.6941851
20
0.3211508
40
0.2653719
50
24.2874621
51
31.3934353
0
ARC
8
DEFAULT_255_1_388
10
12.7532287
20
0.3597822
40
0.1948607
50
30.7407708
51
82.4658033
0
ARC
8
DEFAULT_255_1_388
10
12.7329948
20
0.2604017
40
0.2961198
50
81.1057101
51
90.2187368
0
ARC
8
DEFAULT_255_1_388
10
12.728976
20
0.2894421
40
0.2670929
50
89.380395
51
105.6763916
0
ARC
8
DEFAULT_255_1_388
10
12.7083482
20
0.364432
40
0.1893189
50
105.7980655
51
149.7387869
0
ARC
8
DEFAULT_255_1_388
10
12.8280622
20
0.2924719
40
0.3289892
50
149.4208441
51
163.628295
0
ARC
8
DEFAULT_255_1_388
10
13.0632852
20
0.2207345
40
0.5749004
50
163.3764549
51
172.141138
0
ARC
8
DEFAULT_255_1_388
10
13.4345573
20
0.1675582
40
0.9499585
50
172.0258462
51
178.0705453
0
ARC
8
DEFAULT_255_1_388
10
13.7767126
20
0.1513682
40
1.2924734
50
177.8639301
51
179.5036263
0
ARC
8
DEFAULT_255_1_388
10
13.6548144
20
-0.1089849
40
1.170534
50
179.7995545
51
185.246089
0
ARC
8
DEFAULT_255_1_388
10
13.1999738
20
-0.1520596
40
0.7136613
50
185.1411911
51
193.0082205
0
ARC
8
DEFAULT_255_1_388
10
12.9025998
20
-0.2223559
40
0.4080987
50
192.7897338
51
205.2507384
0
ARC
8
DEFAULT_255_1_388
10
12.7848208
20
-0.2749462
40
0.2791522
50
205.8001921
51
211.2545876
0
ARC
8
DEFAULT_255_1_388
10
12.7259747
20
-0.3143868
40
0.2084074
50
210.3789935
51
238.4007996
0
ARC
8
DEFAULT_255_1_388
10
12.7237833
20
-0.3091214
40
0.2117943
50
239.6521916
51
265.9793852
0
ARC
8
DEFAULT_255_1_388
10
12.7333682
20
-0.2334642
40
0.2879689
50
265.1324455
51
270.0603288
0
ARC
8
DEFAULT_255_1_388
10
12.7366059
20
-0.2699582
40
0.2514919
50
269.3314378
51
287.2180039
0
ARC
8
DEFAULT_255_1_388
10
12.7521142
20
-0.3265709
40
0.1928357
50
287.7957942
51
329.0808983
0
ARC
8
DEFAULT_255_1_388
10
12.6443899
20
-0.2593349
40
0.319808
50
328.6635261
51
343.3325043
0
ARC
8
DEFAULT_255_1_388
10
12.3999357
20
-0.1831805
40
0.5758408
50
343.0498092
51
351.9392499
0
ARC
8
DEFAULT_255_1_388
10
12.0098679
20
-0.1256795
40
0.9701202
50
351.8071632
51
357.7957897
0
ARC
8
DEFAULT_255_1_388
10
11.6464156
20
-0.1068276
40
1.3340376
50
357.5870923
51
359.2682493
0
ARC
8
DEFAULT_255_1_388
10
13.8419992
20
0.329572
40
0.3175098
50
338.8762533
51
0.5167111
0
ARC
8
DEFAULT_255_1_388
10
13.8609586
20
0.32446
40
0.2979894
50
325.8415285
51
338.4793574
0
ARC
8
DEFAULT_255_1_388
10
13.817022
20
0.3549242
40
0.351452
50
296.7587686
51
325.7536481
0
ARC
8
DEFAULT_255_1_388
10
13.7841848
20
0.4103363
40
0.4157374
50
296.0927901
51
297.3613472
0
ARC
8
DEFAULT_255_1_388
10
13.8136043
20
-0.3279407
40
0.395855
50
47.9007294
51
67.1948823
0
ARC
8
DEFAULT_255_1_388
10
13.8356685
20
-0.3002401
40
0.360516
50
35.2363914
51
47.551141
0
ARC
8
DEFAULT_255_1_388
10
13.8651089
20
-0.2805907
40
0.3251343
50
359.2759765
51
35.4014143
0
ARC
8
DEFAULT_255_1_388
10
13.7813016
20
-0.2888213
40
0.4089365
50
343.1293083
51
0.5775513
0
ARC
8
DEFAULT_255_1_388
10
13.8628129
20
-0.3112664
40
0.3244269
50
310.8496669
51
342.7449331
0
ARC
8
DEFAULT_255_1_388
10
13.8158004
20
-0.2576087
40
0.3957651
50
281.5472888
51
310.9170406
0
ARC
8
DEFAULT_255_1_388
10
13.7756878
20
-0.0829186
40
0.5749654
50
269.619248
51
281.9789564
0
ARC
8
DEFAULT_255_1_388
10
13.7675656
20
-0.0828224
40
0.5750649
50
257.4585678
51
270.4285689
0
ARC
8
DEFAULT_255_1_388
10
13.7247176
20
-0.2632259
40
0.389671
50
228.7554326
51
257.8484789
0
ARC
8
DEFAULT_255_1_388
10
13.6898661
20
-0.3051772
40
0.335154
50
184.0104975
51
228.5071184
0
ARC
8
DEFAULT_255_1_388
10
13.8207054
20
-0.285257
40
0.4671891
50
179.9315832
51
185.3253753
0
ARC
8
DEFAULT_255_1_388
10
13.6883567
20
-0.2810408
40
0.33486
50
145.6796023
51
180.6259786
0
ARC
8
DEFAULT_255_1_388
10
13.7067332
20
-0.2938729
40
0.3572723
50
115.5537685
51
145.6415986
0
ARC
8
DEFAULT_255_1_388
10
13.7450376
20
-0.3624913
40
0.4357296
50
113.243307
51
116.2057839
0
ARC
8
DEFAULT_255_1_388
10
13.7279028
20
0.3572379
40
0.3549126
50
222.9549744
51
244.1370481
0
ARC
8
DEFAULT_255_1_388
10
13.7141671
20
0.3418378
40
0.3343711
50
213.3436887
51
222.6274467
0
ARC
8
DEFAULT_255_1_388
10
13.6925741
20
0.3271653
40
0.3082678
50
180.431584
51
213.271499
0
ARC
8
DEFAULT_255_1_388
10
13.756074
20
0.3324296
40
0.3718363
50
179.9991191
51
181.1690594
0
ARC
8
DEFAULT_255_1_388
10
13.8033196
20
0.3363072
40
0.4190996
50
164.6186169
51
180.529336
0
ARC
8
DEFAULT_255_1_388
10
13.7022844
20
0.363478
40
0.3144772
50
132.2455553
51
164.5090724
0
ARC
8
DEFAULT_255_1_388
10
13.7345823
20
0.326907
40
0.3632644
50
100.7053914
51
132.1386381
0
ARC
8
DEFAULT_255_1_388
10
13.7688884
20
0.1719118
40
0.5219578
50
89.6730358
51
101.2451698
0
ARC
8
DEFAULT_255_1_388
10
13.7758875
20
0.1915648
40
0.5023124
50
76.287748
51
90.4586006
0
ARC
8
DEFAULT_255_1_388
10
13.8103377
20
0.3290671
40
0.3605639
50
47.8240511
51
76.4266241
0
ARC
8
DEFAULT_255_1_388
10
13.8353761
20
0.3583599
40
0.3220463
50
6.9168387
51
47.6262497
0
ARC
8
DEFAULT_255_1_388
10
13.7019214
20
0.3337004
40
0.4575765
50
359.8415968
51
7.9697453
0
ARC
8
DEFAULT_255_1_388
10
13.7403484
20
-0.2783481
40
0.2827228
50
359.445363
51
16.9256873
0
ARC
8
DEFAULT_255_1_388
10
13.7930918
20
-0.2638219
40
0.2280396
50
17.2920767
51
45.4630727
0
ARC
8
DEFAULT_255_1_388
10
13.7870053
20
-0.2690676
40
0.2360485
50
45.30305
51
83.1920945
0
ARC
8
DEFAULT_255_1_388
10
13.7708798
20
-0.3592527
40
0.3275527
50
82.2612665
51
90.1434275
0
ARC
8
DEFAULT_255_1_388
10
13.7674074
20
-0.3330131
40
0.3013237
50
89.4956434
51
104.8580688
0
ARC
8
DEFAULT_255_1_388
10
13.7475264
20
-0.2576545
40
0.2233867
50
104.8856641
51
135.244616
0
ARC
8
DEFAULT_255_1_388
10
13.7531253
20
-0.2626648
40
0.2308906
50
135.3399546
51
172.1044062
0
ARC
8
DEFAULT_255_1_388
10
13.8438778
20
-0.2800333
40
0.3232034
50
171.2645637
51
180.186429
0
ARC
8
DEFAULT_255_1_388
10
13.8248782
20
-0.2836574
40
0.304213
50
179.5154935
51
193.6464289
0
ARC
8
DEFAULT_255_1_388
10
13.7330458
20
-0.3070527
40
0.209456
50
193.3540274
51
225.8258581
0
ARC
8
DEFAULT_255_1_388
10
13.737633
20
-0.2990924
40
0.2183738
50
226.4180634
51
255.8552336
0
ARC
8
DEFAULT_255_1_388
10
13.7664797
20
-0.1937479
40
0.3275812
50
255.4654104
51
268.7987425
0
ARC
8
DEFAULT_255_1_388
10
13.7717973
20
-0.0995455
40
0.4218877
50
268.3449238
51
270.0094605
0
ARC
8
DEFAULT_255_1_388
10
13.7744207
20
-0.1763906
40
0.3450519
50
269.5759586
51
282.0820163
0
ARC
8
DEFAULT_255_1_388
10
13.7997243
20
-0.2882637
40
0.2303642
50
281.752014
51
306.6056188
0
ARC
8
DEFAULT_255_1_388
10
13.8108051
20
-0.3064198
40
0.2091906
50
307.1346085
51
314.027845
0
ARC
8
DEFAULT_255_1_388
10
13.8067563
20
-0.3034541
40
0.2141385
50
314.2552483
51
350.1694025
0
ARC
8
DEFAULT_255_1_388
10
13.71098
20
-0.2826825
40
0.312082
50
349.4140529
51
0.2933014
0
ARC
8
DEFAULT_255_1_388
10
13.7695077
20
0.2976924
40
0.2588377
50
89.477747
51
105.729729
0
ARC
8
DEFAULT_255_1_388
10
13.7541997
20
0.3545367
40
0.1999733
50
105.9233417
51
135.1660906
0
ARC
8
DEFAULT_255_1_388
10
13.7565028
20
0.3529412
40
0.2027322
50
135.3052302
51
168.9883645
0
ARC
8
DEFAULT_255_1_388
10
13.8496044
20
0.3315996
40
0.2982129
50
168.3801673
51
180.3602268
0
ARC
8
DEFAULT_255_1_388
10
13.8239161
20
0.3273622
40
0.2725291
50
179.5033122
51
194.9125571
0
ARC
8
DEFAULT_255_1_388
10
13.7580568
20
0.3100427
40
0.204431
50
194.9720816
51
224.194444
0
ARC
8
DEFAULT_255_1_388
10
13.7548933
20
0.3074635
40
0.2003651
50
224.2962453
51
262.015664
0
ARC
8
DEFAULT_255_1_388
10
13.7708937
20
0.3897315
40
0.2840925
50
261.1245923
51
270.1962896
0
ARC
8
DEFAULT_255_1_388
10
13.7742419
20
0.3686859
40
0.2630559
50
269.4827276
51
285.0987215
0
ARC
8
DEFAULT_255_1_388
10
13.7915855
20
0.3036175
40
0.1957162
50
285.1585357
51
315.9484501
0
ARC
8
DEFAULT_255_1_388
10
13.7815728
20
0.3128315
40
0.2093195
50
316.0413965
51
351.916092
0
ARC
8
DEFAULT_255_1_388
10
13.6991103
20
0.3287323
40
0.2932279
50
351.105835
51
0.1939062
0
ARC
8
DEFAULT_255_1_388
10
13.7286737
20
0.3321224
40
0.2636739
50
359.4789618
51
16.0678224
0
ARC
8
DEFAULT_255_1_388
10
13.7822209
20
0.3465721
40
0.2082215
50
16.3252067
51
44.7913869
0
ARC
8
DEFAULT_255_1_388
10
13.7802271
20
0.346632
40
0.2095992
50
44.3957814
51
88.2499162
0
ARC
8
DEFAULT_255_1_388
10
13.7719605
20
0.2778006
40
0.2787189
50
86.9833854
51
90.0192215
0
LINE
8
DEFAULT_255_1_388
10
15.3531048
20
0.6757898
11
15.3531048
21
0.5330267
0
LINE
8
DEFAULT_255_1_388
10
15.3531048
20
0.5330267
11
14.9302366
21
0.5330267
0
LINE
8
DEFAULT_255_1_388
10
14.9302366
20
0.5330267
11
14.9302366
21
-0.6398
0
LINE
8
DEFAULT_255_1_388
10
14.9302366
20
-0.6398
11
14.7576558
21
-0.6398
0
LINE
8
DEFAULT_255_1_388
10
14.7576558
20
-0.6398
11
14.7576558
21
0.5330267
0
LINE
8
DEFAULT_255_1_388
10
14.7576558
20
0.5330267
11
14.3356912
21
0.5330267
0
LINE
8
DEFAULT_255_1_388
10
14.3356912
20
0.5330267
11
14.3356912
21
0.6757898
0
LINE
8
DEFAULT_255_1_388
10
14.3356912
20
0.6757898
11
15.3531048
21
0.6757898
0
LINE
8
DEFAULT_255_1_388
10
15.9124112
20
-0.6398
11
15.5482747
21
-0.6398
0
LINE
8
DEFAULT_255_1_388
10
15.5482747
20
-0.6398
11
15.5482747
21
0.6757898
0
LINE
8
DEFAULT_255_1_388
10
15.5482747
20
0.6757898
11
15.9196397
21
0.6757898
0
LINE
8
DEFAULT_255_1_388
10
16.4997281
20
0.0622696
11
16.4997281
21
-0.0217619
0
LINE
8
DEFAULT_255_1_388
10
15.9241575
20
0.5330267
11
15.7217591
21
0.5330267
0
LINE
8
DEFAULT_255_1_388
10
15.7217591
20
0.5330267
11
15.7217591
21
-0.4979404
0
LINE
8
DEFAULT_255_1_388
10
15.7217591
20
-0.4979404
11
15.9042791
21
-0.4979404
0
LINE
8
DEFAULT_255_1_388
10
16.3280508
20
-0.0181477
11
16.3280508
21
0.0586553
0
ARC
8
DEFAULT_255_1_388
10
15.9240192
20
0.0159436
40
0.6598608
50
75.4100343
51
90.3802731
0
ARC
8
DEFAULT_255_1_388
10
15.9498437
20
0.1235691
40
0.5492049
50
60.1455157
51
75.1889627
0
ARC
8
DEFAULT_255_1_388
10
15.9677029
20
0.1546914
40
0.5133226
50
26.525419
51
60.1451222
0
ARC
8
DEFAULT_255_1_388
10
15.8416815
20
0.0878642
40
0.6559324
50
7.4029944
51
26.832209
0
ARC
8
DEFAULT_255_1_388
10
15.6623212
20
0.0599229
40
0.8374103
50
0.1605597
51
7.7176135
0
ARC
8
DEFAULT_255_1_388
10
15.6807612
20
-0.0260679
40
0.8189782
50
348.7289744
51
0.30125
0
ARC
8
DEFAULT_255_1_388
10
15.8671076
20
-0.0630844
40
0.628991
50
333.0706936
51
348.7181455
0
ARC
8
DEFAULT_255_1_388
10
15.9758705
20
-0.1221551
40
0.5052808
50
299.2531435
51
333.4571133
0
ARC
8
DEFAULT_255_1_388
10
15.9352735
20
-0.0450371
40
0.5924066
50
278.1072193
51
299.0340218
0
ARC
8
DEFAULT_255_1_388
10
15.9064784
20
0.1245979
40
0.7644209
50
270.4446841
51
278.4508355
0
ARC
8
DEFAULT_255_1_388
10
15.9088268
20
0.02003
40
0.5179903
50
269.4969684
51
284.0204874
0
ARC
8
DEFAULT_255_1_388
10
15.9487986
20
-0.1335585
40
0.3592968
50
283.7699076
51
318.1557121
0
ARC
8
DEFAULT_255_1_388
10
15.9108531
20
-0.1051601
40
0.4065308
50
318.7417595
51
343.687252
0
ARC
8
DEFAULT_255_1_388
10
15.707911
20
-0.0417725
40
0.6191194
50
343.3324891
51
355.8548594
0
ARC
8
DEFAULT_255_1_388
10
15.4718148
20
-0.0193281
40
0.856237
50
355.4988754
51
0.0789913
0
ARC
8
DEFAULT_255_1_388
10
15.5598947
20
0.063408
40
0.7681709
50
359.6455047
51
9.8607559
0
ARC
8
DEFAULT_255_1_388
10
15.825467
20
0.1113664
40
0.498312
50
9.6573037
51
26.1931522
0
ARC
8
DEFAULT_255_1_388
10
15.9298745
20
0.1598587
40
0.3832303
50
26.5777895
51
40.1533752
0
ARC
8
DEFAULT_255_1_388
10
15.958641
20
0.182302
40
0.3467742
50
40.3839958
51
80.1430923
0
ARC
8
DEFAULT_255_1_388
10
15.9218666
20
0.0192486
40
0.5137832
50
79.2153636
51
89.7445174
0
LINE
8
DEFAULT_255_1_388
10
17.5803912
20
-0.5033618
11
17.5803912
21
-0.6398
0
LINE
8
DEFAULT_255_1_388
10
17.5803912
20
-0.6398
11
16.7183907
21
-0.6398
0
LINE
8
DEFAULT_255_1_388
10
16.7183907
20
-0.6398
11
16.7183907
21
-0.5196259
0
LINE
8
DEFAULT_255_1_388
10
16.7183907
20
-0.5196259
11
17.1737872
21
-0.0136298
0
LINE
8
DEFAULT_255_1_388
10
16.8602503
20
0.2881607
11
16.6930909
21
0.2881607
0
LINE
8
DEFAULT_255_1_388
10
17.2722757
20
-0.121154
11
16.9198855
21
-0.5033618
0
LINE
8
DEFAULT_255_1_388
10
16.9198855
20
-0.5033618
11
17.5803912
21
-0.5033618
0
ARC
8
DEFAULT_255_1_388
10
15.6561931
20
1.3283983
40
2.0258655
50
318.5132526
51
320.7829045
0
ARC
8
DEFAULT_255_1_388
10
16.2509888
20
0.8442929
40
1.2589638
50
320.7372878
51
323.9739031
0
ARC
8
DEFAULT_255_1_388
10
16.691882
20
0.5248554
40
0.7145141
50
323.8962701
51
328.64194
0
ARC
8
DEFAULT_255_1_388
10
16.9221077
20
0.3828545
40
0.4440242
50
328.8294576
51
331.7891185
0
ARC
8
DEFAULT_255_1_388
10
17.0343397
20
0.3249374
40
0.3177517
50
331.4254512
51
352.9365785
0
ARC
8
DEFAULT_255_1_388
10
17.0496397
20
0.321505
40
0.3021496
50
353.2257659
51
0.0166158
0
ARC
8
DEFAULT_255_1_388
10
17.0733158
20
0.3240894
40
0.2784847
50
359.486299
51
15.9343185
0
ARC
8
DEFAULT_255_1_388
10
17.1303425
20
0.3394269
40
0.2194403
50
16.1712913
51
43.5286088
0
ARC
8
DEFAULT_255_1_388
10
17.1390369
20
0.3481191
40
0.2071504
50
43.4417391
51
83.1661095
0
ARC
8
DEFAULT_255_1_388
10
17.123953
20
0.2652316
40
0.2912888
50
82.160179
51
90.1505708
0
ARC
8
DEFAULT_255_1_388
10
17.1204012
20
0.2048279
40
0.3517025
50
89.5460741
51
102.5418361
0
ARC
8
DEFAULT_255_1_388
10
17.0930732
20
0.3207933
40
0.2325748
50
102.1738499
51
129.206123
0
ARC
8
DEFAULT_255_1_388
10
17.0842185
20
0.3347664
40
0.2161591
50
129.72865
51
135.753947
0
ARC
8
DEFAULT_255_1_388
10
17.0978668
20
0.3238728
40
0.2335433
50
136.1757367
51
166.3673339
0
ARC
8
DEFAULT_255_1_388
10
17.2111356
20
0.2935148
40
0.3507873
50
165.9090694
51
178.8684636
0
ARC
8
DEFAULT_255_1_388
10
17.3087127
20
0.2882263
40
0.4484624
50
178.4391136
51
180.0083808
0
ARC
8
DEFAULT_255_1_388
10
17.1507829
20
0.2926197
40
0.4577138
50
163.2878482
51
180.5581842
0
ARC
8
DEFAULT_255_1_388
10
17.060587
20
0.3174393
40
0.3641968
50
133.4540601
51
162.947111
0
ARC
8
DEFAULT_255_1_388
10
17.0806752
20
0.2960789
40
0.3935189
50
100.7869829
51
133.4382499
0
ARC
8
DEFAULT_255_1_388
10
17.1197997
20
0.1218399
40
0.5720313
50
89.660664
51
101.3702276
0
ARC
8
DEFAULT_255_1_388
10
17.1272606
20
0.1287263
40
0.5651495
50
78.2172678
51
90.412935
0
ARC
8
DEFAULT_255_1_388
10
17.1672072
20
0.3114511
40
0.378122
50
55.9269121
51
78.4888449
0
ARC
8
DEFAULT_255_1_388
10
17.1892787
20
0.3495187
40
0.3342379
50
47.929771
51
55.4049217
0
ARC
8
DEFAULT_255_1_388
10
17.2007317
20
0.3611618
40
0.3179217
50
4.334829
51
48.0560205
0
ARC
8
DEFAULT_255_1_388
10
17.0775119
20
0.3420487
40
0.442341
50
359.9251713
51
5.5971671
0
ARC
8
DEFAULT_255_1_388
10
17.1257273
20
0.3483728
40
0.3941854
50
337.8914027
51
358.9967534
0
ARC
8
DEFAULT_255_1_388
10
16.8204844
20
0.4661295
40
0.7213271
50
326.9132501
51
338.3508308
0
ARC
8
DEFAULT_255_1_388
10
16.3720955
20
0.7535105
40
1.2538973
50
319.6471833
51
327.0959558
0
ARC
8
DEFAULT_255_1_388
10
15.9407614
20
1.109305
40
1.8129975
50
317.2588228
51
319.9045804
0
LINE
8
DEFAULT_255_1_388
10
18.2842679
20
-0.1247683
11
17.9743453
21
-0.1247683
0
LINE
8
DEFAULT_255_1_388
10
17.9743453
20
-0.1247683
11
17.9743453
21
-0.6398
0
LINE
8
DEFAULT_255_1_388
10
17.9743453
20
-0.6398
11
17.8008609
21
-0.6398
0
LINE
8
DEFAULT_255_1_388
10
17.8008609
20
-0.6398
11
17.8008609
21
0.6757898
0
LINE
8
DEFAULT_255_1_388
10
17.8008609
20
0.6757898
11
18.286075
21
0.6757898
0
LINE
8
DEFAULT_255_1_388
10
17.9743453
20
0.5330267
11
17.9743453
21
0.0170914
0
LINE
8
DEFAULT_255_1_388
10
17.9743453
20
0.0170914
11
18.286075
21
0.0170914
0
LINE
8
DEFAULT_255_1_388
10
18.2960142
20
0.5330267
11
17.9743453
21
0.5330267
0
ARC
8
DEFAULT_255_1_388
10
18.2908123
20
-0.0058666
40
0.6816729
50
78.8380084
51
90.398184
0
ARC
8
DEFAULT_255_1_388
10
18.3376153
20
0.2214796
40
0.449571
50
58.9633273
51
79.0810717
0
ARC
8
DEFAULT_255_1_388
10
18.3715538
20
0.2844823
40
0.3781049
50
48.0194715
51
58.4475592
0
ARC
8
DEFAULT_255_1_388
10
18.3815358
20
0.2940818
40
0.3642936
50
3.3374546
51
48.1766642
0
ARC
8
DEFAULT_255_1_388
10
18.2430165
20
0.2741581
40
0.5038766
50
359.9483251
51
4.6822857
0
ARC
8
DEFAULT_255_1_388
10
18.2570088
20
0.2693779
40
0.4899031
50
346.1879032
51
0.5059221
0
ARC
8
DEFAULT_255_1_388
10
18.409888
20
0.2296763
40
0.3319729
50
310.8832219
51
346.5426612
0
ARC
8
DEFAULT_255_1_388
10
18.3751728
20
0.2765853
40
0.3901853
50
286.6925305
51
310.228778
0
ARC
8
DEFAULT_255_1_388
10
18.3111458
20
0.4779585
40
0.6014737
50
274.6848219
51
287.0247342
0
ARC
8
DEFAULT_255_1_388
10
18.2858007
20
0.7264088
40
0.8511785
50
269.8968222
51
275.0192639
0
ARC
8
DEFAULT_255_1_388
10
18.2889
20
0.4926144
40
0.4755314
50
269.6596206
51
279.4150542
0
ARC
8
DEFAULT_255_1_388
10
18.3178458
20
0.3248945
40
0.3053379
50
279.2050006
51
294.9901776
0
ARC
8
DEFAULT_255_1_388
10
18.3505093
20
0.2520353
40
0.2255036
50
295.2886769
51
311.2912669
0
ARC
8
DEFAULT_255_1_388
10
18.3584834
20
0.2401938
40
0.2113522
50
311.7853512
51
347.2860549
0
ARC
8
DEFAULT_255_1_388
10
18.2477995
20
0.268643
40
0.3256011
50
346.6891629
51
0.1057086
0
ARC
8
DEFAULT_255_1_388
10
18.1555455
20
0.2719247
40
0.417863
50
359.63239
51
359.9961329
0
ARC
8
DEFAULT_255_1_388
10
18.272006
20
0.2746987
40
0.3014155
50
359.4673371
51
15.5931159
0
ARC
8
DEFAULT_255_1_388
10
18.3423123
20
0.2936937
40
0.2285918
50
15.7441779
51
46.620186
0
ARC
8
DEFAULT_255_1_388
10
18.3256883
20
0.2745361
40
0.2539359
50
46.8628482
51
75.6676625
0
ARC
8
DEFAULT_255_1_388
10
18.2925939
20
0.1554243
40
0.3775415
50
75.2763152
51
88.2916439
0
ARC
8
DEFAULT_255_1_388
10
18.2859939
20
0.0552097
40
0.4779221
50
87.8589087
51
88.7986197
0
ARC
8
DEFAULT_255_2_778
10
8.4842378
20
74.1308433
40
0.4373747
50
56.3665942
51
72.7074496
0
ARC
8
DEFAULT_255_2_778
10
8.5215053
20
74.2444036
40
0.3178747
50
73.036784
51
89.7973226
0
ARC
8
DEFAULT_255_2_778
10
8.5288513
20
74.2220167
40
0.3403165
50
91.0475309
51
125.5485458
0
ARC
8
DEFAULT_255_2_778
10
8.6945904
20
73.9731582
40
0.6392287
50
124.6669492
51
139.114563
0
ARC
8
DEFAULT_255_2_778
10
8.9360319
20
73.7497476
40
0.9680575
50
138.4713305
51
142.1157612
0
ARC
8
DEFAULT_255_2_778
10
8.5585787
20
73.7804798
40
0.5212765
50
117.7453356
51
135.8758074
0
ARC
8
DEFAULT_255_2_778
10
8.4614378
20
73.9628273
40
0.3146729
50
90.4656379
51
117.5483702
0
ARC
8
DEFAULT_255_2_778
10
8.4553272
20
73.9475634
40
0.3299454
50
64.3679478
51
89.3829577
0
ARC
8
DEFAULT_255_2_778
10
8.4230062
20
73.8659901
40
0.4175182
50
64.8738747
51
65.2115951
0
LINE
8
DEFAULT_255_2_778
10
8.1719896
20
74.3442008
11
8.1719896
21
74.5202008
0
LINE
8
DEFAULT_255_2_778
10
8.1719896
20
74.5202008
11
7.8316896
21
74.5202008
0
LINE
8
DEFAULT_255_2_778
10
7.8316896
20
74.5202008
11
7.8316896
21
73.3015008
0
LINE
8
DEFAULT_255_2_778
10
7.8316896
20
73.3015008
11
8.1970896
21
73.3015008
0
LINE
8
DEFAULT_255_2_778
10
8.1970896
20
73.3015008
11
8.1843896
21
74.1434008
0
LINE
8
DEFAULT_255_2_778
10
8.6002896
20
74.2440008
11
8.7264896
21
74.4950008
0
ARC
8
DEFAULT_255_2_778
10
12.3462297
20
73.6889166
40
0.1058286
50
290.4109967
51
338.4144294
0
ARC
8
DEFAULT_255_2_778
10
12.162295
20
74.058021
40
0.5177505
50
282.5203845
51
295.2483499
0
ARC
8
DEFAULT_255_2_778
10
12.2164596
20
73.9246179
40
0.3756367
50
270.2518229
51
277.9224239
0
ARC
8
DEFAULT_255_2_778
10
12.2019255
20
73.7121058
40
0.163922
50
191.9135594
51
275.6664103
0
ARC
8
DEFAULT_255_2_778
10
12.266424
20
73.8396972
40
0.6680449
50
207.8643513
51
221.7718618
0
ARC
8
DEFAULT_255_2_778
10
12.0489477
20
73.6332613
40
0.3684417
50
220.3588923
51
270.0277924
0
ARC
8
DEFAULT_255_2_778
10
12.0434926
20
73.7653085
40
0.5005206
50
270.6449322
51
287.6494066
0
ARC
8
DEFAULT_255_2_778
10
11.9529907
20
74.0612608
40
0.8099892
50
287.4026496
51
297.6988649
0
ARC
8
DEFAULT_255_2_778
10
11.7449905
20
74.4644576
40
1.2636684
50
297.5514274
51
304.3018591
0
LINE
8
DEFAULT_255_2_778
10
12.0415344
20
73.6782664
11
12.0351344
21
74.5262664
0
LINE
8
DEFAULT_255_2_778
10
12.0351344
20
74.5262664
11
11.6758344
21
74.5262664
0
LINE
8
DEFAULT_255_2_778
10
11.6758344
20
74.5262664
11
11.6758344
21
73.5274664
0
LINE
8
DEFAULT_255_2_778
10
12.4571344
20
73.4205664
11
12.4698344
21
73.3075664
0
LINE
8
DEFAULT_255_2_778
10
12.4698344
20
73.3075664
11
12.8101344
21
73.3075664
0
LINE
8
DEFAULT_255_2_778
10
12.8101344
20
73.3075664
11
12.8101344
21
74.5389664
0
LINE
8
DEFAULT_255_2_778
10
12.8101344
20
74.5389664
11
12.4444344
21
74.5389664
0
LINE
8
DEFAULT_255_2_778
10
12.4444344
20
74.5389664
11
12.4444344
21
73.6467664
0
LINE
8
DEFAULT_255_2_778
10
15.1797344
20
73.3012664
11
15.1797344
21
74.5326664
0
LINE
8
DEFAULT_255_2_778
10
15.1797344
20
74.5326664
11
15.5453344
21
74.5326664
0
LINE
8
DEFAULT_255_2_778
10
15.5453344
20
74.5326664
11
15.5453344
21
73.3012664
0
LINE
8
DEFAULT_255_2_778
10
15.5453344
20
73.3012664
11
15.1797344
21
73.3012664
0
ARC
8
DEFAULT_255_2_778
10
15.3647435
20
74.925366
40
0.1978332
50
90.7257917
51
180.9507563
0
ARC
8
DEFAULT_255_2_778
10
15.3597161
20
74.9254493
40
0.1977501
50
359.0247012
51
89.2694187
0
ARC
8
DEFAULT_255_2_778
10
15.3597161
20
74.9187174
40
0.1977501
50
270.7305813
51
0.9752988
0
ARC
8
DEFAULT_255_2_778
10
15.3647435
20
74.9188007
40
0.1978332
50
179.0492437
51
269.2742083
0
LINE
8
DEFAULT_255_2_778
10
15.1669375
20
74.9220833
11
15.1669375
21
74.9220833
0
LINE
8
DEFAULT_255_2_778
10
16.8729729
20
73.2979854
11
16.8729729
21
74.5293854
0
LINE
8
DEFAULT_255_2_778
10
16.8729729
20
74.5293854
11
17.2386729
21
74.5293854
0
LINE
8
DEFAULT_255_2_778
10
17.2386729
20
74.5293854
11
17.2386729
21
73.2979854
0
LINE
8
DEFAULT_255_2_778
10
17.2386729
20
73.2979854
11
16.8729729
21
73.2979854
0
ARC
8
DEFAULT_255_2_778
10
17.0581435
20
74.922166
40
0.1978332
50
90.7257917
51
180.9507563
0
ARC
8
DEFAULT_255_2_778
10
17.0531161
20
74.9222493
40
0.1977501
50
359.0247012
51
89.2694187
0
ARC
8
DEFAULT_255_2_778
10
17.0531161
20
74.9155174
40
0.1977501
50
270.7305813
51
0.9752988
0
ARC
8
DEFAULT_255_2_778
10
17.0581435
20
74.9156007
40
0.1978332
50
179.0492437
51
269.2742083
0
LINE
8
DEFAULT_255_2_778
10
16.8603375
20
74.9188833
11
16.8603375
21
74.9188833
0
ARC
8
DEFAULT_255_2_778
10
21.970418
20
73.1564227
40
0.3997146
50
186.2131711
51
214.6577436
0
ARC
8
DEFAULT_255_2_778
10
21.8841491
20
73.1168601
40
0.3066997
50
217.744646
51
266.8145684
0
ARC
8
DEFAULT_255_2_778
10
21.9237244
20
73.3277036
40
0.5201599
50
263.7511447
51
266.7848801
0
ARC
8
DEFAULT_255_2_778
10
21.9002471
20
73.1334163
40
0.2402213
50
195.2759813
51
268.6413445
0
ARC
8
DEFAULT_255_2_778
10
22.1728439
20
73.2590818
40
0.5385664
50
193.3133601
51
200.5393414
0
ARC
8
DEFAULT_255_2_778
10
21.9558314
20
73.1061054
40
0.3084425
50
141.9154932
51
174.6130531
0
ARC
8
DEFAULT_255_2_778
10
21.8946765
20
73.1320396
40
0.2449229
50
90.0292982
51
137.86297
0
ARC
8
DEFAULT_255_2_778
10
21.8900311
20
73.1501835
40
0.3117117
50
89.169111
51
162.3562446
0
ARC
8
DEFAULT_255_2_778
10
22.1495641
20
73.0185256
40
0.6007672
50
157.8882743
51
162.6116909
0
ARC
8
DEFAULT_255_2_778
10
13.7518475
20
73.710969
40
0.434232
50
284.0737984
51
307.1283935
0
ARC
8
DEFAULT_255_2_778
10
13.6603344
20
74.0475455
40
0.7829896
50
272.5675489
51
284.5802087
0
ARC
8
DEFAULT_255_2_778
10
13.6344156
20
74.4064403
40
1.1427274
50
269.9523961
51
273.0596894
0
ARC
8
DEFAULT_255_2_778
10
13.6383034
20
74.7881179
40
1.5244123
50
264.3721605
51
269.8181894
0
ARC
8
DEFAULT_255_2_778
10
13.7027881
20
75.4598919
40
2.1992727
50
260.3040359
51
264.4165702
0
ARC
8
DEFAULT_255_2_778
10
13.7920902
20
76.0123156
40
2.75885
50
259.2299789
51
260.4081406
0
ARC
8
DEFAULT_255_2_778
10
13.5130405
20
73.8618783
40
0.6077178
50
188.8927198
51
247.0988028
0
ARC
8
DEFAULT_255_2_778
10
13.8555895
20
73.9530217
40
0.9609548
50
185.1081288
51
191.1050073
0
ARC
8
DEFAULT_255_2_778
10
13.7233792
20
73.880517
40
0.8250312
50
161.5072483
51
180.9066349
0
ARC
8
DEFAULT_255_2_778
10
13.4744453
20
73.9592627
40
0.5639907
50
120.4701872
51
161.0725957
0
ARC
8
DEFAULT_255_2_778
10
13.5600933
20
73.892527
40
0.6661417
50
90.0499347
51
123.9108507
0
ARC
8
DEFAULT_255_2_778
10
13.573003
20
73.735998
40
0.8227812
50
89.9974966
51
90.9394619
0
ARC
8
DEFAULT_255_2_778
10
13.567053
20
73.5749594
40
0.9838382
50
77.8335832
51
89.6513936
0
ARC
8
DEFAULT_255_2_778
10
13.4795686
20
73.1570554
40
1.4107957
50
69.8093959
51
77.9373312
0
ARC
8
DEFAULT_255_2_778
10
13.3760065
20
72.8552908
40
1.7297745
50
69.0266426
51
70.0397415
0
ARC
8
DEFAULT_255_2_778
10
13.5343739
20
72.8772164
40
1.4359408
50
73.9178594
51
79.2452957
0
ARC
8
DEFAULT_255_2_778
10
13.6318735
20
73.3975106
40
0.9065925
50
79.1629935
51
86.6049203
0
ARC
8
DEFAULT_255_2_778
10
13.649902
20
73.648833
40
0.654651
50
86.8774046
51
89.9568351
0
ARC
8
DEFAULT_255_2_778
10
13.64243
20
73.8861025
40
0.4174572
50
88.9067133
51
108.0688095
0
ARC
8
DEFAULT_255_2_778
10
13.5852023
20
74.0598459
40
0.2345328
50
107.942404
51
152.2459688
0
ARC
8
DEFAULT_255_2_778
10
14.2993316
20
73.7295872
40
1.0210941
50
154.5072776
51
162.5682748
0
ARC
8
DEFAULT_255_2_778
10
13.9273868
20
73.8443314
40
0.6318603
50
162.3915767
51
174.8213024
0
ARC
8
DEFAULT_255_2_778
10
13.7622439
20
73.8631421
40
0.4657093
50
175.2922289
51
179.9490984
0
ARC
8
DEFAULT_255_2_778
10
13.635088
20
73.8557528
40
0.338643
50
178.6796766
51
234.9381893
0
ARC
8
DEFAULT_255_2_778
10
13.6327313
20
73.8674177
40
0.3469445
50
236.3635337
51
264.9414885
0
ARC
8
DEFAULT_255_2_778
10
13.6587955
20
74.0429041
40
0.5241505
50
263.7947872
51
270.1188666
0
ARC
8
DEFAULT_255_2_778
10
13.6535226
20
74.2802912
40
0.7615633
50
270.4785196
51
281.0719661
0
ARC
8
DEFAULT_255_2_778
10
13.5692117
20
74.7341518
40
1.2231753
50
280.8649891
51
287.2606546
0
ARC
8
DEFAULT_255_2_778
10
14.6239491
20
75.5670775
40
2.2970478
50
276.5245429
51
279.5045514
0
ARC
8
DEFAULT_255_2_778
10
14.6893389
20
74.9894423
40
1.7157236
50
272.7759418
51
276.5469051
0
ARC
8
DEFAULT_255_2_778
10
14.7091281
20
74.6091849
40
1.3349546
50
270.0439674
51
272.7180028
0
ARC
8
DEFAULT_255_2_778
10
14.7005118
20
74.1410255
40
0.8668484
50
258.6359382
51
270.6372354
0
ARC
8
DEFAULT_255_2_778
10
14.6078537
20
73.7051002
40
0.4212409
50
235.5405817
51
259.3086539
0
ARC
8
DEFAULT_255_2_778
10
14.5467662
20
73.5977689
40
0.2983588
50
181.5929591
51
233.550276
0
ARC
8
DEFAULT_255_2_778
10
14.7449853
20
73.6277298
40
0.4979343
50
179.9387066
51
184.4062155
0
ARC
8
DEFAULT_255_2_778
10
14.8385536
20
73.7237996
40
0.2332136
50
194.3846046
51
259.805052
0
ARC
8
DEFAULT_255_2_778
10
14.9431857
20
74.0890482
40
0.6124159
50
256.2164989
51
270.9014371
0
ARC
8
DEFAULT_255_2_778
10
14.9523166
20
74.4559885
40
0.9792806
50
270.0294815
51
272.249316
0
LINE
8
DEFAULT_255_2_778
10
15.5956513
20
74.5262625
11
15.9422513
21
74.5262625
0
LINE
8
DEFAULT_255_2_778
10
15.9422513
20
74.5262625
11
16.2131513
21
73.7849625
0
LINE
8
DEFAULT_255_2_778
10
16.2131513
20
73.7849625
11
16.4840513
21
74.5326625
0
LINE
8
DEFAULT_255_2_778
10
16.4840513
20
74.5326625
11
16.7928513
21
74.5326625
0
LINE
8
DEFAULT_255_2_778
10
16.7928513
20
74.5326625
11
16.2885513
21
73.2824625
0
LINE
8
DEFAULT_255_2_778
10
16.2885513
20
73.2824625
11
16.0678513
21
73.2824625
0
LINE
8
DEFAULT_255_2_778
10
16.0678513
20
73.2824625
11
15.5956513
21
74.5262625
0
LINE
8
DEFAULT_255_2_778
10
6.2182513
20
75.1546625
11
6.3002513
21
75.1546625
0
LINE
8
DEFAULT_255_2_778
10
6.3002513
20
75.1546625
11
6.3002513
21
73.1977625
0
LINE
8
DEFAULT_255_2_778
10
6.3002513
20
73.1977625
11
18.5070513
21
73.1946625
0
LINE
8
DEFAULT_255_2_778
10
18.5070513
20
73.1946625
11
18.5102513
21
73.1128625
0
LINE
8
DEFAULT_255_2_778
10
18.5102513
20
73.1128625
11
6.2182513
21
73.1128625
0
LINE
8
DEFAULT_255_2_778
10
6.2182513
20
73.1128625
11
6.2182513
21
75.1483625
0
LINE
8
DEFAULT_255_2_778
10
18.9671513
20
73.2009625
11
18.9671513
21
73.1131625
0
LINE
8
DEFAULT_255_2_778
10
18.9671513
20
73.1131625
11
21.5730513
21
73.1131625
0
LINE
8
DEFAULT_255_2_778
10
21.8945513
20
72.8083625
11
21.8945513
21
72.8932625
0
LINE
8
DEFAULT_255_2_778
10
21.8945513
20
73.3769625
11
21.8945513
21
73.4618625
0
LINE
8
DEFAULT_255_2_778
10
21.5762513
20
73.1980625
11
18.9735513
21
73.1980625
0
LINE
8
DEFAULT_255_2_778
10
13.9382513
20
73.5658625
11
14.0139513
21
73.3647625
0
LINE
8
DEFAULT_255_2_778
10
13.9951513
20
74.4704625
11
13.9321513
21
74.2569625
0
LINE
8
DEFAULT_255_2_778
10
14.2470513
20
73.6282625
11
14.2470513
21
74.3190625
0
LINE
8
DEFAULT_255_2_778
10
14.2470513
20
74.3190625
11
14.0578513
21
74.3190625
0
LINE
8
DEFAULT_255_2_778
10
14.0578513
20
74.3190625
11
14.0578513
21
74.5326625
0
LINE
8
DEFAULT_255_2_778
10
14.0578513
20
74.5326625
11
14.2470513
21
74.5326625
0
LINE
8
DEFAULT_255_2_778
10
14.2470513
20
74.5326625
11
14.3856513
21
75.0350625
0
LINE
8
DEFAULT_255_2_778
10
14.3856513
20
75.0350625
11
14.5999513
21
75.0350625
0
LINE
8
DEFAULT_255_2_778
10
14.5999513
20
75.0350625
11
14.6126513
21
74.5326625
0
LINE
8
DEFAULT_255_2_778
10
14.6126513
20
74.5326625
11
14.9529513
21
74.5326625
0
LINE
8
DEFAULT_255_2_778
10
14.9529513
20
74.5326625
11
14.9529513
21
74.3190625
0
LINE
8
DEFAULT_255_2_778
10
14.9529513
20
74.3190625
11
14.6126513
21
74.3190625
0
LINE
8
DEFAULT_255_2_778
10
14.6126513
20
74.3190625
11
14.6126513
21
73.6658625
0
LINE
8
DEFAULT_255_2_778
10
14.9907513
20
73.4774625
11
15.0032513
21
73.3015625
0
ARC
8
DEFAULT_255_2_778
10
18.2771567
20
73.1608016
40
0.588921
50
314.1465216
51
331.9330914
0
ARC
8
DEFAULT_255_2_778
10
18.4147245
20
73.0206113
40
0.3925118
50
269.0312524
51
313.9901377
0
ARC
8
DEFAULT_255_2_778
10
18.4130071
20
73.2129619
40
0.584827
50
255.6549108
51
269.5180973
0
ARC
8
DEFAULT_255_2_778
10
18.4880411
20
73.5161139
40
0.8971207
50
246.7072254
51
255.8091359
0
ARC
8
DEFAULT_255_2_778
10
18.6124803
20
73.8186796
40
1.2242447
50
243.4735796
51
246.9574492
0
ARC
8
DEFAULT_255_2_778
10
18.3377307
20
73.2493958
40
0.365718
50
238.6975405
51
269.7536991
0
ARC
8
DEFAULT_255_2_778
10
18.3341625
20
73.2833672
40
0.3996911
50
270.2861506
51
285.9235992
0
ARC
8
DEFAULT_255_2_778
10
18.3190528
20
73.1040257
40
0.2399938
50
301.3239159
51
328.5484084
0
ARC
8
DEFAULT_255_2_778
10
17.8344662
20
73.4302796
40
0.8240117
50
326.7768178
51
337.3925755
0
ARC
8
DEFAULT_255_2_778
10
16.7758869
20
73.8889406
40
1.9776351
50
336.9149998
51
342.1307954
0
ARC
8
DEFAULT_255_2_778
10
18.1003835
20
73.6935501
40
0.1954042
50
190.120766
51
263.958695
0
ARC
8
DEFAULT_255_2_778
10
18.1765334
20
73.9961691
40
0.5062622
50
258.9866291
51
270.5697296
0
ARC
8
DEFAULT_255_2_778
10
18.179421
20
74.3136009
40
0.8236717
50
270.1493118
51
275.0745303
0
ARC
8
DEFAULT_255_2_778
10
18.1623931
20
74.5306991
40
1.0414275
50
274.9512067
51
276.4741818
0
ARC
8
DEFAULT_255_2_778
10
17.8865118
20
75.7869593
40
2.5197089
50
276.512457
51
279.4178429
0
ARC
8
DEFAULT_255_2_778
10
17.9623799
20
75.1166109
40
1.8450814
50
272.9002784
51
276.532699
0
ARC
8
DEFAULT_255_2_778
10
17.9860581
20
74.674308
40
1.4021477
50
270.0528156
51
272.8484525
0
ARC
8
DEFAULT_255_2_778
10
17.9780255
20
74.1655179
40
0.8934054
50
259.5071449
51
270.5980454
0
ARC
8
DEFAULT_255_2_778
10
17.887913
20
73.7045607
40
0.4237716
50
238.7101736
51
260.1371304
0
ARC
8
DEFAULT_255_2_778
10
17.8040731
20
73.5581077
40
0.2551147
50
181.256628
51
237.7180126
0
LINE
8
DEFAULT_255_2_778
10
18.0657198
20
72.7233129
11
18.1477198
21
72.9369129
0
LINE
8
DEFAULT_255_2_778
10
18.6581198
20
73.2821129
11
18.2295198
21
74.3124129
0
LINE
8
DEFAULT_255_2_778
10
18.2295198
20
74.3124129
11
17.9080198
21
74.3124129
0
LINE
8
DEFAULT_255_2_778
10
17.9080198
20
74.3124129
11
17.9080198
21
73.6592129
0
LINE
8
DEFAULT_255_2_778
10
18.2798198
20
73.4959129
11
18.2988198
21
73.3012129
0
LINE
8
DEFAULT_255_2_778
10
17.5490198
20
73.5525129
11
17.5363198
21
74.3190129
0
LINE
8
DEFAULT_255_2_778
10
17.5363198
20
74.3190129
11
17.3471198
21
74.3190129
0
LINE
8
DEFAULT_255_2_778
10
17.3471198
20
74.3190129
11
17.3471198
21
74.5326129
0
LINE
8
DEFAULT_255_2_778
10
17.3471198
20
74.5326129
11
17.5487198
21
74.5326129
0
LINE
8
DEFAULT_255_2_778
10
17.5487198
20
74.5326129
11
17.6747198
21
75.0350129
0
LINE
8
DEFAULT_255_2_778
10
17.6747198
20
75.0350129
11
17.8890198
21
75.0350129
0
LINE
8
DEFAULT_255_2_778
10
17.8890198
20
75.0350129
11
17.9017198
21
74.5326129
0
LINE
8
DEFAULT_255_2_778
10
17.9017198
20
74.5326129
11
18.5319198
21
74.5326129
0
LINE
8
DEFAULT_255_2_778
10
18.5319198
20
74.5326129
11
18.8343198
21
73.7034129
0
LINE
8
DEFAULT_255_2_778
10
18.8343198
20
73.7034129
11
19.1367198
21
74.5326129
0
LINE
8
DEFAULT_255_2_778
10
19.1367198
20
74.5326129
11
19.4519198
21
74.5326129
0
LINE
8
DEFAULT_255_2_778
10
19.4519198
20
74.5326129
11
18.7965198
21
72.8866129
0
ARC
8
DEFAULT_255_2_778
10
19.6924911
20
74.4865064
40
0.0240119
50
28.9725327
51
103.4850922
0
ARC
8
DEFAULT_255_2_778
10
19.6675258
20
74.2713978
40
0.2392435
50
85.3570436
51
90.3180147
0
ARC
8
DEFAULT_255_2_778
10
19.68302
20
73.8749354
40
0.7352792
50
91.4451573
51
94.5103719
0
ARC
8
DEFAULT_255_2_778
10
19.6762642
20
74.1000413
40
0.5100756
50
90.0204387
51
91.3242457
0
ARC
8
DEFAULT_255_2_778
10
19.6820782
20
74.3787926
40
0.231402
50
77.5838349
51
91.484776
0
ARC
8
DEFAULT_255_2_778
10
19.7300541
20
74.5729087
40
0.0319233
50
15.1916927
51
86.8071299
0
ARC
8
DEFAULT_255_2_778
10
19.7392759
20
74.5790197
40
0.0217032
50
359.9550511
51
5.9623374
0
ARC
8
DEFAULT_255_2_778
10
19.7113423
20
74.5839073
40
0.0498786
50
318.6903529
51
354.3569627
0
ARC
8
DEFAULT_255_2_778
10
19.59333
20
74.6714286
40
0.1966754
50
312.4194177
51
322.2354785
0
ARC
8
DEFAULT_255_2_778
10
19.7074456
20
74.4834292
40
0.0466555
50
7.7623904
51
66.56899
0
ARC
8
DEFAULT_255_2_778
10
19.5728806
20
74.4554086
40
0.184022
50
4.3922991
51
10.7492459
0
ARC
8
DEFAULT_255_2_778
10
19.7790464
20
74.4657679
40
0.0229895
50
170.6523659
51
230.6545988
0
ARC
8
DEFAULT_255_2_778
10
19.7669101
20
74.4562613
40
0.0086241
50
253.5721784
51
270.5831571
0
ARC
8
DEFAULT_255_2_778
10
19.6864906
20
74.5529188
40
0.034333
50
13.334954
51
106.2290103
0
ARC
8
DEFAULT_255_2_778
10
19.6694514
20
74.405895
40
0.1801426
50
87.631716
51
90.0488074
0
ARC
8
DEFAULT_255_2_778
10
19.6792828
20
74.6048746
40
0.0666888
50
261.3891358
51
304.5653386
0
ARC
8
DEFAULT_255_2_778
10
19.7080184
20
74.5575951
40
0.0118802
50
319.9940947
51
0.6866831
0
ARC
8
DEFAULT_255_2_778
10
19.6909745
20
74.5294613
40
0.1602765
50
89.8843696
51
180.00852
0
ARC
8
DEFAULT_255_2_778
10
19.6918123
20
74.5296526
40
0.1600857
50
359.923006
51
90.1841118
0
ARC
8
DEFAULT_255_2_778
10
19.6917276
20
74.5292075
40
0.1601705
50
269.8462838
51
0.0822692
0
ARC
8
DEFAULT_255_2_778
10
19.6908681
20
74.5292074
40
0.1601705
50
179.9177057
51
270.1537517
0
ARC
8
DEFAULT_255_2_778
10
19.6941702
20
74.5305588
40
0.1256773
50
179.9900739
51
180.5112141
0
ARC
8
DEFAULT_255_2_778
10
19.6929324
20
74.5306978
40
0.1244397
50
135.616881
51
180.0539568
0
ARC
8
DEFAULT_255_2_778
10
19.6926982
20
74.5309377
40
0.1241046
50
90.5079979
51
135.6204406
0
ARC
8
DEFAULT_255_2_778
10
19.6904941
20
74.5311676
40
0.1238749
50
44.3347873
51
89.4894407
0
ARC
8
DEFAULT_255_2_778
10
19.6901635
20
74.5306978
40
0.1244397
50
359.9460432
51
44.383119
0
ARC
8
DEFAULT_255_2_778
10
19.6889256
20
74.5305588
40
0.1256775
50
359.4887859
51
0.0099261
0
ARC
8
DEFAULT_255_2_778
10
19.6889212
20
74.5283161
40
0.1256817
50
359.9900717
51
0.5112118
0
ARC
8
DEFAULT_255_2_778
10
19.6899314
20
74.5281718
40
0.1246718
50
315.6604182
51
0.0563277
0
ARC
8
DEFAULT_255_2_778
10
19.690317
20
74.5280233
40
0.1242924
50
270.5905059
51
315.5851458
0
ARC
8
DEFAULT_255_2_778
10
19.6928761
20
74.5282548
40
0.1245239
50
224.4596468
51
269.4118891
0
ARC
8
DEFAULT_255_2_778
10
19.6931644
20
74.5281718
40
0.1246718
50
179.9436723
51
224.3395818
0
ARC
8
DEFAULT_255_2_778
10
19.6941746
20
74.5283161
40
0.1256819
50
179.4887882
51
180.0099283
0
LINE
8
DEFAULT_255_2_778
10
19.7671979
20
74.4479375
11
19.7261979
21
74.4479375
0
LINE
8
DEFAULT_255_2_778
10
19.7261979
20
74.4479375
11
19.7134979
21
74.4981375
0
LINE
8
DEFAULT_255_2_778
10
19.6661979
20
74.5106375
11
19.6661979
21
74.4479375
0
LINE
8
DEFAULT_255_2_778
10
19.6661979
20
74.4479375
11
19.6282979
21
74.4479375
0
LINE
8
DEFAULT_255_2_778
10
19.6282979
20
74.4479375
11
19.6251979
21
74.6079375
0
LINE
8
DEFAULT_255_2_778
10
19.7669979
20
74.4476375
11
19.7671979
21
74.4479375
0
LINE
8
DEFAULT_255_2_778
10
19.6692979
20
74.5860375
11
19.6692979
21
74.5389375
0
LINE
8
DEFAULT_255_2_778
10
19.5306979
20
74.5294375
11
19.5306979
21
74.5294375
0
LINE
8
DEFAULT_255_2_778
10
19.5684979
20
74.5294375
11
19.5684979
21
74.5294375
0
LINE
8
DEFAULT_255_2_778
10
11.0900688
20
74.2568698
11
11.0900688
21
73.6285698
0
ARC
8
DEFAULT_255_2_778
10
10.4258178
20
74.8217512
40
1.3656176
50
292.8223416
51
299.1049387
0
ARC
8
DEFAULT_255_2_778
10
10.6923229
20
74.1800623
40
0.6708024
50
282.4794629
51
293.1002978
0
ARC
8
DEFAULT_255_2_778
10
10.7656801
20
73.8545416
40
0.3371233
50
270.5838487
51
282.2615078
0
ARC
8
DEFAULT_255_2_778
10
10.7637817
20
73.687928
40
0.1705756
50
241.3798642
51
271.7918735
0
ARC
8
DEFAULT_255_2_778
10
10.7476697
20
73.651112
40
0.1305871
50
222.8095502
51
239.8477433
0
ARC
8
DEFAULT_255_2_778
10
10.8383448
20
73.7756648
40
0.2833162
50
195.5923976
51
228.8379937
0
ARC
8
DEFAULT_255_2_778
10
11.2233514
20
73.8994125
40
0.6875956
50
182.8988217
51
196.901328
0
ARC
8
DEFAULT_255_2_778
10
11.7297763
20
73.9415595
40
1.1956176
50
179.9089191
51
183.6886871
0
ARC
8
DEFAULT_255_2_778
10
12.0981229
20
73.9419544
40
1.5639636
50
177.2544012
51
179.9448392
0
LINE
8
DEFAULT_255_2_778
10
10.5359547
20
74.0168705
11
10.5359688
21
74.0171698
0
ARC
8
DEFAULT_255_2_778
10
11.0005754
20
73.9522208
40
0.4691244
50
149.0121274
51
172.0420019
0
ARC
8
DEFAULT_255_2_778
10
10.8347413
20
74.0426494
40
0.280511
50
88.5440138
51
147.4067729
0
ARC
8
DEFAULT_255_2_778
10
10.7657193
20
73.4924864
40
0.8340669
50
72.0203436
51
84.7616527
0
ARC
8
DEFAULT_255_2_778
10
10.8831282
20
73.8705191
40
0.4382821
50
61.8252032
51
71.3646611
0
ARC
8
DEFAULT_255_2_778
10
10.4737962
20
74.5409032
40
1.2918982
50
287.0682731
51
298.4915226
0
ARC
8
DEFAULT_255_2_778
10
10.6328818
20
74.0179772
40
0.7453122
50
270.6811176
51
287.1763457
0
ARC
8
DEFAULT_255_2_778
10
10.6416525
20
73.8519494
40
0.5792318
50
267.7358327
51
270.0088232
0
ARC
8
DEFAULT_255_2_778
10
10.6221952
20
73.6923768
40
0.4192211
50
203.9093897
51
269.5317059
0
ARC
8
DEFAULT_255_2_778
10
11.0896726
20
73.9517122
40
0.9528801
50
192.6009015
51
206.7737237
0
ARC
8
DEFAULT_255_2_778
10
11.4914822
20
74.0600427
40
1.3687639
50
192.6165694
51
193.3570279
0
ARC
8
DEFAULT_255_2_778
10
11.1915444
20
73.9542151
40
1.05363
50
182.6356817
51
190.5628607
0
ARC
8
DEFAULT_255_2_778
10
11.0380576
20
73.9446692
40
0.89987
50
180.0135228
51
182.4779265
0
ARC
8
DEFAULT_255_2_778
10
10.8122185
20
73.9605664
40
0.6742234
50
136.7456723
51
181.3691273
0
ARC
8
DEFAULT_255_2_778
10
10.662857
20
74.0493873
40
0.5059802
50
89.2314975
51
132.4774114
0
ARC
8
DEFAULT_255_2_778
10
10.6695571
20
73.9386601
40
0.6166618
50
87.8056342
51
89.9919799
0
ARC
8
DEFAULT_255_2_778
10
10.6807164
20
73.3969717
40
1.157965
50
70.3175508
51
89.3838437
0
ARC
8
DEFAULT_255_2_778
10
10.5893508
20
73.0894874
40
1.4783609
50
70.2024224
51
70.9971735
0
ARC
8
DEFAULT_255_2_778
10
9.3624819
20
73.9233426
40
0.1950108
50
91.6788031
51
181.813939
0
ARC
8
DEFAULT_255_2_778
10
9.350989
20
73.9232798
40
0.1950756
50
358.2051219
51
88.3021655
0
ARC
8
DEFAULT_255_2_778
10
9.3509891
20
73.9110596
40
0.1950754
50
271.6978133
51
1.7949071
0
ARC
8
DEFAULT_255_2_778
10
9.3624819
20
73.9109969
40
0.1950108
50
178.186061
51
268.3211969
0
ARC
8
DEFAULT_255_2_778
10
9.5084727
20
73.9239309
40
0.4668529
50
145.043768
51
180.8298084
0
ARC
8
DEFAULT_255_2_778
10
9.3653029
20
74.0316132
40
0.287883
50
91.6987406
51
146.2830079
0
ARC
8
DEFAULT_255_2_778
10
9.3415457
20
74.0146621
40
0.3050877
50
23.4934874
51
87.1398977
0
ARC
8
DEFAULT_255_2_778
10
9.1870732
20
73.9207629
40
0.484809
50
359.5753549
51
26.3944218
0
ARC
8
DEFAULT_255_2_778
10
9.2053375
20
73.91042
40
0.4665802
50
325.0256173
51
0.8288991
0
ARC
8
DEFAULT_255_2_778
10
9.3482106
20
73.8028699
40
0.2879274
50
271.7032906
51
326.2656695
0
ARC
8
DEFAULT_255_2_778
10
9.3720078
20
73.8199987
40
0.3053095
50
203.3271307
51
267.1389871
0
ARC
8
DEFAULT_255_2_778
10
9.5267258
20
73.913593
40
0.4850703
50
179.5775117
51
206.2433806
0
ARC
8
DEFAULT_255_2_778
10
9.3462242
20
73.8982025
40
0.6700752
50
95.9615992
51
178.9168048
0
ARC
8
DEFAULT_255_2_778
10
9.3692457
20
73.8301302
40
0.7403396
50
89.982733
51
97.186551
0
ARC
8
DEFAULT_255_2_778
10
9.3737015
20
73.8603279
40
0.7101545
50
48.1622127
51
90.3414937
0
ARC
8
DEFAULT_255_2_778
10
9.4198028
20
73.9093697
40
0.6428678
50
0.1336951
51
48.3079447
0
ARC
8
DEFAULT_255_2_778
10
9.3927134
20
73.923537
40
0.6700752
50
275.9615992
51
358.9168048
0
ARC
8
DEFAULT_255_2_778
10
9.3696919
20
73.9916094
40
0.7403396
50
269.982733
51
277.186551
0
ARC
8
DEFAULT_255_2_778
10
9.3652362
20
73.9614116
40
0.7101545
50
228.1622127
51
270.3414937
0
ARC
8
DEFAULT_255_2_778
10
9.3191349
20
73.9123698
40
0.6428678
50
180.1336951
51
228.3079447
0
ARC
8
DEFAULT_255_2_778
10
6.8107463
20
74.6078908
40
0.4410946
50
358.399361
51
20.0218069
0
ARC
8
DEFAULT_255_2_778
10
7.0252301
20
74.6839859
40
0.2135292
50
20.5419455
51
86.7410997
0
ARC
8
DEFAULT_255_2_778
10
6.9403671
20
74.6440134
40
0.3150485
50
287.9324001
51
351.1547913
0
ARC
8
DEFAULT_255_2_778
10
7.0381682
20
74.59225
40
0.6191268
50
4.9683528
51
29.9289322
0
ARC
8
DEFAULT_255_2_778
10
7.1427871
20
74.6333443
40
0.508227
50
31.7987523
51
73.6168205
0
ARC
8
DEFAULT_255_2_778
10
7.0076309
20
74.2522148
40
0.9122727
50
72.2244713
51
84.9667071
0
ARC
8
DEFAULT_255_2_778
10
6.9731565
20
75.0162673
40
0.9427779
50
276.9765222
51
292.3131775
0
ARC
8
DEFAULT_255_2_778
10
7.152457
20
74.6087302
40
0.4978062
50
291.0302401
51
353.4987619
0
ARC
8
DEFAULT_255_2_778
10
6.882936
20
74.6640679
40
0.7722473
50
351.6832812
51
358.6496898
0
LINE
8
DEFAULT_255_2_778
10
11.0900688
20
74.2568698
11
11.0900688
21
74.2568698
0
LINE
8
DEFAULT_255_2_778
10
11.0900688
20
74.4802698
11
11.0900688
21
75.2326698
0
LINE
8
DEFAULT_255_2_778
10
11.0900688
20
75.2326698
11
11.4538688
21
75.2739698
0
LINE
8
DEFAULT_255_2_778
10
11.4538688
20
75.2739698
11
11.4538688
21
73.3062698
0
LINE
8
DEFAULT_255_2_778
10
11.4538688
20
73.3062698
11
11.0982688
21
73.3062698
0
LINE
8
DEFAULT_255_2_778
10
11.0982688
20
73.3062698
11
11.0900688
21
73.4054698
0
LINE
8
DEFAULT_255_2_778
10
11.0900688
20
74.4804698
11
11.0900688
21
74.4802698
0
LINE
8
DEFAULT_255_2_778
10
9.1675688
20
73.9171698
11
9.1675688
21
73.9171698
0
LINE
8
DEFAULT_255_2_778
10
9.0416688
20
73.9171698
11
9.0416688
21
73.9171698
0
LINE
8
DEFAULT_255_2_778
10
8.6762688
20
73.9108698
11
8.6762688
21
73.9108698
0
LINE
8
DEFAULT_255_2_778
10
7.0373688
20
74.8971698
11
6.7728688
21
74.8971698
0
LINE
8
DEFAULT_255_2_778
10
6.7728688
20
74.8971698
11
6.7728688
21
74.3442698
0
LINE
8
DEFAULT_255_2_778
10
6.7728688
20
74.3442698
11
7.0373688
21
74.3442698
0
LINE
8
DEFAULT_255_2_778
10
7.2516688
20
74.5955698
11
7.2516688
21
74.5955698
0
LINE
8
DEFAULT_255_2_778
10
7.0876688
20
75.1609698
11
6.3817688
21
75.1609698
0
LINE
8
DEFAULT_255_2_778
10
6.3817688
20
75.1609698
11
6.3817688
21
73.3014698
0
LINE
8
DEFAULT_255_2_778
10
6.3817688
20
73.3014698
11
6.7725688
21
73.3014698
0
LINE
8
DEFAULT_255_2_778
10
6.7725688
20
73.3014698
11
6.7725688
21
74.0804698
0
LINE
8
DEFAULT_255_2_778
10
6.7725688
20
74.0804698
11
7.0876688
21
74.0804698
0
LINE
8
DEFAULT_255_2_778
10
7.6549688
20
74.6458698
11
7.6549688
21
74.6458698
0
ARC
8
DEFAULT_255_2_778
10
22.0341103
20
73.1396325
40
0.1933696
50
91.2195322
51
181.3554583
0
ARC
8
DEFAULT_255_2_778
10
22.0258793
20
73.1396325
40
0.1933696
50
358.6445319
51
88.7804717
0
ARC
8
DEFAULT_255_2_778
10
22.0258794
20
73.1304841
40
0.1933695
50
271.2194968
51
1.3554733
0
ARC
8
DEFAULT_255_2_778
10
22.0341102
20
73.1304841
40
0.1933696
50
178.6445267
51
268.7805032
0
ARC
8
DEFAULT_255_2_778
10
22.500592
20
73.1396522
40
0.1933518
50
91.2438577
51
181.3614136
0
ARC
8
DEFAULT_255_2_778
10
22.4922792
20
73.1396325
40
0.1933696
50
358.6445428
51
88.7804459
0
ARC
8
DEFAULT_255_2_778
10
22.4922795
20
73.1304841
40
0.1933694
50
271.219471
51
1.3554842
0
ARC
8
DEFAULT_255_2_778
10
22.5005921
20
73.1304647
40
0.1933519
50
178.638633
51
268.7561308
0
ARC
8
DEFAULT_255_2_778
10
22.966792
20
73.152352
40
0.1933518
50
91.2438477
51
181.3613675
0
ARC
8
DEFAULT_255_2_778
10
22.9584792
20
73.1523325
40
0.1933696
50
358.6445428
51
88.7804459
0
ARC
8
DEFAULT_255_2_778
10
22.9584795
20
73.1431841
40
0.1933694
50
271.219471
51
1.3554842
0
ARC
8
DEFAULT_255_2_778
10
22.9667921
20
73.1431645
40
0.1933517
50
178.6385825
51
268.7561312
0
LINE
8
DEFAULT_255_2_778
10
21.8407948
20
73.1350583
11
21.8407948
21
73.1350583
0
LINE
8
DEFAULT_255_2_778
10
22.3072948
20
73.1350583
11
22.3072948
21
73.1350583
0
LINE
8
DEFAULT_255_2_778
10
22.7734948
20
73.1477583
11
22.7734948
21
73.1477583
0
LINE
8
DEFAULT_255_2_778
10
21.8956365
20
72.891124
11
21.8665365
21
72.895924
0
LINE
8
DEFAULT_255_2_778
10
21.8665365
20
72.895924
11
21.8059365
21
72.905724
0
LINE
8
DEFAULT_255_2_778
10
21.8059365
20
72.905724
11
21.7299365
21
72.963924
0
LINE
8
DEFAULT_255_2_778
10
21.7299365
20
72.963924
11
21.6728365
21
73.039624
0
LINE
8
DEFAULT_255_2_778
10
21.6728365
20
73.039624
11
21.6476365
21
73.133024
0
LINE
8
DEFAULT_255_2_778
10
21.6476365
20
73.133024
11
21.6728365
21
73.226624
0
LINE
8
DEFAULT_255_2_778
10
21.6728365
20
73.226624
11
21.7294365
21
73.303424
0
LINE
8
DEFAULT_255_2_778
10
21.7294365
20
73.303424
11
21.8053365
21
73.362924
0
LINE
8
DEFAULT_255_2_778
10
21.8053365
20
73.362924
11
21.8665365
21
73.372924
0
LINE
8
DEFAULT_255_2_778
10
21.8665365
20
73.372924
11
21.8958365
21
73.377724
0
LINE
8
DEFAULT_255_2_778
10
21.8958365
20
72.808124
11
21.8546365
21
72.813624
0
LINE
8
DEFAULT_255_2_778
10
21.8546365
20
72.813624
11
21.7707365
21
72.825024
0
LINE
8
DEFAULT_255_2_778
10
21.7707365
20
72.825024
11
21.6683365
21
72.899624
0
LINE
8
DEFAULT_255_2_778
10
21.6683365
20
72.899624
11
21.5950365
21
72.998324
0
LINE
8
DEFAULT_255_2_778
10
21.5950365
20
72.998324
11
21.5733365
21
73.113924
0
ARC
8
DEFAULT_255_2_778
10
19.6071242
20
73.7321303
40
0.3581298
50
180.0162757
51
182.2699138
0
ARC
8
DEFAULT_255_2_778
10
19.4534829
20
73.7457764
40
0.2049502
50
100.1638691
51
183.8462269
0
ARC
8
DEFAULT_255_2_778
10
19.5515993
20
73.4171455
40
0.5471003
50
90.0234402
51
104.2080975
0
ARC
8
DEFAULT_255_2_778
10
19.5528834
20
73.7704699
40
0.1937818
50
5.5175223
51
90.4458723
0
ARC
8
DEFAULT_255_2_778
10
19.3612362
20
73.7300775
40
0.3890348
50
359.7014597
51
8.726641
0
ARC
8
DEFAULT_255_2_778
10
19.2420729
20
73.7282577
40
0.5081929
50
357.7544822
51
359.976639
0
ARC
8
DEFAULT_255_2_778
10
19.3404742
20
73.773607
40
0.4145702
50
340.5439579
51
350.9428846
0
ARC
8
DEFAULT_255_2_778
10
19.6818113
20
73.6526061
40
0.0524224
50
319.3350621
51
340.9786234
0
ARC
8
DEFAULT_255_2_778
10
19.1300329
20
73.835169
40
0.4858933
50
337.8212904
51
346.2526281
0
ARC
8
DEFAULT_255_2_778
10
19.5379362
20
73.7340825
40
0.0656649
50
347.3486169
51
358.3972422
0
ARC
8
DEFAULT_255_2_778
10
19.3892367
20
73.7412112
40
0.2145262
50
357.6048162
51
359.9743471
0
ARC
8
DEFAULT_255_2_778
10
19.521739
20
73.7546395
40
0.0831313
50
350.6371276
51
96.844243
0
ARC
8
DEFAULT_255_2_778
10
19.5122091
20
73.6365521
40
0.2006266
50
90.1076454
51
94.8990763
0
ARC
8
DEFAULT_255_2_778
10
19.5034127
20
73.7331153
40
0.1036663
50
94.6129189
51
177.4610849
0
ARC
8
DEFAULT_255_2_778
10
19.6883706
20
73.6784397
40
0.2945469
50
168.391873
51
173.2331892
0
LINE
8
DEFAULT_255_2_778
10
19.3955754
20
73.7131458
11
19.2492754
21
73.7179458
0
LINE
8
DEFAULT_255_2_778
10
19.7215754
20
73.6184458
11
19.4572754
21
73.3199458
0
LINE
8
DEFAULT_255_2_778
10
19.4572754
20
73.3199458
11
19.7784754
21
73.3199458
0
LINE
8
DEFAULT_255_2_778
10
19.7784754
20
73.3199458
11
19.7784754
21
73.1969458
0
LINE
8
DEFAULT_255_2_778
10
19.7784754
20
73.1969458
11
19.2682754
21
73.1969458
0
LINE
8
DEFAULT_255_2_778
10
19.2682754
20
73.1969458
11
19.2682754
21
73.3012458
0
LINE
8
DEFAULT_255_2_778
10
19.2682754
20
73.3012458
11
19.5799754
21
73.6517458
0
LINE
8
DEFAULT_255_2_778
10
19.3958754
20
73.7131458
11
19.3955754
21
73.7131458
0
ARC
8
DEFAULT_255_2_778
10
21.6491338
20
73.5979013
40
0.5330281
50
158.8297779
51
180.8126209
0
ARC
8
DEFAULT_255_2_778
10
21.3443043
20
73.7240829
40
0.2033429
50
124.0119958
51
160.9659866
0
ARC
8
DEFAULT_255_2_778
10
21.2743176
20
73.817462
40
0.0869831
50
90.4994457
51
120.2017555
0
ARC
8
DEFAULT_255_2_778
10
21.2600082
20
73.7790586
40
0.1261132
50
24.6798401
51
83.8315083
0
ARC
8
DEFAULT_255_2_778
10
21.0025231
20
73.623952
40
0.4261556
50
6.130385
51
29.1785479
0
ARC
8
DEFAULT_255_2_778
10
20.8148831
20
73.5909702
40
0.6163766
50
359.941576
51
7.3161118
0
ARC
8
DEFAULT_255_2_778
10
20.8991049
20
73.5827366
40
0.5322088
50
338.8055679
51
0.8187669
0
ARC
8
DEFAULT_255_2_778
10
21.2033747
20
73.4566684
40
0.203082
50
303.9150541
51
340.932466
0
ARC
8
DEFAULT_255_2_778
10
21.2728185
20
73.3637902
40
0.0874515
50
270.4854298
51
300.1080748
0
ARC
8
DEFAULT_255_2_778
10
21.2871918
20
73.4020041
40
0.1263997
50
204.3281643
51
263.8084993
0
ARC
8
DEFAULT_255_2_778
10
21.5498039
20
73.5580123
40
0.4313014
50
185.613152
51
208.8453558
0
ARC
8
DEFAULT_255_2_778
10
21.738281
20
73.5897819
40
0.6221217
50
179.9484445
51
186.8272745
0
ARC
8
DEFAULT_255_2_778
10
21.5396261
20
73.5944048
40
0.5243157
50
152.5254433
51
180.7827883
0
ARC
8
DEFAULT_255_2_778
10
21.3138339
20
73.7218837
40
0.2653266
50
108.4095367
51
154.4544086
0
ARC
8
DEFAULT_255_2_778
10
21.2768034
20
73.8006783
40
0.1791635
50
90.0140927
51
105.1293658
0
ARC
8
DEFAULT_255_2_778
10
21.2623719
20
73.7489205
40
0.231369
50
28.2822033
51
86.4348199
0
ARC
8
DEFAULT_255_2_778
10
21.0418618
20
73.6017258
40
0.4959362
50
2.837394
51
31.1881489
0
ARC
8
DEFAULT_255_2_778
10
20.9404116
20
73.5873304
40
0.5980477
50
359.9914968
51
3.7337628
0
ARC
8
DEFAULT_255_2_778
10
21.0137058
20
73.5801164
40
0.524802
50
332.6504535
51
0.7779361
0
ARC
8
DEFAULT_255_2_778
10
21.2395936
20
73.4531026
40
0.265965
50
288.44039
51
334.5981325
0
ARC
8
DEFAULT_255_2_778
10
21.2767199
20
73.3743438
40
0.1798021
50
270.0125899
51
285.1541198
0
ARC
8
DEFAULT_255_2_778
10
21.2909632
20
73.4251186
40
0.2310141
50
208.1688806
51
266.4749618
0
ARC
8
DEFAULT_255_2_778
10
21.513001
20
73.5725235
40
0.4969751
50
182.8019459
51
211.0671432
0
ARC
8
DEFAULT_255_2_778
10
21.6169279
20
73.5871537
40
0.6015684
50
179.9916184
51
183.7098813
0
LINE
8
DEFAULT_255_2_778
10
21.1161594
20
73.5903417
11
21.1161594
21
73.5903417
0
LINE
8
DEFAULT_255_2_778
10
21.0153594
20
73.5872417
11
21.0153594
21
73.5872417
0
ARC
8
DEFAULT_255_2_778
10
21.0567338
20
73.5979013
40
0.5330281
50
158.8297779
51
180.8126209
0
ARC
8
DEFAULT_255_2_778
10
20.7519043
20
73.7240829
40
0.2033429
50
124.0119958
51
160.9659866
0
ARC
8
DEFAULT_255_2_778
10
20.6819176
20
73.817462
40
0.0869831
50
90.4994457
51
120.2017555
0
ARC
8
DEFAULT_255_2_778
10
20.6676082
20
73.7790586
40
0.1261132
50
24.6798401
51
83.8315083
0
ARC
8
DEFAULT_255_2_778
10
20.4101231
20
73.623952
40
0.4261556
50
6.130385
51
29.1785479
0
ARC
8
DEFAULT_255_2_778
10
20.2224831
20
73.5909702
40
0.6163766
50
359.941576
51
7.3161118
0
ARC
8
DEFAULT_255_2_778
10
20.3067049
20
73.5827366
40
0.5322088
50
338.8055679
51
0.8187669
0
ARC
8
DEFAULT_255_2_778
10
20.6109747
20
73.4566684
40
0.203082
50
303.9150541
51
340.932466
0
ARC
8
DEFAULT_255_2_778
10
20.6804185
20
73.3637902
40
0.0874515
50
270.4854298
51
300.1080748
0
ARC
8
DEFAULT_255_2_778
10
20.6947918
20
73.4020041
40
0.1263997
50
204.3281643
51
263.8084993
0
ARC
8
DEFAULT_255_2_778
10
20.9574039
20
73.5580123
40
0.4313014
50
185.613152
51
208.8453558
0
ARC
8
DEFAULT_255_2_778
10
21.145881
20
73.5897819
40
0.6221217
50
179.9484445
51
186.8272745
0
ARC
8
DEFAULT_255_2_778
10
20.9472261
20
73.5944048
40
0.5243157
50
152.5254433
51
180.7827883
0
ARC
8
DEFAULT_255_2_778
10
20.7214339
20
73.7218837
40
0.2653266
50
108.4095367
51
154.4544086
0
ARC
8
DEFAULT_255_2_778
10
20.6844034
20
73.8006783
40
0.1791635
50
90.0140927
51
105.1293658
0
ARC
8
DEFAULT_255_2_778
10
20.6699719
20
73.7489205
40
0.231369
50
28.2822033
51
86.4348199
0
ARC
8
DEFAULT_255_2_778
10
20.4494618
20
73.6017258
40
0.4959362
50
2.837394
51
31.1881489
0
ARC
8
DEFAULT_255_2_778
10
20.3480116
20
73.5873304
40
0.5980477
50
359.9914968
51
3.7337628
0
ARC
8
DEFAULT_255_2_778
10
20.4213058
20
73.5801164
40
0.524802
50
332.6504535
51
0.7779361
0
ARC
8
DEFAULT_255_2_778
10
20.6471936
20
73.4531026
40
0.265965
50
288.44039
51
334.5981325
0
ARC
8
DEFAULT_255_2_778
10
20.6843199
20
73.3743438
40
0.1798021
50
270.0125899
51
285.1541198
0
ARC
8
DEFAULT_255_2_778
10
20.6985632
20
73.4251186
40
0.2310141
50
208.1688806
51
266.4749618
0
ARC
8
DEFAULT_255_2_778
10
20.920601
20
73.5725235
40
0.4969751
50
182.8019459
51
211.0671432
0
ARC
8
DEFAULT_255_2_778
10
21.0245279
20
73.5871537
40
0.6015684
50
179.9916184
51
183.7098813
0
LINE
8
DEFAULT_255_2_778
10
20.5237594
20
73.5903417
11
20.5237594
21
73.5903417
0
LINE
8
DEFAULT_255_2_778
10
20.4229594
20
73.5872417
11
20.4229594
21
73.5872417
0
ARC
8
DEFAULT_255_2_778
10
20.4643338
20
73.5979013
40
0.5330281
50
158.8297779
51
180.8126209
0
ARC
8
DEFAULT_255_2_778
10
20.1595043
20
73.7240829
40
0.2033429
50
124.0119958
51
160.9659866
0
ARC
8
DEFAULT_255_2_778
10
20.0895176
20
73.817462
40
0.0869831
50
90.4994457
51
120.2017555
0
ARC
8
DEFAULT_255_2_778
10
20.0752082
20
73.7790586
40
0.1261132
50
24.6798401
51
83.8315083
0
ARC
8
DEFAULT_255_2_778
10
19.8177231
20
73.623952
40
0.4261556
50
6.130385
51
29.1785479
0
ARC
8
DEFAULT_255_2_778
10
19.6300831
20
73.5909702
40
0.6163766
50
359.941576
51
7.3161118
0
ARC
8
DEFAULT_255_2_778
10
19.7143049
20
73.5827366
40
0.5322088
50
338.8055679
51
0.8187669
0
ARC
8
DEFAULT_255_2_778
10
20.0185747
20
73.4566684
40
0.203082
50
303.9150541
51
340.932466
0
ARC
8
DEFAULT_255_2_778
10
20.0880185
20
73.3637902
40
0.0874515
50
270.4854298
51
300.1080748
0
ARC
8
DEFAULT_255_2_778
10
20.1023918
20
73.4020041
40
0.1263997
50
204.3281643
51
263.8084993
0
ARC
8
DEFAULT_255_2_778
10
20.3650039
20
73.5580123
40
0.4313014
50
185.613152
51
208.8453558
0
ARC
8
DEFAULT_255_2_778
10
20.553481
20
73.5897819
40
0.6221217
50
179.9484445
51
186.8272745
0
ARC
8
DEFAULT_255_2_778
10
20.3548261
20
73.5944048
40
0.5243157
50
152.5254433
51
180.7827883
0
ARC
8
DEFAULT_255_2_778
10
20.1290339
20
73.7218837
40
0.2653266
50
108.4095367
51
154.4544086
0
ARC
8
DEFAULT_255_2_778
10
20.0920034
20
73.8006783
40
0.1791635
50
90.0140927
51
105.1293658
0
ARC
8
DEFAULT_255_2_778
10
20.0775719
20
73.7489205
40
0.231369
50
28.2822033
51
86.4348199
0
ARC
8
DEFAULT_255_2_778
10
19.8570618
20
73.6017258
40
0.4959362
50
2.837394
51
31.1881489
0
ARC
8
DEFAULT_255_2_778
10
19.7556116
20
73.5873304
40
0.5980477
50
359.9914968
51
3.7337628
0
ARC
8
DEFAULT_255_2_778
10
19.8289058
20
73.5801164
40
0.524802
50
332.6504535
51
0.7779361
0
ARC
8
DEFAULT_255_2_778
10
20.0547936
20
73.4531026
40
0.265965
50
288.44039
51
334.5981325
0
ARC
8
DEFAULT_255_2_778
10
20.0919199
20
73.3743438
40
0.1798021
50
270.0125899
51
285.1541198
0
ARC
8
DEFAULT_255_2_778
10
20.1061632
20
73.4251186
40
0.2310141
50
208.1688806
51
266.4749618
0
ARC
8
DEFAULT_255_2_778
10
20.328201
20
73.5725235
40
0.4969751
50
182.8019459
51
211.0671432
0
ARC
8
DEFAULT_255_2_778
10
20.4321279
20
73.5871537
40
0.6015684
50
179.9916184
51
183.7098813
0
LINE
8
DEFAULT_255_2_778
10
19.9313594
20
73.5903417
11
19.9313594
21
73.5903417
0
LINE
8
DEFAULT_255_2_778
10
19.8305594
20
73.5872417
11
19.8305594
21
73.5872417
0
LINE
8
DEFAULT_255_1_388
10
7.8448094
20
70.6513317
11
7.5348868
21
70.6513317
0
LINE
8
DEFAULT_255_1_388
10
7.5348868
20
70.6513317
11
7.5348868
21
70.1363
0
LINE
8
DEFAULT_255_1_388
10
7.5348868
20
70.1363
11
7.3614024
21
70.1363
0
LINE
8
DEFAULT_255_1_388
10
7.3614024
20
70.1363
11
7.3614024
21
71.4518898
0
LINE
8
DEFAULT_255_1_388
10
7.3614024
20
71.4518898
11
7.8466165
21
71.4518898
0
LINE
8
DEFAULT_255_1_388
10
7.5348868
20
71.3091267
11
7.5348868
21
70.7931914
0
LINE
8
DEFAULT_255_1_388
10
7.5348868
20
70.7931914
11
7.8466165
21
70.7931914
0
LINE
8
DEFAULT_255_1_388
10
7.8565557
20
71.3091267
11
7.5348868
21
71.3091267
0
ARC
8
DEFAULT_255_1_388
10
7.8513538
20
70.7702334
40
0.6816729
50
78.8380084
51
90.398184
0
ARC
8
DEFAULT_255_1_388
10
7.8981569
20
70.9975796
40
0.449571
50
58.9633273
51
79.0810717
0
ARC
8
DEFAULT_255_1_388
10
7.9320953
20
71.0605823
40
0.3781049
50
48.0194715
51
58.4475592
0
ARC
8
DEFAULT_255_1_388
10
7.9420773
20
71.0701818
40
0.3642936
50
3.3374546
51
48.1766642
0
ARC
8
DEFAULT_255_1_388
10
7.803558
20
71.0502581
40
0.5038766
50
359.9483251
51
4.6822857
0
ARC
8
DEFAULT_255_1_388
10
7.8175503
20
71.0454779
40
0.4899031
50
346.1879032
51
0.5059221
0
ARC
8
DEFAULT_255_1_388
10
7.9704295
20
71.0057763
40
0.3319729
50
310.8832219
51
346.5426612
0
ARC
8
DEFAULT_255_1_388
10
7.9357143
20
71.0526853
40
0.3901853
50
286.6925305
51
310.228778
0
ARC
8
DEFAULT_255_1_388
10
7.8716873
20
71.2540585
40
0.6014737
50
274.6848219
51
287.0247342
0
ARC
8
DEFAULT_255_1_388
10
7.8463422
20
71.5025088
40
0.8511785
50
269.8968222
51
275.0192639
0
ARC
8
DEFAULT_255_1_388
10
7.8494415
20
71.2687144
40
0.4755314
50
269.6596206
51
279.4150542
0
ARC
8
DEFAULT_255_1_388
10
7.8783873
20
71.1009945
40
0.3053379
50
279.2050006
51
294.9901776
0
ARC
8
DEFAULT_255_1_388
10
7.9110508
20
71.0281353
40
0.2255036
50
295.2886769
51
311.2912669
0
ARC
8
DEFAULT_255_1_388
10
7.9190249
20
71.0162938
40
0.2113522
50
311.7853512
51
347.2860549
0
ARC
8
DEFAULT_255_1_388
10
7.808341
20
71.044743
40
0.3256011
50
346.6891629
51
0.1057086
0
ARC
8
DEFAULT_255_1_388
10
7.716087
20
71.0480247
40
0.417863
50
359.63239
51
359.9961329
0
ARC
8
DEFAULT_255_1_388
10
7.8325475
20
71.0507987
40
0.3014155
50
359.4673371
51
15.5931159
0
ARC
8
DEFAULT_255_1_388
10
7.9028538
20
71.0697937
40
0.2285918
50
15.7441779
51
46.620186
0
ARC
8
DEFAULT_255_1_388
10
7.8862298
20
71.0506361
40
0.2539359
50
46.8628482
51
75.6676625
0
ARC
8
DEFAULT_255_1_388
10
7.8531354
20
70.9315243
40
0.3775415
50
75.2763152
51
88.2916439
0
ARC
8
DEFAULT_255_1_388
10
7.8465354
20
70.8313097
40
0.4779221
50
87.8589087
51
88.7986197
0
LINE
8
DEFAULT_255_1_388
10
8.9751685
20
71.1193781
11
8.9751685
21
70.963965
0
LINE
8
DEFAULT_255_1_388
10
8.6697637
20
70.8302375
11
8.6697637
21
70.1363
0
LINE
8
DEFAULT_255_1_388
10
8.6697637
20
70.1363
11
8.5026043
21
70.1363
0
LINE
8
DEFAULT_255_1_388
10
8.5026043
20
70.1363
11
8.5026043
21
71.1139567
0
LINE
8
DEFAULT_255_1_388
10
8.5026043
20
71.1139567
11
8.6652459
21
71.1139567
0
LINE
8
DEFAULT_255_1_388
10
8.6652459
20
71.1139567
11
8.6679566
21
71.0010112
0
ARC
8
DEFAULT_255_1_388
10
8.9001845
20
70.5073068
40
0.4627735
50
80.6751522
51
86.893806
0
ARC
8
DEFAULT_255_1_388
10
8.8933675
20
70.3981103
40
0.5721798
50
86.8046851
51
90.0423898
0
ARC
8
DEFAULT_255_1_388
10
8.8892094
20
70.6748197
40
0.2954939
50
89.2758283
51
106.6212906
0
ARC
8
DEFAULT_255_1_388
10
8.8662119
20
70.7584009
40
0.2088351
50
107.1347109
51
157.6456887
0
ARC
8
DEFAULT_255_1_388
10
8.9430181
20
70.7156908
40
0.296292
50
155.6557383
51
157.256838
0
ARC
8
DEFAULT_255_1_388
10
8.9209795
20
70.8467472
40
0.296341
50
127.8167201
51
148.6300223
0
ARC
8
DEFAULT_255_1_388
10
8.8924543
20
70.8760066
40
0.2557782
50
91.3329934
51
126.7875218
0
ARC
8
DEFAULT_255_1_388
10
8.900993
20
70.7956718
40
0.3363561
50
89.9858247
51
92.4688453
0
ARC
8
DEFAULT_255_1_388
10
8.9019423
20
70.8265114
40
0.3055179
50
85.3587643
51
90.1624243
0
ARC
8
DEFAULT_255_1_388
10
8.9114488
20
70.9394458
40
0.1921848
50
78.4019195
51
85.4592653
0
ARC
8
DEFAULT_255_1_388
10
8.9277549
20
71.0172142
40
0.1127267
50
67.7849217
51
78.573798
0
ARC
8
DEFAULT_255_1_388
10
8.9399183
20
71.0487374
40
0.0789473
50
63.4805074
51
67.3074739
0
LINE
8
DEFAULT_255_1_388
10
9.0664285
20
70.6224177
11
9.0664285
21
70.634164
0
LINE
8
DEFAULT_255_1_388
10
9.9564395
20
70.6260319
11
9.9564395
21
70.6142856
0
ARC
8
DEFAULT_255_1_388
10
9.694873
20
70.637804
40
0.628455
50
166.3005265
51
180.3318609
0
ARC
8
DEFAULT_255_1_388
10
9.5978079
20
70.6595267
40
0.52901
50
153.8608648
51
166.0965672
0
ARC
8
DEFAULT_255_1_388
10
9.5229245
20
70.6996652
40
0.4441126
50
135.1317053
51
154.2534962
0
ARC
8
DEFAULT_255_1_388
10
9.4915896
20
70.7273431
40
0.4023863
50
121.7042632
51
134.7771455
0
ARC
8
DEFAULT_255_1_388
10
9.4991328
20
70.7128469
40
0.4186852
50
93.4001111
51
121.5399523
0
ARC
8
DEFAULT_255_1_388
10
9.5098162
20
70.6198759
40
0.5121521
50
89.9706387
51
93.9763381
0
ARC
8
DEFAULT_255_1_388
10
9.5151147
20
70.6638563
40
0.4681988
50
71.3321659
51
90.6162917
0
ARC
8
DEFAULT_255_1_388
10
9.533418
20
70.7316003
40
0.3981841
50
41.1813875
51
70.7072086
0
ARC
8
DEFAULT_255_1_388
10
9.4796897
20
70.682813
40
0.4707474
50
12.1971434
51
41.3446641
0
ARC
8
DEFAULT_255_1_388
10
9.263016
20
70.6312328
40
0.6934429
50
359.5702713
51
12.5803533
0
ARC
8
DEFAULT_255_1_388
10
9.3162476
20
70.6107207
40
0.6402018
50
347.0196754
51
0.3190452
0
ARC
8
DEFAULT_255_1_388
10
9.424053
20
70.5875189
40
0.5299421
50
334.350439
51
346.8460534
0
ARC
8
DEFAULT_255_1_388
10
9.5191776
20
70.5381244
40
0.4228234
50
310.4228125
51
334.8045131
0
ARC
8
DEFAULT_255_1_388
10
9.5283754
20
70.5309301
40
0.4113892
50
301.8488154
51
310.0972985
0
ARC
8
DEFAULT_255_1_388
10
9.5247495
20
70.5394573
40
0.4205483
50
274.3078723
51
301.6554173
0
ARC
8
DEFAULT_255_1_388
10
9.512295
20
70.6381943
40
0.5199658
50
269.954904
51
274.859116
0
ARC
8
DEFAULT_255_1_388
10
9.5067774
20
70.5818239
40
0.4636233
50
250.8887647
51
270.6313164
0
ARC
8
DEFAULT_255_1_388
10
9.4898935
20
70.5189405
40
0.398705
50
221.1701369
51
250.2227012
0
ARC
8
DEFAULT_255_1_388
10
9.54436
20
70.5685716
40
0.4723796
50
191.6263861
51
221.3526879
0
ARC
8
DEFAULT_255_1_388
10
9.7567446
20
70.6177203
40
0.6903321
50
179.6101251
51
192.0694841
0
ARC
8
DEFAULT_255_1_388
10
9.8043793
20
70.6106681
40
0.5698993
50
179.636304
51
190.6161344
0
ARC
8
DEFAULT_255_1_388
10
9.6196125
20
70.5746635
40
0.3816643
50
190.4136062
51
208.7168709
0
ARC
8
DEFAULT_255_1_388
10
9.5622159
20
70.5461905
40
0.3176572
50
209.187109
51
217.4221816
0
ARC
8
DEFAULT_255_1_388
10
9.502663
20
70.4937729
40
0.2385702
50
216.1156863
51
265.2575395
0
ARC
8
DEFAULT_255_1_388
10
9.5115666
20
70.5582608
40
0.3035941
50
264.5891546
51
270.0602378
0
ARC
8
DEFAULT_255_1_388
10
9.5152863
20
70.5155539
40
0.2609091
50
269.2532353
51
291.8793864
0
ARC
8
DEFAULT_255_1_388
10
9.5185742
20
70.4955359
40
0.241148
50
292.9269367
51
323.1777736
0
ARC
8
DEFAULT_255_1_388
10
9.4715027
20
70.5368762
40
0.3036446
50
322.25666
51
323.087958
0
ARC
8
DEFAULT_255_1_388
10
9.4412285
20
70.5551332
40
0.3388345
50
323.6941379
51
343.8493587
0
ARC
8
DEFAULT_255_1_388
10
9.2636721
20
70.6091698
40
0.5244204
50
343.5746655
51
355.008149
0
ARC
8
DEFAULT_255_1_388
10
9.0378413
20
70.6325797
40
0.7514406
50
354.728272
51
0.1208026
0
ARC
8
DEFAULT_255_1_388
10
9.2367438
20
70.6377947
40
0.5525482
50
359.6235211
51
11.2016685
0
ARC
8
DEFAULT_255_1_388
10
9.4093265
20
70.6733284
40
0.3763527
50
10.9991302
51
30.8317616
0
ARC
8
DEFAULT_255_1_388
10
9.4538569
20
70.6967988
40
0.3260975
50
31.3007463
51
37.395541
0
ARC
8
DEFAULT_255_1_388
10
9.5097288
20
70.7439773
40
0.253082
50
36.5918894
51
62.2439906
0
ARC
8
DEFAULT_255_1_388
10
9.514958
20
70.7436378
40
0.2509927
50
63.3364883
51
89.7193846
0
ARC
8
DEFAULT_255_1_388
10
9.5101033
20
70.6788375
40
0.3158485
50
88.8962924
51
90.004475
0
ARC
8
DEFAULT_255_1_388
10
9.5065461
20
70.7441071
40
0.250604
50
89.1923115
51
114.7099029
0
ARC
8
DEFAULT_255_1_388
10
9.5097802
20
70.7483675
40
0.2481307
50
115.7996284
51
142.2901353
0
ARC
8
DEFAULT_255_1_388
10
9.5566073
20
70.7064752
40
0.310833
50
141.4607507
51
142.383894
0
ARC
8
DEFAULT_255_1_388
10
9.5713925
20
70.6996449
40
0.3267335
50
143.0176473
51
163.2340089
0
ARC
8
DEFAULT_255_1_388
10
9.7489213
20
70.6434553
40
0.5129308
50
162.9446504
51
174.3733893
0
ARC
8
DEFAULT_255_1_388
10
9.9903186
20
70.6163483
40
0.75583
50
174.1225809
51
180.1563667
0
LINE
8
DEFAULT_255_1_388
10
10.1254061
20
70.6206105
11
10.1254061
21
70.6332604
0
LINE
8
DEFAULT_255_1_388
10
10.783201
20
71.0145646
11
10.783201
21
71.524175
0
LINE
8
DEFAULT_255_1_388
10
10.783201
20
71.524175
11
10.9503604
21
71.524175
0
LINE
8
DEFAULT_255_1_388
10
10.9503604
20
71.524175
11
10.9503604
21
70.1363
0
LINE
8
DEFAULT_255_1_388
10
10.9503604
20
70.1363
11
10.7967544
21
70.1363
0
LINE
8
DEFAULT_255_1_388
10
10.7967544
20
70.1363
11
10.7886224
21
70.2411135
0
LINE
8
DEFAULT_255_1_388
10
10.783201
20
70.4028515
11
10.783201
21
70.851923
0
ARC
8
DEFAULT_255_1_388
10
10.8988754
20
70.6382084
40
0.7734851
50
169.1662656
51
180.3665225
0
ARC
8
DEFAULT_255_1_388
10
10.6517663
20
70.6874773
40
0.5215235
50
150.2837807
51
169.3798657
0
ARC
8
DEFAULT_255_1_388
10
10.5805114
20
70.7239124
40
0.4415937
50
142.1063912
51
149.8065902
0
ARC
8
DEFAULT_255_1_388
10
10.5161326
20
70.7799913
40
0.3563766
50
118.4282495
51
142.8642233
0
ARC
8
DEFAULT_255_1_388
10
10.5050338
20
70.7870109
40
0.3449797
50
89.9199141
51
117.3621403
0
ARC
8
DEFAULT_255_1_388
10
10.511219
20
70.6995171
40
0.4325108
50
89.9988001
51
90.7555106
0
ARC
8
DEFAULT_255_1_388
10
10.5154268
20
70.7282362
40
0.4038136
50
72.8979482
51
90.595751
0
ARC
8
DEFAULT_255_1_388
10
10.5376948
20
70.8086099
40
0.3204539
50
39.9932308
51
72.4773248
0
ARC
8
DEFAULT_255_1_388
10
10.5344039
20
70.4472007
40
0.3272598
50
275.0849466
51
320.9693562
0
ARC
8
DEFAULT_255_1_388
10
10.5102955
20
70.5897895
40
0.4715615
50
269.8937433
51
276.4672347
0
ARC
8
DEFAULT_255_1_388
10
10.5026495
20
70.447215
40
0.3290559
50
222.0839188
51
271.1791339
0
ARC
8
DEFAULT_255_1_388
10
10.5714004
20
70.5175998
40
0.4272982
50
217.5168262
51
222.9097935
0
ARC
8
DEFAULT_255_1_388
10
10.6268877
20
70.5557851
40
0.4945763
50
193.0962732
51
217.1109075
0
ARC
8
DEFAULT_255_1_388
10
10.8470607
20
70.6107252
40
0.7214806
50
181.1071959
51
193.3839643
0
ARC
8
DEFAULT_255_1_388
10
11.0354983
20
70.6204904
40
0.9100921
50
179.9924355
51
181.4926257
0
ARC
8
DEFAULT_255_1_388
10
10.942634
20
70.6107904
40
0.650078
50
179.6919448
51
188.655086
0
ARC
8
DEFAULT_255_1_388
10
10.7154397
20
70.5750086
40
0.420088
50
188.4934981
51
202.2188222
0
ARC
8
DEFAULT_255_1_388
10
10.6066204
20
70.5318888
40
0.3030458
50
202.4516374
51
215.9308342
0
ARC
8
DEFAULT_255_1_388
10
10.5399628
20
70.478769
40
0.2179351
50
214.9061987
51
264.2076983
0
ARC
8
DEFAULT_255_1_388
10
10.5505166
20
70.5459867
40
0.2858989
50
263.4629438
51
270.0938577
0
ARC
8
DEFAULT_255_1_388
10
10.55501
20
70.535673
40
0.2756141
50
269.1632216
51
291.0932257
0
ARC
8
DEFAULT_255_1_388
10
10.5642005
20
70.4983218
40
0.2375078
50
292.2675188
51
328.1937653
0
ARC
8
DEFAULT_255_1_388
10
10.4864663
20
70.5544245
40
0.3332054
50
327.040169
51
332.941918
0
ARC
8
DEFAULT_255_1_388
10
10.5328876
20
70.7206122
40
0.2826647
50
27.6808655
51
48.7895461
0
ARC
8
DEFAULT_255_1_388
10
10.5647512
20
70.7499738
40
0.2396281
50
49.8958562
51
87.0102063
0
ARC
8
DEFAULT_255_1_388
10
10.5530356
20
70.6613941
40
0.3287745
50
85.7763593
51
90.0424518
0
ARC
8
DEFAULT_255_1_388
10
10.5497423
20
70.7355766
40
0.25461
50
89.3136862
51
109.426258
0
ARC
8
DEFAULT_255_1_388
10
10.5413845
20
70.769891
40
0.2194978
50
110.3479382
51
145.1577921
0
ARC
8
DEFAULT_255_1_388
10
10.6149325
20
70.716319
40
0.3104736
50
144.7981654
51
162.8715843
0
ARC
8
DEFAULT_255_1_388
10
10.8055925
20
70.6550138
40
0.5107383
50
162.598526
51
173.3417416
0
ARC
8
DEFAULT_255_1_388
10
11.1057298
20
70.6177767
40
0.8131718
50
173.1877249
51
180.2459848
0
LINE
8
DEFAULT_255_1_388
10
11.8168787
20
70.1363
11
11.8132645
21
70.2329814
0
LINE
8
DEFAULT_255_1_388
10
11.2060691
20
70.4778474
11
11.2060691
21
71.1139567
0
LINE
8
DEFAULT_255_1_388
10
11.2060691
20
71.1139567
11
11.3732286
21
71.1139567
0
LINE
8
DEFAULT_255_1_388
10
11.3732286
20
71.1139567
11
11.3732286
21
70.4823652
0
LINE
8
DEFAULT_255_1_388
10
11.8087466
20
70.4028515
11
11.8087466
21
71.1139567
0
LINE
8
DEFAULT_255_1_388
10
11.8087466
20
71.1139567
11
11.9759061
21
71.1139567
0
LINE
8
DEFAULT_255_1_388
10
11.9759061
20
71.1139567
11
11.9759061
21
70.1363
0
LINE
8
DEFAULT_255_1_388
10
11.9759061
20
70.1363
11
11.8168787
21
70.1363
0
ARC
8
DEFAULT_255_1_388
10
11.5752683
20
70.4374675
40
0.3137782
50
282.5436457
51
319.3308483
0
ARC
8
DEFAULT_255_1_388
10
11.5317109
20
70.6069138
40
0.4886732
50
269.8919644
51
283.213949
0
ARC
8
DEFAULT_255_1_388
10
11.5268078
20
70.7473412
40
0.6291125
50
270.0024363
51
270.3626317
0
ARC
8
DEFAULT_255_1_388
10
11.5234056
20
70.5472026
40
0.4289875
50
257.7354503
51
270.4579702
0
ARC
8
DEFAULT_255_1_388
10
11.4899594
20
70.4010679
40
0.2790881
50
233.3385202
51
258.072161
0
ARC
8
DEFAULT_255_1_388
10
11.4748459
20
70.3763828
40
0.250276
50
221.9625878
51
232.7397557
0
ARC
8
DEFAULT_255_1_388
10
11.5063422
20
70.4005961
40
0.2899023
50
197.9449652
51
221.3587453
0
ARC
8
DEFAULT_255_1_388
10
11.6632927
20
70.4542197
40
0.4557469
50
185.8086112
51
198.2791204
0
ARC
8
DEFAULT_255_1_388
10
11.8761675
20
70.4795327
40
0.6701004
50
180.1441004
51
186.1197471
0
ARC
8
DEFAULT_255_1_388
10
11.7747353
20
70.4783589
40
0.4015267
50
179.428312
51
191.0738067
0
ARC
8
DEFAULT_255_1_388
10
11.5853535
20
70.439262
40
0.2081712
50
190.5250706
51
212.6989599
0
ARC
8
DEFAULT_255_1_388
10
11.5331303
20
70.4104416
40
0.1487075
50
214.2246262
51
264.4398306
0
ARC
8
DEFAULT_255_1_388
10
11.5530816
20
70.5127845
40
0.2526976
50
262.1851951
51
270.1949702
0
ARC
8
DEFAULT_255_1_388
10
11.557792
20
70.656346
40
0.3962764
50
269.4432626
51
282.9581304
0
ARC
8
DEFAULT_255_1_388
10
11.595672
20
70.5022077
40
0.2375807
50
282.3910141
51
311.9723859
0
ARC
8
DEFAULT_255_1_388
10
11.5965253
20
70.4940255
40
0.2309774
50
313.1724921
51
336.7508062
0
LINE
8
DEFAULT_255_1_388
10
12.8523636
20
70.4444155
11
13.0104874
21
70.4444155
0
LINE
8
DEFAULT_255_1_388
10
12.1864366
20
70.6160927
11
12.1864366
21
70.6441032
0
LINE
8
DEFAULT_255_1_388
10
13.0104874
20
70.7778308
11
12.8523636
21
70.7778308
0
LINE
8
DEFAULT_255_1_388
10
12.353596
20
70.6377783
11
12.353596
21
70.6061535
0
ARC
8
DEFAULT_255_1_388
10
12.6260193
20
70.4954109
40
0.2407783
50
269.0327343
51
309.2224588
0
ARC
8
DEFAULT_255_1_388
10
12.6496196
20
70.471219
40
0.207135
50
308.3965377
51
329.6987678
0
ARC
8
DEFAULT_255_1_388
10
12.6651255
20
70.4594899
40
0.1878439
50
330.4013397
51
355.3970937
0
ARC
8
DEFAULT_255_1_388
10
12.7165239
20
70.4614312
40
0.2944555
50
329.2357424
51
356.6872018
0
ARC
8
DEFAULT_255_1_388
10
12.6547134
20
70.4941153
40
0.3643032
50
324.8702872
51
329.7911998
0
ARC
8
DEFAULT_255_1_388
10
12.6458416
20
70.5017113
40
0.3759315
50
298.8769973
51
324.7015261
0
ARC
8
DEFAULT_255_1_388
10
12.608496
20
70.561229
40
0.4461015
50
296.902888
51
299.3854973
0
ARC
8
DEFAULT_255_1_388
10
12.6230957
20
70.5288595
40
0.4106323
50
269.8407861
51
297.1298875
0
ARC
8
DEFAULT_255_1_388
10
12.6170953
20
70.6006354
40
0.4824312
50
253.3156606
51
270.5771301
0
ARC
8
DEFAULT_255_1_388
10
12.5893131
20
70.5000943
40
0.3781531
50
221.1002518
51
252.9743523
0
ARC
8
DEFAULT_255_1_388
10
12.6410601
20
70.5445131
40
0.4463481
50
194.5394284
51
221.0302764
0
ARC
8
DEFAULT_255_1_388
10
12.8490422
20
70.6024897
40
0.6622359
50
182.0498004
51
194.8774376
0
ARC
8
DEFAULT_255_1_388
10
13.0483511
20
70.6157778
40
0.8619146
50
179.9790673
51
182.4586753
0
ARC
8
DEFAULT_255_1_388
10
12.8526825
20
70.6474412
40
0.6662543
50
168.615001
51
180.2870547
0
ARC
8
DEFAULT_255_1_388
10
12.7174734
20
70.6739636
40
0.5284705
50
154.9162417
51
168.5402053
0
ARC
8
DEFAULT_255_1_388
10
12.613801
20
70.7251942
40
0.4128641
50
133.5745308
51
155.2559538
0
ARC
8
DEFAULT_255_1_388
10
12.5954853
20
70.7408116
40
0.3889328
50
122.0165845
51
133.2056002
0
ARC
8
DEFAULT_255_1_388
10
12.5995177
20
70.7308977
40
0.3994808
50
97.8732516
51
121.753124
0
ARC
8
DEFAULT_255_1_388
10
12.6196635
20
70.611959
40
0.5200708
50
89.8471322
51
98.2768545
0
ARC
8
DEFAULT_255_1_388
10
12.6251483
20
70.6805809
40
0.4514657
50
73.3760755
51
90.5199878
0
ARC
8
DEFAULT_255_1_388
10
12.6472399
20
70.761855
40
0.3672743
50
47.7085939
51
73.0510707
0
ARC
8
DEFAULT_255_1_388
10
12.6618502
20
70.7745231
40
0.3480795
50
3.7442743
51
48.0844373
0
ARC
8
DEFAULT_255_1_388
10
12.5506496
20
70.7567946
40
0.4603187
50
2.6192831
51
5.0424684
0
ARC
8
DEFAULT_255_1_388
10
12.6021967
20
70.7612986
40
0.2507126
50
3.78087
51
23.9354314
0
ARC
8
DEFAULT_255_1_388
10
12.6279226
20
70.7703644
40
0.2235311
50
24.4867863
51
46.9439952
0
ARC
8
DEFAULT_255_1_388
10
12.6280172
20
70.7729874
40
0.2215567
50
46.4987715
51
89.3298168
0
ARC
8
DEFAULT_255_1_388
10
12.621083
20
70.7063742
40
0.2883121
50
88.1066411
51
90.0063536
0
ARC
8
DEFAULT_255_1_388
10
12.6179806
20
70.7121548
40
0.2825481
50
89.3773571
51
107.2070287
0
ARC
8
DEFAULT_255_1_388
10
12.6019075
20
70.7703667
40
0.2221946
50
107.688418
51
143.3582986
0
ARC
8
DEFAULT_255_1_388
10
12.6657369
20
70.7224064
40
0.3020337
50
143.2845866
51
162.9352432
0
ARC
8
DEFAULT_255_1_388
10
12.8351385
20
70.6680401
40
0.4799362
50
162.6652705
51
174.0802646
0
ARC
8
DEFAULT_255_1_388
10
13.0761866
20
70.6400287
40
0.7225942
50
173.8422673
51
180.1784414
0
ARC
8
DEFAULT_255_1_388
10
13.0145536
20
70.6027276
40
0.6609665
50
179.7030218
51
188.2277356
0
ARC
8
DEFAULT_255_1_388
10
12.7781144
20
70.5673143
40
0.4218948
50
188.0630838
51
201.115837
0
ARC
8
DEFAULT_255_1_388
10
12.6546029
20
70.520173
40
0.2896941
50
201.2186162
51
216.9761863
0
ARC
8
DEFAULT_255_1_388
10
12.6038186
20
70.4821225
40
0.2262366
50
217.0136373
51
265.2055518
0
ARC
8
DEFAULT_255_1_388
10
12.6213523
20
70.5858503
40
0.3311837
50
263.6824874
51
270.1042034
0
LINE
8
DEFAULT_255_1_388
10
13.258064
20
71.3506906
11
13.4252234
21
71.3506906
0
LINE
8
DEFAULT_255_1_388
10
13.4252234
20
71.3506906
11
13.4252234
21
71.1139567
0
LINE
8
DEFAULT_255_1_388
10
13.4252234
20
71.1139567
11
13.6077435
21
71.1139567
0
LINE
8
DEFAULT_255_1_388
10
13.6077435
20
71.1139567
11
13.6077435
21
70.984747
0
LINE
8
DEFAULT_255_1_388
10
13.6077435
20
70.984747
11
13.4252234
21
70.984747
0
LINE
8
DEFAULT_255_1_388
10
13.4252234
20
70.984747
11
13.4252234
21
70.3784553
0
LINE
8
DEFAULT_255_1_388
10
13.6122613
20
70.2718347
11
13.6122613
21
70.1363
0
LINE
8
DEFAULT_255_1_388
10
13.258064
20
70.3784553
11
13.258064
21
70.984747
0
LINE
8
DEFAULT_255_1_388
10
13.258064
20
70.984747
11
13.0800618
21
70.984747
0
LINE
8
DEFAULT_255_1_388
10
13.0800618
20
70.984747
11
13.0800618
21
71.1139567
0
LINE
8
DEFAULT_255_1_388
10
13.0800618
20
71.1139567
11
13.258064
21
71.1139567
0
LINE
8
DEFAULT_255_1_388
10
13.258064
20
71.1139567
11
13.258064
21
71.3506906
0
ARC
8
DEFAULT_255_1_388
10
13.6510742
20
70.3772842
40
0.2258538
50
179.7029045
51
187.9180047
0
ARC
8
DEFAULT_255_1_388
10
13.5671316
20
70.3652019
40
0.1410477
50
187.7540838
51
200.2454047
0
ARC
8
DEFAULT_255_1_388
10
13.5198221
20
70.3475591
40
0.0905561
50
200.1304287
51
219.1733455
0
ARC
8
DEFAULT_255_1_388
10
13.5045388
20
70.3371695
40
0.0721626
50
220.4434631
51
249.6169985
0
ARC
8
DEFAULT_255_1_388
10
13.5219614
20
70.3809919
40
0.1193141
50
249.1038184
51
262.7745376
0
ARC
8
DEFAULT_255_1_388
10
13.5318796
20
70.4517481
40
0.1907583
50
262.4921618
51
270.2607019
0
ARC
8
DEFAULT_255_1_388
10
13.5315878
20
70.4759817
40
0.2149929
50
270.309081
51
275.6615459
0
ARC
8
DEFAULT_255_1_388
10
13.5155286
20
70.6448342
40
0.3846066
50
275.5607354
51
279.087751
0
ARC
8
DEFAULT_255_1_388
10
13.4783218
20
70.8809428
40
0.6236283
50
279.0369545
51
281.5000133
0
ARC
8
DEFAULT_255_1_388
10
13.4392486
20
71.0786499
40
0.825157
50
281.4217093
51
282.1031556
0
ARC
8
DEFAULT_255_1_388
10
13.4768461
20
70.6243229
40
0.5064619
50
275.2597791
51
285.5081125
0
ARC
8
DEFAULT_255_1_388
10
13.4837475
20
70.5617452
40
0.4435166
50
270.0268175
51
275.1130565
0
ARC
8
DEFAULT_255_1_388
10
13.4814927
20
70.4124367
40
0.2942182
50
257.3572424
51
270.4795428
0
ARC
8
DEFAULT_255_1_388
10
13.4575197
20
70.3113952
40
0.1903838
50
230.8036715
51
257.7414447
0
ARC
8
DEFAULT_255_1_388
10
13.4498693
20
70.2990723
40
0.1760087
50
219.9745381
51
230.1985446
0
ARC
8
DEFAULT_255_1_388
10
13.487198
20
70.3276116
40
0.2229598
50
196.5081334
51
219.4319996
0
ARC
8
DEFAULT_255_1_388
10
13.6014592
20
70.3634617
40
0.3427033
50
184.6408645
51
196.8266009
0
ARC
8
DEFAULT_255_1_388
10
13.7415497
20
70.377601
40
0.4834863
50
179.8987586
51
184.9677262
0
LINE
8
DEFAULT_255_1_388
10
13.9845298
20
71.1139567
11
13.9845298
21
70.1363
0
LINE
8
DEFAULT_255_1_388
10
13.9845298
20
70.1363
11
13.8173704
21
70.1363
0
LINE
8
DEFAULT_255_1_388
10
13.8173704
20
70.1363
11
13.8173704
21
71.1139567
0
LINE
8
DEFAULT_255_1_388
10
13.8173704
20
71.1139567
11
13.9845298
21
71.1139567
0
ARC
8
DEFAULT_255_1_388
10
13.9139066
20
71.3743428
40
0.1100948
50
161.4148232
51
180.5532607
0
ARC
8
DEFAULT_255_1_388
10
13.8999376
20
71.3781875
40
0.0956324
50
138.1830164
51
160.9307633
0
ARC
8
DEFAULT_255_1_388
10
13.8875563
20
71.3889313
40
0.0792417
50
104.6371663
51
138.0036136
0
ARC
8
DEFAULT_255_1_388
10
13.8996102
20
71.3476963
40
0.1221906
50
92.0601206
51
105.2198859
0
ARC
8
DEFAULT_255_1_388
10
13.9022466
20
71.3088583
40
0.161103
50
89.9790681
51
92.5006086
0
ARC
8
DEFAULT_255_1_388
10
13.9033642
20
71.3344998
40
0.1354654
50
78.0234649
51
90.4478111
0
ARC
8
DEFAULT_255_1_388
10
13.9137227
20
71.3810203
40
0.0878096
50
55.0521508
51
78.336297
0
ARC
8
DEFAULT_255_1_388
10
13.9193761
20
71.3905168
40
0.0767913
50
42.0506198
51
54.4508489
0
ARC
8
DEFAULT_255_1_388
10
13.9041794
20
71.3765821
40
0.0974091
50
1.7493657
51
42.1498724
0
ARC
8
DEFAULT_255_1_388
10
13.87557
20
71.3733166
40
0.1261276
50
359.9832635
51
2.8353994
0
ARC
8
DEFAULT_255_1_388
10
13.8942109
20
71.3722412
40
0.1074916
50
342.1062453
51
0.5535864
0
ARC
8
DEFAULT_255_1_388
10
13.9102534
20
71.3678197
40
0.0908695
50
316.7110111
51
341.6513114
0
ARC
8
DEFAULT_255_1_388
10
13.9177966
20
71.3610607
40
0.0807447
50
285.4398289
51
316.5320129
0
ARC
8
DEFAULT_255_1_388
10
13.9054136
20
71.4022023
40
0.1237022
50
272.3543902
51
285.8951677
0
ARC
8
DEFAULT_255_1_388
10
13.9023846
20
71.4437742
40
0.1653687
50
269.9725761
51
272.8112722
0
ARC
8
DEFAULT_255_1_388
10
13.9012898
20
71.4186727
40
0.1402709
50
258.8433431
51
270.4148607
0
ARC
8
DEFAULT_255_1_388
10
13.8911678
20
71.3696739
40
0.0902407
50
238.54281
51
259.1289544
0
ARC
8
DEFAULT_255_1_388
10
13.8835
20
71.3557694
40
0.0743817
50
222.5056676
51
237.9918132
0
ARC
8
DEFAULT_255_1_388
10
13.8978593
20
71.3688295
40
0.0937918
50
184.1070774
51
222.4604165
0
ARC
8
DEFAULT_255_1_388
10
13.9281007
20
71.3731538
40
0.1242838
50
179.9419581
51
185.0970785
0
LINE
8
DEFAULT_255_1_388
10
14.3260772
20
71.1139567
11
14.5745574
21
70.3630947
0
LINE
8
DEFAULT_255_1_388
10
14.5745574
20
70.3630947
11
14.8167127
21
71.1139567
0
LINE
8
DEFAULT_255_1_388
10
14.8167127
20
71.1139567
11
14.9874864
21
71.1139567
0
LINE
8
DEFAULT_255_1_388
10
14.9874864
20
71.1139567
11
14.6369034
21
70.1363
0
LINE
8
DEFAULT_255_1_388
10
14.6369034
20
70.1363
11
14.5095008
21
70.1363
0
LINE
8
DEFAULT_255_1_388
10
14.5095008
20
70.1363
11
14.1553035
21
71.1139567
0
LINE
8
DEFAULT_255_1_388
10
14.1553035
20
71.1139567
11
14.3260772
21
71.1139567
0
LINE
8
DEFAULT_255_1_388
10
15.3299373
20
71.1139567
11
15.3299373
21
70.1363
0
LINE
8
DEFAULT_255_1_388
10
15.3299373
20
70.1363
11
15.1627779
21
70.1363
0
LINE
8
DEFAULT_255_1_388
10
15.1627779
20
70.1363
11
15.1627779
21
71.1139567
0
LINE
8
DEFAULT_255_1_388
10
15.1627779
20
71.1139567
11
15.3299373
21
71.1139567
0
ARC
8
DEFAULT_255_1_388
10
15.2593141
20
71.3743428
40
0.1100948
50
161.4148232
51
180.5532607
0
ARC
8
DEFAULT_255_1_388
10
15.2453451
20
71.3781875
40
0.0956324
50
138.1830164
51
160.9307633
0
ARC
8
DEFAULT_255_1_388
10
15.2329638
20
71.3889313
40
0.0792417
50
104.6371663
51
138.0036136
0
ARC
8
DEFAULT_255_1_388
10
15.2450177
20
71.3476963
40
0.1221906
50
92.0601206
51
105.2198859
0
ARC
8
DEFAULT_255_1_388
10
15.2476541
20
71.3088583
40
0.161103
50
89.9790681
51
92.5006086
0
ARC
8
DEFAULT_255_1_388
10
15.2487717
20
71.3344998
40
0.1354654
50
78.0234649
51
90.4478111
0
ARC
8
DEFAULT_255_1_388
10
15.2591301
20
71.3810203
40
0.0878096
50
55.0521508
51
78.336297
0
ARC
8
DEFAULT_255_1_388
10
15.2647836
20
71.3905168
40
0.0767913
50
42.0506198
51
54.4508489
0
ARC
8
DEFAULT_255_1_388
10
15.2495869
20
71.3765821
40
0.0974091
50
1.7493657
51
42.1498724
0
ARC
8
DEFAULT_255_1_388
10
15.2209774
20
71.3733166
40
0.1261276
50
359.9832635
51
2.8353994
0
ARC
8
DEFAULT_255_1_388
10
15.2396184
20
71.3722412
40
0.1074916
50
342.1062453
51
0.5535864
0
ARC
8
DEFAULT_255_1_388
10
15.2556608
20
71.3678197
40
0.0908695
50
316.7110111
51
341.6513114
0
ARC
8
DEFAULT_255_1_388
10
15.263204
20
71.3610607
40
0.0807447
50
285.4398289
51
316.5320129
0
ARC
8
DEFAULT_255_1_388
10
15.2508211
20
71.4022023
40
0.1237022
50
272.3543902
51
285.8951677
0
ARC
8
DEFAULT_255_1_388
10
15.2477921
20
71.4437742
40
0.1653687
50
269.9725761
51
272.8112722
0
ARC
8
DEFAULT_255_1_388
10
15.2466973
20
71.4186727
40
0.1402709
50
258.8433431
51
270.4148607
0
ARC
8
DEFAULT_255_1_388
10
15.2365753
20
71.3696739
40
0.0902407
50
238.54281
51
259.1289544
0
ARC
8
DEFAULT_255_1_388
10
15.2289074
20
71.3557694
40
0.0743817
50
222.5056676
51
237.9918132
0
ARC
8
DEFAULT_255_1_388
10
15.2432668
20
71.3688295
40
0.0937918
50
184.1070774
51
222.4604165
0
ARC
8
DEFAULT_255_1_388
10
15.2735081
20
71.3731538
40
0.1242838
50
179.9419581
51
185.0970785
0
LINE
8
DEFAULT_255_1_388
10
15.6570276
20
71.3506906
11
15.8241871
21
71.3506906
0
LINE
8
DEFAULT_255_1_388
10
15.8241871
20
71.3506906
11
15.8241871
21
71.1139567
0
LINE
8
DEFAULT_255_1_388
10
15.8241871
20
71.1139567
11
16.0067071
21
71.1139567
0
LINE
8
DEFAULT_255_1_388
10
16.0067071
20
71.1139567
11
16.0067071
21
70.984747
0
LINE
8
DEFAULT_255_1_388
10
16.0067071
20
70.984747
11
15.8241871
21
70.984747
0
LINE
8
DEFAULT_255_1_388
10
15.8241871
20
70.984747
11
15.8241871
21
70.3784553
0
LINE
8
DEFAULT_255_1_388
10
16.0112249
20
70.2718347
11
16.0112249
21
70.1363
0
LINE
8
DEFAULT_255_1_388
10
15.6570276
20
70.3784553
11
15.6570276
21
70.984747
0
LINE
8
DEFAULT_255_1_388
10
15.6570276
20
70.984747
11
15.4790254
21
70.984747
0
LINE
8
DEFAULT_255_1_388
10
15.4790254
20
70.984747
11
15.4790254
21
71.1139567
0
LINE
8
DEFAULT_255_1_388
10
15.4790254
20
71.1139567
11
15.6570276
21
71.1139567
0
LINE
8
DEFAULT_255_1_388
10
15.6570276
20
71.1139567
11
15.6570276
21
71.3506906
0
ARC
8
DEFAULT_255_1_388
10
16.0500378
20
70.3772842
40
0.2258538
50
179.7029045
51
187.9180047
0
ARC
8
DEFAULT_255_1_388
10
15.9660952
20
70.3652019
40
0.1410477
50
187.7540838
51
200.2454047
0
ARC
8
DEFAULT_255_1_388
10
15.9187858
20
70.3475591
40
0.0905561
50
200.1304287
51
219.1733455
0
ARC
8
DEFAULT_255_1_388
10
15.9035024
20
70.3371695
40
0.0721626
50
220.4434631
51
249.6169985
0
ARC
8
DEFAULT_255_1_388
10
15.9209251
20
70.3809919
40
0.1193141
50
249.1038184
51
262.7745376
0
ARC
8
DEFAULT_255_1_388
10
15.9308433
20
70.4517481
40
0.1907583
50
262.4921618
51
270.2607019
0
ARC
8
DEFAULT_255_1_388
10
15.9305515
20
70.4759817
40
0.2149929
50
270.309081
51
275.6615459
0
ARC
8
DEFAULT_255_1_388
10
15.9144922
20
70.6448342
40
0.3846066
50
275.5607354
51
279.087751
0
ARC
8
DEFAULT_255_1_388
10
15.8772854
20
70.8809428
40
0.6236283
50
279.0369545
51
281.5000133
0
ARC
8
DEFAULT_255_1_388
10
15.8382122
20
71.0786499
40
0.825157
50
281.4217093
51
282.1031556
0
ARC
8
DEFAULT_255_1_388
10
15.8758098
20
70.6243229
40
0.5064619
50
275.2597791
51
285.5081125
0
ARC
8
DEFAULT_255_1_388
10
15.8827112
20
70.5617452
40
0.4435166
50
270.0268175
51
275.1130565
0
ARC
8
DEFAULT_255_1_388
10
15.8804563
20
70.4124367
40
0.2942182
50
257.3572424
51
270.4795428
0
ARC
8
DEFAULT_255_1_388
10
15.8564833
20
70.3113952
40
0.1903838
50
230.8036715
51
257.7414447
0
ARC
8
DEFAULT_255_1_388
10
15.8488329
20
70.2990723
40
0.1760087
50
219.9745381
51
230.1985446
0
ARC
8
DEFAULT_255_1_388
10
15.8861617
20
70.3276116
40
0.2229598
50
196.5081334
51
219.4319996
0
ARC
8
DEFAULT_255_1_388
10
16.0004228
20
70.3634617
40
0.3427033
50
184.6408645
51
196.8266009
0
ARC
8
DEFAULT_255_1_388
10
16.1405134
20
70.377601
40
0.4834863
50
179.8987586
51
184.9677262
0
LINE
8
DEFAULT_255_1_388
10
16.2777764
20
71.1139567
11
16.5217388
21
70.381166
0
LINE
8
DEFAULT_255_1_388
10
16.5217388
20
70.381166
11
16.7494371
21
71.1139567
0
LINE
8
DEFAULT_255_1_388
10
16.7494371
20
71.1139567
11
16.9283428
21
71.1139567
0
LINE
8
DEFAULT_255_1_388
10
16.9283428
20
71.1139567
11
16.5352923
21
69.9854047
0
LINE
8
DEFAULT_255_1_388
10
16.2452481
20
69.7414423
11
16.2136233
21
69.744153
0
LINE
8
DEFAULT_255_1_388
10
16.2136233
20
69.744153
11
16.1512774
21
69.7558994
0
LINE
8
DEFAULT_255_1_388
10
16.1512774
20
69.7558994
11
16.1512774
21
69.891434
0
LINE
8
DEFAULT_255_1_388
10
16.1512774
20
69.891434
11
16.1964556
21
69.8878198
0
LINE
8
DEFAULT_255_1_388
10
16.4069861
20
70.0477507
11
16.4440323
21
70.1471428
0
LINE
8
DEFAULT_255_1_388
10
16.4440323
20
70.1471428
11
16.0952564
21
71.1139567
0
LINE
8
DEFAULT_255_1_388
10
16.0952564
20
71.1139567
11
16.2777764
21
71.1139567
0
ARC
8
DEFAULT_255_1_388
10
16.0138998
20
70.1749303
40
0.5547703
50
327.7224407
51
340.0238521
0
ARC
8
DEFAULT_255_1_388
10
16.2110157
20
70.0476231
40
0.3201385
50
305.2165641
51
328.1467003
0
ARC
8
DEFAULT_255_1_388
10
16.2498379
20
70.0016258
40
0.260224
50
268.9893726
51
304.0733864
0
ARC
8
DEFAULT_255_1_388
10
16.1981137
20
70.2292952
40
0.3414794
50
269.7217889
51
278.0406077
0
ARC
8
DEFAULT_255_1_388
10
16.215639
20
70.1100724
40
0.2209783
50
277.8651481
51
290.8634591
0
ARC
8
DEFAULT_255_1_388
10
16.2390371
20
70.0475914
40
0.1542617
50
291.0076566
51
305.5961613
0
ARC
8
DEFAULT_255_1_388
10
16.2369246
20
70.0458164
40
0.1540723
50
306.6192176
51
324.1022951
0
ARC
8
DEFAULT_255_1_388
10
16.1528896
20
70.1081842
40
0.2587177
50
323.8256989
51
334.2991437
0
ARC
8
DEFAULT_255_1_388
10
16.0129584
20
70.1769118
40
0.4146127
50
334.1272297
51
340.8153479
0
ARC
8
DEFAULT_255_1_388
10
15.9070103
20
70.2160101
40
0.5275293
50
340.5860638
51
341.400105
0
LINE
8
DEFAULT_255_1_388
10
17.9222637
20
70.2727382
11
17.9222637
21
70.1363
0
LINE
8
DEFAULT_255_1_388
10
17.9222637
20
70.1363
11
17.0602632
21
70.1363
0
LINE
8
DEFAULT_255_1_388
10
17.0602632
20
70.1363
11
17.0602632
21
70.2564741
0
LINE
8
DEFAULT_255_1_388
10
17.0602632
20
70.2564741
11
17.5156597
21
70.7624702
0
LINE
8
DEFAULT_255_1_388
10
17.2021229
20
71.0642607
11
17.0349634
21
71.0642607
0
LINE
8
DEFAULT_255_1_388
10
17.6141482
20
70.654946
11
17.2617581
21
70.2727382
0
LINE
8
DEFAULT_255_1_388
10
17.2617581
20
70.2727382
11
17.9222637
21
70.2727382
0
ARC
8
DEFAULT_255_1_388
10
15.9980657
20
72.1044983
40
2.0258655
50
318.5132526
51
320.7829045
0
ARC
8
DEFAULT_255_1_388
10
16.5928614
20
71.6203929
40
1.2589638
50
320.7372878
51
323.9739031
0
ARC
8
DEFAULT_255_1_388
10
17.0337545
20
71.3009554
40
0.7145141
50
323.8962701
51
328.64194
0
ARC
8
DEFAULT_255_1_388
10
17.2639803
20
71.1589545
40
0.4440242
50
328.8294576
51
331.7891185
0
ARC
8
DEFAULT_255_1_388
10
17.3762123
20
71.1010374
40
0.3177517
50
331.4254512
51
352.9365785
0
ARC
8
DEFAULT_255_1_388
10
17.3915123
20
71.097605
40
0.3021496
50
353.2257659
51
0.0166158
0
ARC
8
DEFAULT_255_1_388
10
17.4151884
20
71.1001894
40
0.2784847
50
359.486299
51
15.9343185
0
ARC
8
DEFAULT_255_1_388
10
17.472215
20
71.1155269
40
0.2194403
50
16.1712913
51
43.5286088
0
ARC
8
DEFAULT_255_1_388
10
17.4809095
20
71.1242191
40
0.2071504
50
43.4417391
51
83.1661095
0
ARC
8
DEFAULT_255_1_388
10
17.4658256
20
71.0413316
40
0.2912888
50
82.160179
51
90.1505708
0
ARC
8
DEFAULT_255_1_388
10
17.4622738
20
70.9809279
40
0.3517025
50
89.5460741
51
102.5418361
0
ARC
8
DEFAULT_255_1_388
10
17.4349458
20
71.0968933
40
0.2325748
50
102.1738499
51
129.206123
0
ARC
8
DEFAULT_255_1_388
10
17.4260911
20
71.1108664
40
0.2161591
50
129.72865
51
135.753947
0
ARC
8
DEFAULT_255_1_388
10
17.4397393
20
71.0999728
40
0.2335433
50
136.1757367
51
166.3673339
0
ARC
8
DEFAULT_255_1_388
10
17.5530082
20
71.0696148
40
0.3507873
50
165.9090694
51
178.8684636
0
ARC
8
DEFAULT_255_1_388
10
17.6505853
20
71.0643263
40
0.4484624
50
178.4391136
51
180.0083808
0
ARC
8
DEFAULT_255_1_388
10
17.4926555
20
71.0687197
40
0.4577138
50
163.2878482
51
180.5581842
0
ARC
8
DEFAULT_255_1_388
10
17.4024596
20
71.0935393
40
0.3641968
50
133.4540601
51
162.947111
0
ARC
8
DEFAULT_255_1_388
10
17.4225478
20
71.0721789
40
0.3935189
50
100.7869829
51
133.4382499
0
ARC
8
DEFAULT_255_1_388
10
17.4616723
20
70.8979399
40
0.5720313
50
89.660664
51
101.3702276
0
ARC
8
DEFAULT_255_1_388
10
17.4691331
20
70.9048263
40
0.5651495
50
78.2172678
51
90.412935
0
ARC
8
DEFAULT_255_1_388
10
17.5090797
20
71.0875511
40
0.378122
50
55.9269121
51
78.4888449
0
ARC
8
DEFAULT_255_1_388
10
17.5311512
20
71.1256187
40
0.3342379
50
47.929771
51
55.4049217
0
ARC
8
DEFAULT_255_1_388
10
17.5426043
20
71.1372618
40
0.3179217
50
4.334829
51
48.0560205
0
ARC
8
DEFAULT_255_1_388
10
17.4193844
20
71.1181487
40
0.442341
50
359.9251713
51
5.5971671
0
ARC
8
DEFAULT_255_1_388
10
17.4675999
20
71.1244728
40
0.3941854
50
337.8914027
51
358.9967534
0
ARC
8
DEFAULT_255_1_388
10
17.1623569
20
71.2422295
40
0.7213271
50
326.9132501
51
338.3508308
0
ARC
8
DEFAULT_255_1_388
10
16.7139681
20
71.5296105
40
1.2538973
50
319.6471833
51
327.0959558
0
ARC
8
DEFAULT_255_1_388
10
16.2826339
20
71.885405
40
1.8129975
50
317.2588228
51
319.9045804
0
LINE
8
DEFAULT_255_1_388
10
18.9243167
20
70.914269
11
18.9243167
21
70.6974135
0
LINE
8
DEFAULT_255_1_388
10
18.093941
20
70.6748244
11
18.093941
21
70.8980048
0
LINE
8
DEFAULT_255_1_388
10
18.7571573
20
70.6522353
11
18.7571573
21
70.9260153
0
LINE
8
DEFAULT_255_1_388
10
18.2611004
20
70.9386652
11
18.2611004
21
70.6712102
0
ARC
8
DEFAULT_255_1_388
10
17.5465501
20
70.6919118
40
1.3777776
50
353.8440855
51
0.2287917
0
ARC
8
DEFAULT_255_1_388
10
18.0684518
20
70.6336414
40
0.852639
50
344.4934746
51
353.9763743
0
ARC
8
DEFAULT_255_1_388
10
18.4051326
20
70.5379191
40
0.5026273
50
329.2803599
51
344.7473406
0
ARC
8
DEFAULT_255_1_388
10
18.5166821
20
70.4767038
40
0.3754848
50
324.9361395
51
328.6153007
0
ARC
8
DEFAULT_255_1_388
10
18.5592471
20
70.4469586
40
0.3235566
50
280.5801797
51
324.9173226
0
ARC
8
DEFAULT_255_1_388
10
18.51411
20
70.6349236
40
0.5167077
50
269.5979457
51
281.6732777
0
ARC
8
DEFAULT_255_1_388
10
18.5060003
20
70.6214113
40
0.5032026
50
256.6228565
51
270.5105488
0
ARC
8
DEFAULT_255_1_388
10
18.4607746
20
70.4472345
40
0.3233092
50
215.8618351
51
257.2787793
0
ARC
8
DEFAULT_255_1_388
10
18.5756453
20
70.5243106
40
0.4615831
50
197.9695203
51
215.2622745
0
ARC
8
DEFAULT_255_1_388
10
18.8552129
20
70.6186641
40
0.7566307
50
187.8816486
51
198.2346584
0
ARC
8
DEFAULT_255_1_388
10
19.3005367
20
70.6829453
40
1.2065653
50
180.8977266
51
188.0054894
0
ARC
8
DEFAULT_255_1_388
10
19.6055581
20
70.69444
40
1.5117443
50
180.7434591
51
181.152202
0
ARC
8
DEFAULT_255_1_388
10
19.4380576
20
70.9034371
40
1.3441277
50
173.7674302
51
180.2315596
0
ARC
8
DEFAULT_255_1_388
10
18.9298445
20
70.9608779
40
0.8326847
50
164.3058537
51
173.9000553
0
ARC
8
DEFAULT_255_1_388
10
18.6022445
20
71.0552652
40
0.4917711
50
148.7922028
51
164.5682288
0
ARC
8
DEFAULT_255_1_388
10
18.4953183
20
71.1149457
40
0.3694204
50
144.5883979
51
148.1161588
0
ARC
8
DEFAULT_255_1_388
10
18.4565928
20
71.1419667
40
0.322202
50
101.6440149
51
144.5142619
0
ARC
8
DEFAULT_255_1_388
10
18.504412
20
70.9519337
40
0.5180451
50
89.528284
51
102.5820197
0
ARC
8
DEFAULT_255_1_388
10
18.5133112
20
70.9475376
40
0.5224441
50
77.0437914
51
90.508231
0
ARC
8
DEFAULT_255_1_388
10
18.5585366
20
71.1323272
40
0.3322297
50
48.2777708
51
77.4996087
0
ARC
8
DEFAULT_255_1_388
10
18.5667106
20
71.1468557
40
0.315966
50
36.3141586
51
47.6307332
0
ARC
8
DEFAULT_255_1_388
10
18.4689828
20
71.0810159
40
0.4337313
50
18.2931065
51
35.6770203
0
ARC
8
DEFAULT_255_1_388
10
18.1828669
20
70.9828107
40
0.7362203
50
8.0246996
51
18.5605636
0
ARC
8
DEFAULT_255_1_388
10
17.7145024
20
70.9136432
40
1.2096583
50
1.127539
51
8.1718423
0
ARC
8
DEFAULT_255_1_388
10
17.3496158
20
70.8993374
40
1.5747719
50
0.5432713
51
1.38669
0
ARC
8
DEFAULT_255_1_388
10
17.5553537
20
70.9300163
40
1.2018103
50
359.8092569
51
4.9408001
0
ARC
8
DEFAULT_255_1_388
10
18.0290118
20
70.97229
40
0.7262727
50
4.8364937
51
12.2906017
0
ARC
8
DEFAULT_255_1_388
10
18.3389583
20
71.0413485
40
0.4087324
50
12.0806994
51
23.8171225
0
ARC
8
DEFAULT_255_1_388
10
18.4709979
20
71.0972508
40
0.2653719
50
24.2874621
51
31.3934353
0
ARC
8
DEFAULT_255_1_388
10
18.5300415
20
71.1358822
40
0.1948607
50
30.7407708
51
82.4658033
0
ARC
8
DEFAULT_255_1_388
10
18.5098075
20
71.0365017
40
0.2961198
50
81.1057101
51
90.2187368
0
ARC
8
DEFAULT_255_1_388
10
18.5057887
20
71.0655421
40
0.2670929
50
89.380395
51
105.6763916
0
ARC
8
DEFAULT_255_1_388
10
18.4851609
20
71.140532
40
0.1893189
50
105.7980655
51
149.7387869
0
ARC
8
DEFAULT_255_1_388
10
18.6048749
20
71.0685719
40
0.3289892
50
149.4208441
51
163.628295
0
ARC
8
DEFAULT_255_1_388
10
18.8400979
20
70.9968345
40
0.5749004
50
163.3764549
51
172.141138
0
ARC
8
DEFAULT_255_1_388
10
19.21137
20
70.9436582
40
0.9499585
50
172.0258462
51
178.0705453
0
ARC
8
DEFAULT_255_1_388
10
19.5535253
20
70.9274682
40
1.2924734
50
177.8639301
51
179.5036263
0
ARC
8
DEFAULT_255_1_388
10
19.4316272
20
70.6671151
40
1.170534
50
179.7995545
51
185.246089
0
ARC
8
DEFAULT_255_1_388
10
18.9767865
20
70.6240404
40
0.7136613
50
185.1411911
51
193.0082205
0
ARC
8
DEFAULT_255_1_388
10
18.6794126
20
70.5537441
40
0.4080987
50
192.7897338
51
205.2507384
0
ARC
8
DEFAULT_255_1_388
10
18.5616336
20
70.5011538
40
0.2791522
50
205.8001921
51
211.2545876
0
ARC
8
DEFAULT_255_1_388
10
18.5027875
20
70.4617132
40
0.2084074
50
210.3789935
51
238.4007996
0
ARC
8
DEFAULT_255_1_388
10
18.5005961
20
70.4669786
40
0.2117943
50
239.6521916
51
265.9793852
0
ARC
8
DEFAULT_255_1_388
10
18.510181
20
70.5426358
40
0.2879689
50
265.1324455
51
270.0603288
0
ARC
8
DEFAULT_255_1_388
10
18.5134187
20
70.5061418
40
0.2514919
50
269.3314378
51
287.2180039
0
ARC
8
DEFAULT_255_1_388
10
18.5289269
20
70.4495291
40
0.1928357
50
287.7957942
51
329.0808983
0
ARC
8
DEFAULT_255_1_388
10
18.4212026
20
70.5167651
40
0.319808
50
328.6635261
51
343.3325043
0
ARC
8
DEFAULT_255_1_388
10
18.1767485
20
70.5929195
40
0.5758408
50
343.0498092
51
351.9392499
0
ARC
8
DEFAULT_255_1_388
10
17.7866806
20
70.6504205
40
0.9701202
50
351.8071632
51
357.7957897
0
ARC
8
DEFAULT_255_1_388
10
17.4232283
20
70.6692724
40
1.3340376
50
357.5870923
51
359.2682493
0
LINE
8
DEFAULT_255_1_388
10
19.9634158
20
70.914269
11
19.9634158
21
70.6974135
0
LINE
8
DEFAULT_255_1_388
10
19.1330401
20
70.6748244
11
19.1330401
21
70.8980048
0
LINE
8
DEFAULT_255_1_388
10
19.7962564
20
70.6522353
11
19.7962564
21
70.9260153
0
LINE
8
DEFAULT_255_1_388
10
19.3001995
20
70.9386652
11
19.3001995
21
70.6712102
0
ARC
8
DEFAULT_255_1_388
10
18.5856492
20
70.6919118
40
1.3777776
50
353.8440855
51
0.2287917
0
ARC
8
DEFAULT_255_1_388
10
19.107551
20
70.6336414
40
0.852639
50
344.4934746
51
353.9763743
0
ARC
8
DEFAULT_255_1_388
10
19.4442317
20
70.5379191
40
0.5026273
50
329.2803599
51
344.7473406
0
ARC
8
DEFAULT_255_1_388
10
19.5557812
20
70.4767038
40
0.3754848
50
324.9361395
51
328.6153007
0
ARC
8
DEFAULT_255_1_388
10
19.5983462
20
70.4469586
40
0.3235566
50
280.5801797
51
324.9173226
0
ARC
8
DEFAULT_255_1_388
10
19.5532091
20
70.6349236
40
0.5167077
50
269.5979457
51
281.6732777
0
ARC
8
DEFAULT_255_1_388
10
19.5450994
20
70.6214113
40
0.5032026
50
256.6228565
51
270.5105488
0
ARC
8
DEFAULT_255_1_388
10
19.4998737
20
70.4472345
40
0.3233092
50
215.8618351
51
257.2787793
0
ARC
8
DEFAULT_255_1_388
10
19.6147444
20
70.5243106
40
0.4615831
50
197.9695203
51
215.2622745
0
ARC
8
DEFAULT_255_1_388
10
19.894312
20
70.6186641
40
0.7566307
50
187.8816486
51
198.2346584
0
ARC
8
DEFAULT_255_1_388
10
20.3396358
20
70.6829453
40
1.2065653
50
180.8977266
51
188.0054894
0
ARC
8
DEFAULT_255_1_388
10
20.6446572
20
70.69444
40
1.5117443
50
180.7434591
51
181.152202
0
ARC
8
DEFAULT_255_1_388
10
20.4771568
20
70.9034371
40
1.3441277
50
173.7674302
51
180.2315596
0
ARC
8
DEFAULT_255_1_388
10
19.9689437
20
70.9608779
40
0.8326847
50
164.3058537
51
173.9000553
0
ARC
8
DEFAULT_255_1_388
10
19.6413437
20
71.0552652
40
0.4917711
50
148.7922028
51
164.5682288
0
ARC
8
DEFAULT_255_1_388
10
19.5344174
20
71.1149457
40
0.3694204
50
144.5883979
51
148.1161588
0
ARC
8
DEFAULT_255_1_388
10
19.4956919
20
71.1419667
40
0.322202
50
101.6440149
51
144.5142619
0
ARC
8
DEFAULT_255_1_388
10
19.5435112
20
70.9519337
40
0.5180451
50
89.528284
51
102.5820197
0
ARC
8
DEFAULT_255_1_388
10
19.5524103
20
70.9475376
40
0.5224441
50
77.0437914
51
90.508231
0
ARC
8
DEFAULT_255_1_388
10
19.5976357
20
71.1323272
40
0.3322297
50
48.2777708
51
77.4996087
0
ARC
8
DEFAULT_255_1_388
10
19.6058097
20
71.1468557
40
0.315966
50
36.3141586
51
47.6307332
0
ARC
8
DEFAULT_255_1_388
10
19.5080819
20
71.0810159
40
0.4337313
50
18.2931065
51
35.6770203
0
ARC
8
DEFAULT_255_1_388
10
19.221966
20
70.9828107
40
0.7362203
50
8.0246996
51
18.5605636
0
ARC
8
DEFAULT_255_1_388
10
18.7536016
20
70.9136432
40
1.2096583
50
1.127539
51
8.1718423
0
ARC
8
DEFAULT_255_1_388
10
18.3887149
20
70.8993374
40
1.5747719
50
0.5432713
51
1.38669
0
ARC
8
DEFAULT_255_1_388
10
18.5944528
20
70.9300163
40
1.2018103
50
359.8092569
51
4.9408001
0
ARC
8
DEFAULT_255_1_388
10
19.0681109
20
70.97229
40
0.7262727
50
4.8364937
51
12.2906017
0
ARC
8
DEFAULT_255_1_388
10
19.3780574
20
71.0413485
40
0.4087324
50
12.0806994
51
23.8171225
0
ARC
8
DEFAULT_255_1_388
10
19.510097
20
71.0972508
40
0.2653719
50
24.2874621
51
31.3934353
0
ARC
8
DEFAULT_255_1_388
10
19.5691406
20
71.1358822
40
0.1948607
50
30.7407708
51
82.4658033
0
ARC
8
DEFAULT_255_1_388
10
19.5489067
20
71.0365017
40
0.2961198
50
81.1057101
51
90.2187368
0
ARC
8
DEFAULT_255_1_388
10
19.5448878
20
71.0655421
40
0.2670929
50
89.380395
51
105.6763916
0
ARC
8
DEFAULT_255_1_388
10
19.52426
20
71.140532
40
0.1893189
50
105.7980655
51
149.7387869
0
ARC
8
DEFAULT_255_1_388
10
19.643974
20
71.0685719
40
0.3289892
50
149.4208441
51
163.628295
0
ARC
8
DEFAULT_255_1_388
10
19.879197
20
70.9968345
40
0.5749004
50
163.3764549
51
172.141138
0
ARC
8
DEFAULT_255_1_388
10
20.2504692
20
70.9436582
40
0.9499585
50
172.0258462
51
178.0705453
0
ARC
8
DEFAULT_255_1_388
10
20.5926244
20
70.9274682
40
1.2924734
50
177.8639301
51
179.5036263
0
ARC
8
DEFAULT_255_1_388
10
20.4707263
20
70.6671151
40
1.170534
50
179.7995545
51
185.246089
0
ARC
8
DEFAULT_255_1_388
10
20.0158856
20
70.6240404
40
0.7136613
50
185.1411911
51
193.0082205
0
ARC
8
DEFAULT_255_1_388
10
19.7185117
20
70.5537441
40
0.4080987
50
192.7897338
51
205.2507384
0
ARC
8
DEFAULT_255_1_388
10
19.6007327
20
70.5011538
40
0.2791522
50
205.8001921
51
211.2545876
0
ARC
8
DEFAULT_255_1_388
10
19.5418866
20
70.4617132
40
0.2084074
50
210.3789935
51
238.4007996
0
ARC
8
DEFAULT_255_1_388
10
19.5396952
20
70.4669786
40
0.2117943
50
239.6521916
51
265.9793852
0
ARC
8
DEFAULT_255_1_388
10
19.5492801
20
70.5426358
40
0.2879689
50
265.1324455
51
270.0603288
0
ARC
8
DEFAULT_255_1_388
10
19.5525178
20
70.5061418
40
0.2514919
50
269.3314378
51
287.2180039
0
ARC
8
DEFAULT_255_1_388
10
19.568026
20
70.4495291
40
0.1928357
50
287.7957942
51
329.0808983
0
ARC
8
DEFAULT_255_1_388
10
19.4603017
20
70.5167651
40
0.319808
50
328.6635261
51
343.3325043
0
ARC
8
DEFAULT_255_1_388
10
19.2158476
20
70.5929195
40
0.5758408
50
343.0498092
51
351.9392499
0
ARC
8
DEFAULT_255_1_388
10
18.8257797
20
70.6504205
40
0.9701202
50
351.8071632
51
357.7957897
0
ARC
8
DEFAULT_255_1_388
10
18.4623274
20
70.6692724
40
1.3340376
50
357.5870923
51
359.2682493
0
LINE
8
DEFAULT_255_1_388
10
21.0025149
20
70.914269
11
21.0025149
21
70.6974135
0
LINE
8
DEFAULT_255_1_388
10
20.1721392
20
70.6748244
11
20.1721392
21
70.8980048
0
LINE
8
DEFAULT_255_1_388
10
20.8353555
20
70.6522353
11
20.8353555
21
70.9260153
0
LINE
8
DEFAULT_255_1_388
10
20.3392986
20
70.9386652
11
20.3392986
21
70.6712102
0
ARC
8
DEFAULT_255_1_388
10
19.6247483
20
70.6919118
40
1.3777776
50
353.8440855
51
0.2287917
0
ARC
8
DEFAULT_255_1_388
10
20.1466501
20
70.6336414
40
0.852639
50
344.4934746
51
353.9763743
0
ARC
8
DEFAULT_255_1_388
10
20.4833308
20
70.5379191
40
0.5026273
50
329.2803599
51
344.7473406
0
ARC
8
DEFAULT_255_1_388
10
20.5948804
20
70.4767038
40
0.3754848
50
324.9361395
51
328.6153007
0
ARC
8
DEFAULT_255_1_388
10
20.6374453
20
70.4469586
40
0.3235566
50
280.5801797
51
324.9173226
0
ARC
8
DEFAULT_255_1_388
10
20.5923082
20
70.6349236
40
0.5167077
50
269.5979457
51
281.6732777
0
ARC
8
DEFAULT_255_1_388
10
20.5841986
20
70.6214113
40
0.5032026
50
256.6228565
51
270.5105488
0
ARC
8
DEFAULT_255_1_388
10
20.5389728
20
70.4472345
40
0.3233092
50
215.8618351
51
257.2787793
0
ARC
8
DEFAULT_255_1_388
10
20.6538435
20
70.5243106
40
0.4615831
50
197.9695203
51
215.2622745
0
ARC
8
DEFAULT_255_1_388
10
20.9334111
20
70.6186641
40
0.7566307
50
187.8816486
51
198.2346584
0
ARC
8
DEFAULT_255_1_388
10
21.3787349
20
70.6829453
40
1.2065653
50
180.8977266
51
188.0054894
0
ARC
8
DEFAULT_255_1_388
10
21.6837563
20
70.69444
40
1.5117443
50
180.7434591
51
181.152202
0
ARC
8
DEFAULT_255_1_388
10
21.5162559
20
70.9034371
40
1.3441277
50
173.7674302
51
180.2315596
0
ARC
8
DEFAULT_255_1_388
10
21.0080428
20
70.9608779
40
0.8326847
50
164.3058537
51
173.9000553
0
ARC
8
DEFAULT_255_1_388
10
20.6804428
20
71.0552652
40
0.4917711
50
148.7922028
51
164.5682288
0
ARC
8
DEFAULT_255_1_388
10
20.5735165
20
71.1149457
40
0.3694204
50
144.5883979
51
148.1161588
0
ARC
8
DEFAULT_255_1_388
10
20.5347911
20
71.1419667
40
0.322202
50
101.6440149
51
144.5142619
0
ARC
8
DEFAULT_255_1_388
10
20.5826103
20
70.9519337
40
0.5180451
50
89.528284
51
102.5820197
0
ARC
8
DEFAULT_255_1_388
10
20.5915095
20
70.9475376
40
0.5224441
50
77.0437914
51
90.508231
0
ARC
8
DEFAULT_255_1_388
10
20.6367348
20
71.1323272
40
0.3322297
50
48.2777708
51
77.4996087
0
ARC
8
DEFAULT_255_1_388
10
20.6449088
20
71.1468557
40
0.315966
50
36.3141586
51
47.6307332
0
ARC
8
DEFAULT_255_1_388
10
20.5471811
20
71.0810159
40
0.4337313
50
18.2931065
51
35.6770203
0
ARC
8
DEFAULT_255_1_388
10
20.2610651
20
70.9828107
40
0.7362203
50
8.0246996
51
18.5605636
0
ARC
8
DEFAULT_255_1_388
10
19.7927007
20
70.9136432
40
1.2096583
50
1.127539
51
8.1718423
0
ARC
8
DEFAULT_255_1_388
10
19.427814
20
70.8993374
40
1.5747719
50
0.5432713
51
1.38669
0
ARC
8
DEFAULT_255_1_388
10
19.6335519
20
70.9300163
40
1.2018103
50
359.8092569
51
4.9408001
0
ARC
8
DEFAULT_255_1_388
10
20.10721
20
70.97229
40
0.7262727
50
4.8364937
51
12.2906017
0
ARC
8
DEFAULT_255_1_388
10
20.4171565
20
71.0413485
40
0.4087324
50
12.0806994
51
23.8171225
0
ARC
8
DEFAULT_255_1_388
10
20.5491961
20
71.0972508
40
0.2653719
50
24.2874621
51
31.3934353
0
ARC
8
DEFAULT_255_1_388
10
20.6082397
20
71.1358822
40
0.1948607
50
30.7407708
51
82.4658033
0
ARC
8
DEFAULT_255_1_388
10
20.5880058
20
71.0365017
40
0.2961198
50
81.1057101
51
90.2187368
0
ARC
8
DEFAULT_255_1_388
10
20.583987
20
71.0655421
40
0.2670929
50
89.380395
51
105.6763916
0
ARC
8
DEFAULT_255_1_388
10
20.5633592
20
71.140532
40
0.1893189
50
105.7980655
51
149.7387869
0
ARC
8
DEFAULT_255_1_388
10
20.6830732
20
71.0685719
40
0.3289892
50
149.4208441
51
163.628295
0
ARC
8
DEFAULT_255_1_388
10
20.9182961
20
70.9968345
40
0.5749004
50
163.3764549
51
172.141138
0
ARC
8
DEFAULT_255_1_388
10
21.2895683
20
70.9436582
40
0.9499585
50
172.0258462
51
178.0705453
0
ARC
8
DEFAULT_255_1_388
10
21.6317236
20
70.9274682
40
1.2924734
50
177.8639301
51
179.5036263
0
ARC
8
DEFAULT_255_1_388
10
21.5098254
20
70.6671151
40
1.170534
50
179.7995545
51
185.246089
0
ARC
8
DEFAULT_255_1_388
10
21.0549847
20
70.6240404
40
0.7136613
50
185.1411911
51
193.0082205
0
ARC
8
DEFAULT_255_1_388
10
20.7576108
20
70.5537441
40
0.4080987
50
192.7897338
51
205.2507384
0
ARC
8
DEFAULT_255_1_388
10
20.6398318
20
70.5011538
40
0.2791522
50
205.8001921
51
211.2545876
0
ARC
8
DEFAULT_255_1_388
10
20.5809857
20
70.4617132
40
0.2084074
50
210.3789935
51
238.4007996
0
ARC
8
DEFAULT_255_1_388
10
20.5787943
20
70.4669786
40
0.2117943
50
239.6521916
51
265.9793852
0
ARC
8
DEFAULT_255_1_388
10
20.5883792
20
70.5426358
40
0.2879689
50
265.1324455
51
270.0603288
0
ARC
8
DEFAULT_255_1_388
10
20.5916169
20
70.5061418
40
0.2514919
50
269.3314378
51
287.2180039
0
ARC
8
DEFAULT_255_1_388
10
20.6071251
20
70.4495291
40
0.1928357
50
287.7957942
51
329.0808983
0
ARC
8
DEFAULT_255_1_388
10
20.4994008
20
70.5167651
40
0.319808
50
328.6635261
51
343.3325043
0
ARC
8
DEFAULT_255_1_388
10
20.2549467
20
70.5929195
40
0.5758408
50
343.0498092
51
351.9392499
0
ARC
8
DEFAULT_255_1_388
10
19.8648789
20
70.6504205
40
0.9701202
50
351.8071632
51
357.7957897
0
ARC
8
DEFAULT_255_1_388
10
19.5014266
20
70.6692724
40
1.3340376
50
357.5870923
51
359.2682493
0
LINE
8
DEFAULT_255_2_778
10
19.9765417
20
60.7218492
11
18.6536417
21
60.7218492
0
LINE
8
DEFAULT_255_2_778
10
18.6536417
20
60.7218492
11
18.6536417
21
35.5864492
0
LINE
8
DEFAULT_255_2_778
10
18.6536417
20
30.2947492
11
18.6536417
21
5.1593492
0
LINE
8
DEFAULT_255_2_778
10
18.6536417
20
5.1593492
11
19.9765417
21
5.1593492
0
LINE
8
DEFAULT_255_2_778
10
17.3307834
20
35.5864333
11
19.9765834
21
35.5864333
0
LINE
8
DEFAULT_255_2_778
10
19.9765834
20
35.5864333
11
19.9765834
21
30.2947333
0
LINE
8
DEFAULT_255_2_778
10
19.9765834
20
30.2947333
11
17.3307834
21
30.2947333
0
LINE
8
DEFAULT_255_2_778
10
17.3307834
20
30.2947333
11
17.3307834
21
35.5864333
0
LINE
8
DEFAULT_255_2_778
10
18.1245
20
30.8239666
11
18.1245
21
35.0572666
0
LINE
8
DEFAULT_255_2_778
10
17.8599167
20
34.263575
11
18.1245167
21
35.057275
0
LINE
8
DEFAULT_255_2_778
10
18.1245167
20
35.057275
11
18.3891167
21
34.263575
0
LINE
8
DEFAULT_255_2_778
10
18.3891167
20
34.263575
11
17.8599167
21
34.263575
0
LINE
8
DEFAULT_255_2_778
10
19.1828
20
35.0572666
11
19.1828
21
30.8239666
0
LINE
8
DEFAULT_255_2_778
10
18.9182167
20
31.617675
11
19.1828167
21
30.823975
0
LINE
8
DEFAULT_255_2_778
10
19.1828167
20
30.823975
11
19.4474167
21
31.617675
0
LINE
8
DEFAULT_255_2_778
10
19.4474167
20
31.617675
11
18.9182167
21
31.617675
0
LINE
8
DEFAULT_255_1_388
10
4.8809318
20
68.2883382
11
4.8809318
21
68.1519
0
LINE
8
DEFAULT_255_1_388
10
4.8809318
20
68.1519
11
4.0189313
21
68.1519
0
LINE
8
DEFAULT_255_1_388
10
4.0189313
20
68.1519
11
4.0189313
21
68.2720741
0
LINE
8
DEFAULT_255_1_388
10
4.0189313
20
68.2720741
11
4.4743278
21
68.7780702
0
LINE
8
DEFAULT_255_1_388
10
4.1607909
20
69.0798607
11
3.9936315
21
69.0798607
0
LINE
8
DEFAULT_255_1_388
10
4.5728163
20
68.670546
11
4.2204262
21
68.2883382
0
LINE
8
DEFAULT_255_1_388
10
4.2204262
20
68.2883382
11
4.8809318
21
68.2883382
0
ARC
8
DEFAULT_255_1_388
10
2.9567337
20
70.1200983
40
2.0258655
50
318.5132526
51
320.7829045
0
ARC
8
DEFAULT_255_1_388
10
3.5515294
20
69.6359929
40
1.2589638
50
320.7372878
51
323.9739031
0
ARC
8
DEFAULT_255_1_388
10
3.9924226
20
69.3165554
40
0.7145141
50
323.8962701
51
328.64194
0
ARC
8
DEFAULT_255_1_388
10
4.2226484
20
69.1745545
40
0.4440242
50
328.8294576
51
331.7891185
0
ARC
8
DEFAULT_255_1_388
10
4.3348804
20
69.1166374
40
0.3177517
50
331.4254512
51
352.9365785
0
ARC
8
DEFAULT_255_1_388
10
4.3501804
20
69.113205
40
0.3021496
50
353.2257659
51
0.0166158
0
ARC
8
DEFAULT_255_1_388
10
4.3738564
20
69.1157894
40
0.2784847
50
359.486299
51
15.9343185
0
ARC
8
DEFAULT_255_1_388
10
4.4308831
20
69.1311269
40
0.2194403
50
16.1712913
51
43.5286088
0
ARC
8
DEFAULT_255_1_388
10
4.4395776
20
69.1398191
40
0.2071504
50
43.4417391
51
83.1661095
0
ARC
8
DEFAULT_255_1_388
10
4.4244937
20
69.0569316
40
0.2912888
50
82.160179
51
90.1505708
0
ARC
8
DEFAULT_255_1_388
10
4.4209418
20
68.9965279
40
0.3517025
50
89.5460741
51
102.5418361
0
ARC
8
DEFAULT_255_1_388
10
4.3936138
20
69.1124933
40
0.2325748
50
102.1738499
51
129.206123
0
ARC
8
DEFAULT_255_1_388
10
4.3847592
20
69.1264664
40
0.2161591
50
129.72865
51
135.753947
0
ARC
8
DEFAULT_255_1_388
10
4.3984074
20
69.1155728
40
0.2335433
50
136.1757367
51
166.3673339
0
ARC
8
DEFAULT_255_1_388
10
4.5116762
20
69.0852148
40
0.3507873
50
165.9090694
51
178.8684636
0
ARC
8
DEFAULT_255_1_388
10
4.6092534
20
69.0799263
40
0.4484624
50
178.4391136
51
180.0083808
0
ARC
8
DEFAULT_255_1_388
10
4.4513235
20
69.0843197
40
0.4577138
50
163.2878482
51
180.5581842
0
ARC
8
DEFAULT_255_1_388
10
4.3611276
20
69.1091393
40
0.3641968
50
133.4540601
51
162.947111
0
ARC
8
DEFAULT_255_1_388
10
4.3812158
20
69.0877789
40
0.3935189
50
100.7869829
51
133.4382499
0
ARC
8
DEFAULT_255_1_388
10
4.4203403
20
68.9135399
40
0.5720313
50
89.660664
51
101.3702276
0
ARC
8
DEFAULT_255_1_388
10
4.4278012
20
68.9204263
40
0.5651495
50
78.2172678
51
90.412935
0
ARC
8
DEFAULT_255_1_388
10
4.4677478
20
69.1031511
40
0.378122
50
55.9269121
51
78.4888449
0
ARC
8
DEFAULT_255_1_388
10
4.4898193
20
69.1412187
40
0.3342379
50
47.929771
51
55.4049217
0
ARC
8
DEFAULT_255_1_388
10
4.5012723
20
69.1528618
40
0.3179217
50
4.334829
51
48.0560205
0
ARC
8
DEFAULT_255_1_388
10
4.3780525
20
69.1337487
40
0.442341
50
359.9251713
51
5.5971671
0
ARC
8
DEFAULT_255_1_388
10
4.426268
20
69.1400728
40
0.3941854
50
337.8914027
51
358.9967534
0
ARC
8
DEFAULT_255_1_388
10
4.121025
20
69.2578295
40
0.7213271
50
326.9132501
51
338.3508308
0
ARC
8
DEFAULT_255_1_388
10
3.6726362
20
69.5452105
40
1.2538973
50
319.6471833
51
327.0959558
0
ARC
8
DEFAULT_255_1_388
10
3.241302
20
69.901005
40
1.8129975
50
317.2588228
51
319.9045804
0
LINE
8
DEFAULT_255_1_388
10
5.7637143
20
69.4674898
11
5.7637143
21
68.593743
0
LINE
8
DEFAULT_255_1_388
10
5.7637143
20
68.593743
11
5.9462343
21
68.593743
0
LINE
8
DEFAULT_255_1_388
10
5.9462343
20
68.593743
11
5.9462343
21
68.4573048
0
LINE
8
DEFAULT_255_1_388
10
5.9462343
20
68.4573048
11
5.7637143
21
68.4573048
0
LINE
8
DEFAULT_255_1_388
10
5.7637143
20
68.4573048
11
5.7637143
21
68.1519
0
LINE
8
DEFAULT_255_1_388
10
5.7637143
20
68.1519
11
5.5956513
21
68.1519
0
LINE
8
DEFAULT_255_1_388
10
5.5956513
20
68.1519
11
5.5956513
21
68.4573048
0
LINE
8
DEFAULT_255_1_388
10
5.5956513
20
68.4573048
11
4.996588
21
68.4573048
0
LINE
8
DEFAULT_255_1_388
10
4.996588
20
68.4573048
11
4.996588
21
68.5557933
0
LINE
8
DEFAULT_255_1_388
10
4.996588
20
68.5557933
11
5.5857121
21
69.4674898
0
LINE
8
DEFAULT_255_1_388
10
5.5857121
20
69.4674898
11
5.7637143
21
69.4674898
0
LINE
8
DEFAULT_255_1_388
10
5.5757729
20
69.2027455
11
5.1863366
21
68.593743
0
LINE
8
DEFAULT_255_1_388
10
5.1863366
20
68.593743
11
5.5956513
21
68.593743
0
LINE
8
DEFAULT_255_1_388
10
5.5956513
20
68.593743
11
5.5956513
21
69.238888
0
LINE
8
DEFAULT_255_1_388
10
5.5956513
20
69.238888
11
5.5757729
21
69.2027455
0
LINE
8
DEFAULT_255_1_388
10
6.201943
20
69.4674898
11
6.5760187
21
68.3823089
0
LINE
8
DEFAULT_255_1_388
10
6.5760187
20
68.3823089
11
6.9519015
21
69.4674898
0
LINE
8
DEFAULT_255_1_388
10
6.9519015
20
69.4674898
11
7.14165
21
69.4674898
0
LINE
8
DEFAULT_255_1_388
10
7.14165
20
69.4674898
11
6.6537252
21
68.1519
0
LINE
8
DEFAULT_255_1_388
10
6.6537252
20
68.1519
11
6.5001193
21
68.1519
0
LINE
8
DEFAULT_255_1_388
10
6.5001193
20
68.1519
11
6.013098
21
69.4674898
0
LINE
8
DEFAULT_255_1_388
10
6.013098
20
69.4674898
11
6.201943
21
69.4674898
0
LINE
8
DEFAULT_255_1_388
10
23.1190856
20
68.929869
11
23.1190856
21
68.7130135
0
LINE
8
DEFAULT_255_1_388
10
22.2887099
20
68.6904244
11
22.2887099
21
68.9136048
0
LINE
8
DEFAULT_255_1_388
10
22.9519262
20
68.6678353
11
22.9519262
21
68.9416153
0
LINE
8
DEFAULT_255_1_388
10
22.4558693
20
68.9542652
11
22.4558693
21
68.6868102
0
ARC
8
DEFAULT_255_1_388
10
21.741319
20
68.7075118
40
1.3777776
50
353.8440855
51
0.2287917
0
ARC
8
DEFAULT_255_1_388
10
22.2632208
20
68.6492414
40
0.852639
50
344.4934746
51
353.9763743
0
ARC
8
DEFAULT_255_1_388
10
22.5999015
20
68.5535191
40
0.5026273
50
329.2803599
51
344.7473406
0
ARC
8
DEFAULT_255_1_388
10
22.7114511
20
68.4923038
40
0.3754848
50
324.9361395
51
328.6153007
0
ARC
8
DEFAULT_255_1_388
10
22.7540161
20
68.4625586
40
0.3235566
50
280.5801797
51
324.9173226
0
ARC
8
DEFAULT_255_1_388
10
22.7088789
20
68.6505236
40
0.5167077
50
269.5979457
51
281.6732777
0
ARC
8
DEFAULT_255_1_388
10
22.7007693
20
68.6370113
40
0.5032026
50
256.6228565
51
270.5105488
0
ARC
8
DEFAULT_255_1_388
10
22.6555435
20
68.4628345
40
0.3233092
50
215.8618351
51
257.2787793
0
ARC
8
DEFAULT_255_1_388
10
22.7704142
20
68.5399106
40
0.4615831
50
197.9695203
51
215.2622745
0
ARC
8
DEFAULT_255_1_388
10
23.0499818
20
68.6342641
40
0.7566307
50
187.8816486
51
198.2346584
0
ARC
8
DEFAULT_255_1_388
10
23.4953056
20
68.6985453
40
1.2065653
50
180.8977266
51
188.0054894
0
ARC
8
DEFAULT_255_1_388
10
23.800327
20
68.71004
40
1.5117443
50
180.7434591
51
181.152202
0
ARC
8
DEFAULT_255_1_388
10
23.6328266
20
68.9190371
40
1.3441277
50
173.7674302
51
180.2315596
0
ARC
8
DEFAULT_255_1_388
10
23.1246135
20
68.9764779
40
0.8326847
50
164.3058537
51
173.9000553
0
ARC
8
DEFAULT_255_1_388
10
22.7970135
20
69.0708652
40
0.4917711
50
148.7922028
51
164.5682288
0
ARC
8
DEFAULT_255_1_388
10
22.6900872
20
69.1305457
40
0.3694204
50
144.5883979
51
148.1161588
0
ARC
8
DEFAULT_255_1_388
10
22.6513618
20
69.1575667
40
0.322202
50
101.6440149
51
144.5142619
0
ARC
8
DEFAULT_255_1_388
10
22.699181
20
68.9675337
40
0.5180451
50
89.528284
51
102.5820197
0
ARC
8
DEFAULT_255_1_388
10
22.7080802
20
68.9631376
40
0.5224441
50
77.0437914
51
90.508231
0
ARC
8
DEFAULT_255_1_388
10
22.7533055
20
69.1479272
40
0.3322297
50
48.2777708
51
77.4996087
0
ARC
8
DEFAULT_255_1_388
10
22.7614795
20
69.1624557
40
0.315966
50
36.3141586
51
47.6307332
0
ARC
8
DEFAULT_255_1_388
10
22.6637518
20
69.0966159
40
0.4337313
50
18.2931065
51
35.6770203
0
ARC
8
DEFAULT_255_1_388
10
22.3776358
20
68.9984107
40
0.7362203
50
8.0246996
51
18.5605636
0
ARC
8
DEFAULT_255_1_388
10
21.9092714
20
68.9292432
40
1.2096583
50
1.127539
51
8.1718423
0
ARC
8
DEFAULT_255_1_388
10
21.5443847
20
68.9149374
40
1.5747719
50
0.5432713
51
1.38669
0
ARC
8
DEFAULT_255_1_388
10
21.7501226
20
68.9456163
40
1.2018103
50
359.8092569
51
4.9408001
0
ARC
8
DEFAULT_255_1_388
10
22.2237807
20
68.98789
40
0.7262727
50
4.8364937
51
12.2906017
0
ARC
8
DEFAULT_255_1_388
10
22.5337272
20
69.0569485
40
0.4087324
50
12.0806994
51
23.8171225
0
ARC
8
DEFAULT_255_1_388
10
22.6657668
20
69.1128508
40
0.2653719
50
24.2874621
51
31.3934353
0
ARC
8
DEFAULT_255_1_388
10
22.7248104
20
69.1514822
40
0.1948607
50
30.7407708
51
82.4658033
0
ARC
8
DEFAULT_255_1_388
10
22.7045765
20
69.0521017
40
0.2961198
50
81.1057101
51
90.2187368
0
ARC
8
DEFAULT_255_1_388
10
22.7005577
20
69.0811421
40
0.2670929
50
89.380395
51
105.6763916
0
ARC
8
DEFAULT_255_1_388
10
22.6799299
20
69.156132
40
0.1893189
50
105.7980655
51
149.7387869
0
ARC
8
DEFAULT_255_1_388
10
22.7996439
20
69.0841719
40
0.3289892
50
149.4208441
51
163.628295
0
ARC
8
DEFAULT_255_1_388
10
23.0348668
20
69.0124345
40
0.5749004
50
163.3764549
51
172.141138
0
ARC
8
DEFAULT_255_1_388
10
23.406139
20
68.9592582
40
0.9499585
50
172.0258462
51
178.0705453
0
ARC
8
DEFAULT_255_1_388
10
23.7482943
20
68.9430682
40
1.2924734
50
177.8639301
51
179.5036263
0
ARC
8
DEFAULT_255_1_388
10
23.6263961
20
68.6827151
40
1.170534
50
179.7995545
51
185.246089
0
ARC
8
DEFAULT_255_1_388
10
23.1715554
20
68.6396404
40
0.7136613
50
185.1411911
51
193.0082205
0
ARC
8
DEFAULT_255_1_388
10
22.8741815
20
68.5693441
40
0.4080987
50
192.7897338
51
205.2507384
0
ARC
8
DEFAULT_255_1_388
10
22.7564025
20
68.5167538
40
0.2791522
50
205.8001921
51
211.2545876
0
ARC
8
DEFAULT_255_1_388
10
22.6975564
20
68.4773132
40
0.2084074
50
210.3789935
51
238.4007996
0
ARC
8
DEFAULT_255_1_388
10
22.695365
20
68.4825786
40
0.2117943
50
239.6521916
51
265.9793852
0
ARC
8
DEFAULT_255_1_388
10
22.7049499
20
68.5582358
40
0.2879689
50
265.1324455
51
270.0603288
0
ARC
8
DEFAULT_255_1_388
10
22.7081876
20
68.5217418
40
0.2514919
50
269.3314378
51
287.2180039
0
ARC
8
DEFAULT_255_1_388
10
22.7236958
20
68.4651291
40
0.1928357
50
287.7957942
51
329.0808983
0
ARC
8
DEFAULT_255_1_388
10
22.6159715
20
68.5323651
40
0.319808
50
328.6635261
51
343.3325043
0
ARC
8
DEFAULT_255_1_388
10
22.3715174
20
68.6085195
40
0.5758408
50
343.0498092
51
351.9392499
0
ARC
8
DEFAULT_255_1_388
10
21.9814496
20
68.6660205
40
0.9701202
50
351.8071632
51
357.7957897
0
ARC
8
DEFAULT_255_1_388
10
21.6179973
20
68.6848724
40
1.3340376
50
357.5870923
51
359.2682493
0
LINE
8
DEFAULT_255_1_388
10
23.4380439
20
69.4674898
11
23.8121196
21
68.3823089
0
LINE
8
DEFAULT_255_1_388
10
23.8121196
20
68.3823089
11
24.1880024
21
69.4674898
0
LINE
8
DEFAULT_255_1_388
10
24.1880024
20
69.4674898
11
24.3777509
21
69.4674898
0
LINE
8
DEFAULT_255_1_388
10
24.3777509
20
69.4674898
11
23.8898261
21
68.1519
0
LINE
8
DEFAULT_255_1_388
10
23.8898261
20
68.1519
11
23.7362202
21
68.1519
0
LINE
8
DEFAULT_255_1_388
10
23.7362202
20
68.1519
11
23.2491989
21
69.4674898
0
LINE
8
DEFAULT_255_1_388
10
23.2491989
20
69.4674898
11
23.4380439
21
69.4674898
0
ARC
8
DEFAULT_255_1_388
10
24.0158818
20
5.621272
40
0.3175098
50
338.8762533
51
0.5167111
0
ARC
8
DEFAULT_255_1_388
10
24.0348412
20
5.61616
40
0.2979894
50
325.8415285
51
338.4793574
0
ARC
8
DEFAULT_255_1_388
10
23.9909046
20
5.6466242
40
0.351452
50
296.7587686
51
325.7536481
0
ARC
8
DEFAULT_255_1_388
10
23.9580673
20
5.7020363
40
0.4157374
50
296.0927901
51
297.3613472
0
ARC
8
DEFAULT_255_1_388
10
23.9874869
20
4.9637593
40
0.395855
50
47.9007294
51
67.1948823
0
ARC
8
DEFAULT_255_1_388
10
24.0095511
20
4.9914599
40
0.360516
50
35.2363914
51
47.551141
0
ARC
8
DEFAULT_255_1_388
10
24.0389915
20
5.0111093
40
0.3251343
50
359.2759765
51
35.4014143
0
ARC
8
DEFAULT_255_1_388
10
23.9551841
20
5.0028787
40
0.4089365
50
343.1293083
51
0.5775513
0
ARC
8
DEFAULT_255_1_388
10
24.0366955
20
4.9804336
40
0.3244269
50
310.8496669
51
342.7449331
0
ARC
8
DEFAULT_255_1_388
10
23.9896829
20
5.0340913
40
0.3957651
50
281.5472888
51
310.9170406
0
ARC
8
DEFAULT_255_1_388
10
23.9495704
20
5.2087814
40
0.5749654
50
269.619248
51
281.9789564
0
ARC
8
DEFAULT_255_1_388
10
23.9414482
20
5.2088776
40
0.5750649
50
257.4585678
51
270.4285689
0
ARC
8
DEFAULT_255_1_388
10
23.8986002
20
5.0284741
40
0.389671
50
228.7554326
51
257.8484789
0
ARC
8
DEFAULT_255_1_388
10
23.8637487
20
4.9865228
40
0.335154
50
184.0104975
51
228.5071184
0
ARC
8
DEFAULT_255_1_388
10
23.994588
20
5.006443
40
0.4671891
50
179.9315832
51
185.3253753
0
ARC
8
DEFAULT_255_1_388
10
23.8622392
20
5.0106592
40
0.33486
50
145.6796023
51
180.6259786
0
ARC
8
DEFAULT_255_1_388
10
23.8806158
20
4.9978271
40
0.3572723
50
115.5537685
51
145.6415986
0
ARC
8
DEFAULT_255_1_388
10
23.9189202
20
4.9292087
40
0.4357296
50
113.243307
51
116.2057839
0
ARC
8
DEFAULT_255_1_388
10
23.9017854
20
5.6489379
40
0.3549126
50
222.9549744
51
244.1370481
0
ARC
8
DEFAULT_255_1_388
10
23.8880497
20
5.6335378
40
0.3343711
50
213.3436887
51
222.6274467
0
ARC
8
DEFAULT_255_1_388
10
23.8664566
20
5.6188653
40
0.3082678
50
180.431584
51
213.271499
0
ARC
8
DEFAULT_255_1_388
10
23.9299565
20
5.6241296
40
0.3718363
50
179.9991191
51
181.1690594
0
ARC
8
DEFAULT_255_1_388
10
23.9772021
20
5.6280072
40
0.4190996
50
164.6186169
51
180.529336
0
ARC
8
DEFAULT_255_1_388
10
23.876167
20
5.655178
40
0.3144772
50
132.2455553
51
164.5090724
0
ARC
8
DEFAULT_255_1_388
10
23.9084649
20
5.618607
40
0.3632644
50
100.7053914
51
132.1386381
0
ARC
8
DEFAULT_255_1_388
10
23.942771
20
5.4636118
40
0.5219578
50
89.6730358
51
101.2451698
0
ARC
8
DEFAULT_255_1_388
10
23.9497701
20
5.4832648
40
0.5023124
50
76.287748
51
90.4586006
0
ARC
8
DEFAULT_255_1_388
10
23.9842203
20
5.6207671
40
0.3605639
50
47.8240511
51
76.4266241
0
ARC
8
DEFAULT_255_1_388
10
24.0092587
20
5.6500599
40
0.3220463
50
6.9168387
51
47.6262497
0
ARC
8
DEFAULT_255_1_388
10
23.875804
20
5.6254004
40
0.4575765
50
359.8415968
51
7.9697453
0
ARC
8
DEFAULT_255_1_388
10
23.914231
20
5.0133519
40
0.2827228
50
359.445363
51
16.9256873
0
ARC
8
DEFAULT_255_1_388
10
23.9669744
20
5.0278781
40
0.2280396
50
17.2920767
51
45.4630727
0
ARC
8
DEFAULT_255_1_388
10
23.9608879
20
5.0226324
40
0.2360485
50
45.30305
51
83.1920945
0
ARC
8
DEFAULT_255_1_388
10
23.9447624
20
4.9324473
40
0.3275527
50
82.2612665
51
90.1434275
0
ARC
8
DEFAULT_255_1_388
10
23.94129
20
4.9586869
40
0.3013237
50
89.4956434
51
104.8580688
0
ARC
8
DEFAULT_255_1_388
10
23.921409
20
5.0340455
40
0.2233867
50
104.8856641
51
135.244616
0
ARC
8
DEFAULT_255_1_388
10
23.9270079
20
5.0290352
40
0.2308906
50
135.3399546
51
172.1044062
0
ARC
8
DEFAULT_255_1_388
10
24.0177603
20
5.0116667
40
0.3232034
50
171.2645637
51
180.186429
0
ARC
8
DEFAULT_255_1_388
10
23.9987608
20
5.0080426
40
0.304213
50
179.5154935
51
193.6464289
0
ARC
8
DEFAULT_255_1_388
10
23.9069284
20
4.9846473
40
0.209456
50
193.3540274
51
225.8258581
0
ARC
8
DEFAULT_255_1_388
10
23.9115156
20
4.9926076
40
0.2183738
50
226.4180634
51
255.8552336
0
ARC
8
DEFAULT_255_1_388
10
23.9403623
20
5.0979521
40
0.3275812
50
255.4654104
51
268.7987425
0
ARC
8
DEFAULT_255_1_388
10
23.9456799
20
5.1921545
40
0.4218877
50
268.3449238
51
270.0094605
0
ARC
8
DEFAULT_255_1_388
10
23.9483032
20
5.1153094
40
0.3450519
50
269.5759586
51
282.0820163
0
ARC
8
DEFAULT_255_1_388
10
23.9736069
20
5.0034363
40
0.2303642
50
281.752014
51
306.6056188
0
ARC
8
DEFAULT_255_1_388
10
23.9846877
20
4.9852802
40
0.2091906
50
307.1346085
51
314.027845
0
ARC
8
DEFAULT_255_1_388
10
23.9806389
20
4.9882459
40
0.2141385
50
314.2552483
51
350.1694025
0
ARC
8
DEFAULT_255_1_388
10
23.8848626
20
5.0090175
40
0.312082
50
349.4140529
51
0.2933014
0
ARC
8
DEFAULT_255_1_388
10
23.9433903
20
5.5893924
40
0.2588377
50
89.477747
51
105.729729
0
ARC
8
DEFAULT_255_1_388
10
23.9280823
20
5.6462367
40
0.1999733
50
105.9233417
51
135.1660906
0
ARC
8
DEFAULT_255_1_388
10
23.9303854
20
5.6446412
40
0.2027322
50
135.3052302
51
168.9883645
0
ARC
8
DEFAULT_255_1_388
10
24.023487
20
5.6232996
40
0.2982129
50
168.3801673
51
180.3602268
0
ARC
8
DEFAULT_255_1_388
10
23.9977987
20
5.6190622
40
0.2725291
50
179.5033122
51
194.9125571
0
ARC
8
DEFAULT_255_1_388
10
23.9319394
20
5.6017427
40
0.204431
50
194.9720816
51
224.194444
0
ARC
8
DEFAULT_255_1_388
10
23.9287759
20
5.5991635
40
0.2003651
50
224.2962453
51
262.015664
0
ARC
8
DEFAULT_255_1_388
10
23.9447763
20
5.6814315
40
0.2840925
50
261.1245923
51
270.1962896
0
ARC
8
DEFAULT_255_1_388
10
23.9481244
20
5.6603859
40
0.2630559
50
269.4827276
51
285.0987215
0
ARC
8
DEFAULT_255_1_388
10
23.965468
20
5.5953175
40
0.1957162
50
285.1585357
51
315.9484501
0
ARC
8
DEFAULT_255_1_388
10
23.9554554
20
5.6045315
40
0.2093195
50
316.0413965
51
351.916092
0
ARC
8
DEFAULT_255_1_388
10
23.8729928
20
5.6204323
40
0.2932279
50
351.105835
51
0.1939062
0
ARC
8
DEFAULT_255_1_388
10
23.9025562
20
5.6238224
40
0.2636739
50
359.4789618
51
16.0678224
0
ARC
8
DEFAULT_255_1_388
10
23.9561034
20
5.6382721
40
0.2082215
50
16.3252067
51
44.7913869
0
ARC
8
DEFAULT_255_1_388
10
23.9541096
20
5.638332
40
0.2095992
50
44.3957814
51
88.2499162
0
ARC
8
DEFAULT_255_1_388
10
23.9458431
20
5.5695006
40
0.2787189
50
86.9833854
51
90.0192215
0
LINE
8
DEFAULT_255_1_388
10
24.3848819
20
13.9049898
11
24.3848819
21
13.8110191
0
LINE
8
DEFAULT_255_1_388
10
24.3848819
20
13.8110191
11
23.8400325
21
12.5894
0
LINE
8
DEFAULT_255_1_388
10
23.8400325
20
12.5894
11
23.664741
21
12.5894
0
LINE
8
DEFAULT_255_1_388
10
23.664741
20
12.5894
11
24.2077833
21
13.767648
0
LINE
8
DEFAULT_255_1_388
10
24.2077833
20
13.767648
11
23.4957745
21
13.767648
0
LINE
8
DEFAULT_255_1_388
10
23.4957745
20
13.767648
11
23.4957745
21
13.9049898
0
LINE
8
DEFAULT_255_1_388
10
23.4957745
20
13.9049898
11
24.3848819
21
13.9049898
0
LINE
8
DEFAULT_255_1_388
10
24.1617015
20
21.8433934
11
24.1915191
21
21.8433934
0
LINE
8
DEFAULT_255_1_388
10
24.1915191
20
21.8433934
11
24.1915191
21
21.7015338
0
LINE
8
DEFAULT_255_1_388
10
24.1915191
20
21.7015338
11
24.1607979
21
21.7015338
0
LINE
8
DEFAULT_255_1_388
10
23.5454705
20
21.0274747
11
23.5454705
21
21.0916278
0
LINE
8
DEFAULT_255_1_388
10
23.7135335
20
21.0699422
11
23.7135335
21
21.0084999
0
ARC
8
DEFAULT_255_1_388
10
24.1666871
20
21.1392826
40
0.562282
50
90.6001079
51
104.5146616
0
ARC
8
DEFAULT_255_1_388
10
24.122983
20
21.30181
40
0.3939917
50
104.2855758
51
133.8630124
0
ARC
8
DEFAULT_255_1_388
10
24.1414083
20
21.2896243
40
0.4155734
50
134.5304124
51
161.6210222
0
ARC
8
DEFAULT_255_1_388
10
24.3274015
20
21.2240421
40
0.6127682
50
161.2850533
51
174.2074364
0
ARC
8
DEFAULT_255_1_388
10
24.4863582
20
21.2021437
40
0.7731446
50
173.7817938
51
174.9251711
0
ARC
8
DEFAULT_255_1_388
10
23.9737775
20
21.046627
40
0.3412588
50
95.8332067
51
138.995412
0
ARC
8
DEFAULT_255_1_388
10
23.9989056
20
20.9027695
40
0.4870358
50
89.8755506
51
97.0540979
0
ARC
8
DEFAULT_255_1_388
10
24.0042445
20
20.9967841
40
0.3930432
50
71.6407016
51
90.6240821
0
ARC
8
DEFAULT_255_1_388
10
24.0211838
20
21.0591433
40
0.3285421
50
39.6368051
51
71.0190743
0
ARC
8
DEFAULT_255_1_388
10
23.9495746
20
20.9972586
40
0.4231706
50
10.6588054
51
39.9044509
0
ARC
8
DEFAULT_255_1_388
10
23.7754291
20
20.9594223
40
0.60133
50
359.6827842
51
11.1326896
0
ARC
8
DEFAULT_255_1_388
10
23.7709627
20
20.9514715
40
0.6058047
50
347.2485908
51
0.4371098
0
ARC
8
DEFAULT_255_1_388
10
23.9585413
20
20.9063379
40
0.4128987
50
318.1408565
51
347.6118497
0
ARC
8
DEFAULT_255_1_388
10
23.9951009
20
20.8762903
40
0.3656244
50
275.6342406
51
317.824739
0
ARC
8
DEFAULT_255_1_388
10
23.970253
20
21.0224827
40
0.513655
50
269.8872513
51
276.7916069
0
ARC
8
DEFAULT_255_1_388
10
23.9640723
20
20.9071181
40
0.398323
50
246.9139443
51
270.7436787
0
ARC
8
DEFAULT_255_1_388
10
23.9647919
20
20.8911044
40
0.3839368
50
218.1665534
51
245.8780431
0
ARC
8
DEFAULT_255_1_388
10
24.0637291
20
20.9738903
40
0.5128958
50
191.4115343
51
218.6077624
0
ARC
8
DEFAULT_255_1_388
10
24.2817607
20
21.0227777
40
0.7363054
50
179.6344971
51
191.7836758
0
ARC
8
DEFAULT_255_1_388
10
24.9097482
20
21.0991495
40
1.3642984
50
171.4523743
51
180.3158856
0
ARC
8
DEFAULT_255_1_388
10
24.4153209
20
21.1760895
40
0.8639311
50
157.9802296
51
171.6246761
0
ARC
8
DEFAULT_255_1_388
10
24.1662559
20
21.2754038
40
0.5958004
50
141.4299236
51
157.8541251
0
ARC
8
DEFAULT_255_1_388
10
24.0940643
20
21.3264746
40
0.5075416
50
102.871586
51
140.8564533
0
ARC
8
DEFAULT_255_1_388
10
24.1669195
20
21.0519943
40
0.7914163
50
90.377773
51
103.5868422
0
ARC
8
DEFAULT_255_1_388
10
23.9713717
20
20.9839543
40
0.2667015
50
89.8751238
51
126.2072139
0
ARC
8
DEFAULT_255_1_388
10
23.9765188
20
20.9665847
40
0.2838229
50
124.9742447
51
144.8960197
0
ARC
8
DEFAULT_255_1_388
10
23.9567433
20
20.9826981
40
0.2583845
50
145.2974778
51
160.2660922
0
ARC
8
DEFAULT_255_1_388
10
24.3023921
20
21.0049151
40
0.5888695
50
179.6512124
51
190.285571
0
ARC
8
DEFAULT_255_1_388
10
24.1118401
20
20.9689968
40
0.3949683
50
190.0944895
51
207.5099647
0
ARC
8
DEFAULT_255_1_388
10
24.0481982
20
20.9387177
40
0.3245464
50
207.9585471
51
216.325377
0
ARC
8
DEFAULT_255_1_388
10
24.0099619
20
20.9072712
40
0.2751259
50
215.7661336
51
232.5457193
0
ARC
8
DEFAULT_255_1_388
10
23.9668735
20
20.8525273
40
0.2054668
50
232.8005815
51
270.6605497
0
ARC
8
DEFAULT_255_1_388
10
23.972016
20
20.8934853
40
0.2464268
50
269.3550767
51
288.474612
0
ARC
8
DEFAULT_255_1_388
10
23.9824667
20
20.8541721
40
0.2058436
50
289.1831976
51
322.9685307
0
ARC
8
DEFAULT_255_1_388
10
23.9136768
20
20.9084279
40
0.2934408
50
322.6007085
51
346.5183319
0
ARC
8
DEFAULT_255_1_388
10
23.7834524
20
20.9416434
40
0.4278249
50
346.2584622
51
358.7739592
0
ARC
8
DEFAULT_255_1_388
10
23.66831
20
20.9478829
40
0.5430876
50
358.3757628
51
0.0082477
0
ARC
8
DEFAULT_255_1_388
10
23.7539918
20
20.9509856
40
0.4574157
50
359.6211417
51
11.28403
0
ARC
8
DEFAULT_255_1_388
10
23.8976524
20
20.9809535
40
0.3106708
50
11.0483152
51
31.8145585
0
ARC
8
DEFAULT_255_1_388
10
23.9324229
20
20.9998045
40
0.2711963
50
32.3028554
51
38.0820598
0
ARC
8
DEFAULT_255_1_388
10
23.9797462
20
21.0426717
40
0.2075566
50
36.8249851
51
85.741667
0
ARC
8
DEFAULT_255_1_388
10
23.9721875
20
20.9863065
40
0.2643487
50
85.0150021
51
90.050843
0
LINE
8
DEFAULT_255_1_388
10
23.7460618
20
29.0896666
11
23.6123343
21
29.1240021
0
LINE
8
DEFAULT_255_1_388
10
23.6123343
20
29.1240021
11
23.679198
21
29.7799898
0
LINE
8
DEFAULT_255_1_388
10
23.679198
20
29.7799898
11
24.3532571
21
29.7799898
0
LINE
8
DEFAULT_255_1_388
10
24.3532571
20
29.7799898
11
24.3532571
21
29.6254803
0
LINE
8
DEFAULT_255_1_388
10
24.3532571
20
29.6254803
11
23.8210577
21
29.6254803
0
LINE
8
DEFAULT_255_1_388
10
23.8210577
20
29.6254803
11
23.7813008
21
29.2667652
0
LINE
8
DEFAULT_255_1_388
10
23.5653489
20
28.8104652
11
23.7234727
21
28.8104652
0
LINE
8
DEFAULT_255_1_388
10
23.7903365
20
29.1258092
11
23.7460618
21
29.0896666
0
ARC
8
DEFAULT_255_1_388
10
23.9899622
20
28.9090241
40
0.4141476
50
93.7181681
51
120.253934
0
ARC
8
DEFAULT_255_1_388
10
24.0005674
20
28.8181284
40
0.5055616
50
89.9660471
51
94.2495185
0
ARC
8
DEFAULT_255_1_388
10
24.0051496
20
28.8844154
40
0.4392953
50
73.8045384
51
90.5585736
0
ARC
8
DEFAULT_255_1_388
10
24.0315754
20
28.980952
40
0.3392225
50
41.3071072
51
73.543002
0
ARC
8
DEFAULT_255_1_388
10
23.9847574
20
28.9406461
40
0.4009977
50
13.5075837
51
41.2174839
0
ARC
8
DEFAULT_255_1_388
10
23.8000671
20
28.8922907
40
0.5918864
50
1.1330171
51
13.8830737
0
ARC
8
DEFAULT_255_1_388
10
23.6404317
20
28.8837522
40
0.7516787
50
359.9925091
51
1.5431298
0
ARC
8
DEFAULT_255_1_388
10
23.7848932
20
28.8791027
40
0.6072343
50
347.8572712
51
0.4294349
0
ARC
8
DEFAULT_255_1_388
10
23.9818066
20
28.8344898
40
0.4053482
50
323.6727442
51
348.1674594
0
ARC
8
DEFAULT_255_1_388
10
24.0149031
20
28.8143175
40
0.3667495
50
316.8171818
51
323.1486802
0
ARC
8
DEFAULT_255_1_388
10
24.0218155
20
28.8101612
40
0.358869
50
281.839603
51
316.5458142
0
ARC
8
DEFAULT_255_1_388
10
23.9795442
20
28.9851363
40
0.5388223
50
269.5770964
51
282.4214641
0
ARC
8
DEFAULT_255_1_388
10
23.9715363
20
28.961093
40
0.5147801
50
256.2425863
51
270.4486481
0
ARC
8
DEFAULT_255_1_388
10
23.9378891
20
28.8261124
40
0.3756708
50
228.9024379
51
256.33135
0
ARC
8
DEFAULT_255_1_388
10
23.9295871
20
28.8130054
40
0.360344
50
193.7536029
51
228.5272638
0
ARC
8
DEFAULT_255_1_388
10
24.0688436
20
28.8538463
40
0.5053599
50
184.9244437
51
194.4976052
0
ARC
8
DEFAULT_255_1_388
10
24.0905077
20
28.8578722
40
0.3700839
50
187.3596909
51
198.6733728
0
ARC
8
DEFAULT_255_1_388
10
23.9724321
20
28.8169373
40
0.2451195
50
198.4453795
51
217.7945479
0
ARC
8
DEFAULT_255_1_388
10
23.9391493
20
28.7933563
40
0.2043754
50
218.2887146
51
228.5613203
0
ARC
8
DEFAULT_255_1_388
10
23.95015
20
28.8081902
40
0.2227819
50
228.9652423
51
258.1237049
0
ARC
8
DEFAULT_255_1_388
10
23.9732937
20
28.9072964
40
0.3245374
50
257.7260585
51
270.4013717
0
ARC
8
DEFAULT_255_1_388
10
23.9783435
20
28.8572255
40
0.2744726
50
269.4204315
51
286.420998
0
ARC
8
DEFAULT_255_1_388
10
23.9950491
20
28.7965705
40
0.2115721
50
286.7250065
51
320.6004665
0
ARC
8
DEFAULT_255_1_388
10
23.9519407
20
28.8315527
40
0.2670878
50
320.6712228
51
344.5440474
0
ARC
8
DEFAULT_255_1_388
10
23.821812
20
28.8697394
40
0.4026927
50
344.241448
51
356.735803
0
ARC
8
DEFAULT_255_1_388
10
23.6814428
20
28.8813656
40
0.5435085
50
356.3547471
51
0.0507222
0
ARC
8
DEFAULT_255_1_388
10
23.8316693
20
28.8848812
40
0.3932934
50
359.5579289
51
12.9534322
0
ARC
8
DEFAULT_255_1_388
10
23.9503533
20
28.9136586
40
0.2711827
50
12.6489751
51
41.608121
0
ARC
8
DEFAULT_255_1_388
10
23.9762693
20
28.9356946
40
0.2371737
50
41.7851122
51
85.9892156
0
ARC
8
DEFAULT_255_1_388
10
23.9624003
20
28.8441738
40
0.3295244
50
84.6965848
51
90.0672125
0
ARC
8
DEFAULT_255_1_388
10
23.959757
20
28.7690118
40
0.4046926
50
89.6804991
51
99.161352
0
ARC
8
DEFAULT_255_1_388
10
23.9366579
20
28.9070848
40
0.2647044
50
98.9836248
51
113.8905702
0
ARC
8
DEFAULT_255_1_388
10
23.9108254
20
28.9680118
40
0.1985386
50
114.195234
51
127.3641866
0
LINE
8
DEFAULT_255_1_388
10
23.9766151
20
37.7174898
11
23.9766151
21
36.843743
0
LINE
8
DEFAULT_255_1_388
10
23.9766151
20
36.843743
11
24.1591352
21
36.843743
0
LINE
8
DEFAULT_255_1_388
10
24.1591352
20
36.843743
11
24.1591352
21
36.7073048
0
LINE
8
DEFAULT_255_1_388
10
24.1591352
20
36.7073048
11
23.9766151
21
36.7073048
0
LINE
8
DEFAULT_255_1_388
10
23.9766151
20
36.7073048
11
23.9766151
21
36.4019
0
LINE
8
DEFAULT_255_1_388
10
23.9766151
20
36.4019
11
23.8085521
21
36.4019
0
LINE
8
DEFAULT_255_1_388
10
23.8085521
20
36.4019
11
23.8085521
21
36.7073048
0
LINE
8
DEFAULT_255_1_388
10
23.8085521
20
36.7073048
11
23.2094889
21
36.7073048
0
LINE
8
DEFAULT_255_1_388
10
23.2094889
20
36.7073048
11
23.2094889
21
36.8057933
0
LINE
8
DEFAULT_255_1_388
10
23.2094889
20
36.8057933
11
23.7986129
21
37.7174898
0
LINE
8
DEFAULT_255_1_388
10
23.7986129
20
37.7174898
11
23.9766151
21
37.7174898
0
LINE
8
DEFAULT_255_1_388
10
23.7886737
20
37.4527455
11
23.3992375
21
36.843743
0
LINE
8
DEFAULT_255_1_388
10
23.3992375
20
36.843743
11
23.8085521
21
36.843743
0
LINE
8
DEFAULT_255_1_388
10
23.8085521
20
36.843743
11
23.8085521
21
37.488888
0
LINE
8
DEFAULT_255_1_388
10
23.8085521
20
37.488888
11
23.7886737
21
37.4527455
0
LINE
8
DEFAULT_255_1_388
10
23.7785901
20
44.9420775
11
23.7785901
21
45.0785157
0
LINE
8
DEFAULT_255_1_388
10
23.7785901
20
45.0785157
11
23.9041856
21
45.0785157
0
LINE
8
DEFAULT_255_1_388
10
23.6900408
20
45.3098282
11
23.5228814
21
45.3098282
0
LINE
8
DEFAULT_255_1_388
10
23.5111351
20
44.6863688
11
23.679198
21
44.6863688
0
LINE
8
DEFAULT_255_1_388
10
23.9041856
20
44.9420775
11
23.7785901
21
44.9420775
0
ARC
8
DEFAULT_255_1_388
10
23.9009082
20
45.4601922
40
0.3816905
50
270.491971
51
281.8953028
0
ARC
8
DEFAULT_255_1_388
10
23.9280509
20
45.3362199
40
0.2547877
50
281.6690378
51
301.2943765
0
ARC
8
DEFAULT_255_1_388
10
23.9471961
20
45.3011926
40
0.2149197
50
301.7834992
51
311.754567
0
ARC
8
DEFAULT_255_1_388
10
23.9575002
20
45.289765
40
0.1995326
50
311.7325027
51
354.2803031
0
ARC
8
DEFAULT_255_1_388
10
23.8757418
20
45.303828
40
0.2823461
50
353.0941646
51
0.1174696
0
ARC
8
DEFAULT_255_1_388
10
23.8238976
20
45.3091874
40
0.3342238
50
359.1804452
51
15.0452323
0
ARC
8
DEFAULT_255_1_388
10
23.9753034
20
45.3533546
40
0.1765747
50
13.957816
51
77.6713812
0
ARC
8
DEFAULT_255_1_388
10
23.931827
20
45.1975464
40
0.3381982
50
76.111571
51
90.7028736
0
ARC
8
DEFAULT_255_1_388
10
23.9251682
20
45.228325
40
0.3074046
50
89.5321574
51
103.5319393
0
ARC
8
DEFAULT_255_1_388
10
23.9026066
20
45.3182443
40
0.2147041
50
103.2930114
51
133.5619756
0
ARC
8
DEFAULT_255_1_388
10
23.8976007
20
45.3249351
40
0.2064084
50
133.8349761
51
173.5343225
0
ARC
8
DEFAULT_255_1_388
10
23.9789665
20
45.3105144
40
0.2889266
50
172.5097183
51
180.1360699
0
ARC
8
DEFAULT_255_1_388
10
23.8719429
20
45.314388
40
0.3490913
50
155.3483706
51
180.7484035
0
ARC
8
DEFAULT_255_1_388
10
23.8664404
20
45.3111519
40
0.3454798
50
131.5745177
51
154.4799474
0
ARC
8
DEFAULT_255_1_388
10
23.9016687
20
45.2755422
40
0.3955058
50
96.9874487
51
131.9690874
0
ARC
8
DEFAULT_255_1_388
10
23.926358
20
45.1354407
40
0.537622
50
89.8592909
51
97.7827481
0
ARC
8
DEFAULT_255_1_388
10
23.9317689
20
45.105936
40
0.5671399
50
78.3654493
51
90.4132586
0
ARC
8
DEFAULT_255_1_388
10
23.972033
20
45.2925918
40
0.3762034
50
56.6229818
51
78.6387103
0
ARC
8
DEFAULT_255_1_388
10
23.9962159
20
45.3348846
40
0.3275964
50
47.0254604
51
56.085558
0
ARC
8
DEFAULT_255_1_388
10
23.998441
20
45.3393189
40
0.3228382
50
10.9207523
51
46.777927
0
ARC
8
DEFAULT_255_1_388
10
23.8450004
20
45.3038401
40
0.4802559
50
359.6364235
51
11.6087615
0
ARC
8
DEFAULT_255_1_388
10
24.051417
20
45.3021404
40
0.273833
50
332.3549969
51
359.7179765
0
ARC
8
DEFAULT_255_1_388
10
23.978257
20
45.3368285
40
0.3547505
50
325.2332381
51
332.8746682
0
ARC
8
DEFAULT_255_1_388
10
23.9954153
20
45.3248763
40
0.3338396
50
292.9803892
51
325.2391113
0
ARC
8
DEFAULT_255_1_388
10
23.9643349
20
45.3853679
40
0.4016959
50
292.542178
51
293.6931461
0
ARC
8
DEFAULT_255_1_388
10
24.0086921
20
44.6588036
40
0.372079
50
57.643292
51
72.8626085
0
ARC
8
DEFAULT_255_1_388
10
24.0485755
20
44.7234273
40
0.2961455
50
36.7246661
51
57.4701329
0
ARC
8
DEFAULT_255_1_388
10
24.0472912
20
44.724847
40
0.2963321
50
8.054535
51
36.3561529
0
ARC
8
DEFAULT_255_1_388
10
23.9502585
20
44.7074073
40
0.3948682
50
359.8316595
51
8.5873361
0
ARC
8
DEFAULT_255_1_388
10
23.9080059
20
44.701997
40
0.4371398
50
343.9831631
51
0.557075
0
ARC
8
DEFAULT_255_1_388
10
24.0077108
20
44.6746963
40
0.3337749
50
311.6358204
51
343.7652116
0
ARC
8
DEFAULT_255_1_388
10
23.9651362
20
44.7226955
40
0.3979351
50
279.7829743
51
311.625622
0
ARC
8
DEFAULT_255_1_388
10
23.9312497
20
44.8843642
40
0.5630417
50
269.7285092
51
280.3857694
0
ARC
8
DEFAULT_255_1_388
10
23.924281
20
44.8797241
40
0.5584119
50
256.6827433
51
270.4412869
0
ARC
8
DEFAULT_255_1_388
10
23.8861797
20
44.7239698
40
0.3980715
50
229.4223821
51
256.8554507
0
ARC
8
DEFAULT_255_1_388
10
23.839535
20
44.6714683
40
0.3278564
50
181.8183354
51
229.6455015
0
ARC
8
DEFAULT_255_1_388
10
23.956496
20
44.6861825
40
0.4453611
50
179.9760419
51
183.2330638
0
ARC
8
DEFAULT_255_1_388
10
23.9371512
20
44.6838781
40
0.2579652
50
179.4467996
51
196.2871626
0
ARC
8
DEFAULT_255_1_388
10
23.8822966
20
44.6688709
40
0.2011057
50
196.5661293
51
227.7059371
0
ARC
8
DEFAULT_255_1_388
10
23.9007573
20
44.6895155
40
0.2287994
50
227.7653015
51
257.8763321
0
ARC
8
DEFAULT_255_1_388
10
23.9260656
20
44.7955961
40
0.3378385
50
257.4583525
51
270.4267406
0
ARC
8
DEFAULT_255_1_388
10
23.9311906
20
44.828223
40
0.3704652
50
269.5965319
51
280.8788143
0
ARC
8
DEFAULT_255_1_388
10
23.9570134
20
44.6992529
40
0.2389415
50
280.6347277
51
299.8594068
0
ARC
8
DEFAULT_255_1_388
10
23.9784903
20
44.6584736
40
0.19289
50
300.3575552
51
314.5515667
0
ARC
8
DEFAULT_255_1_388
10
23.9691579
20
44.6653025
40
0.204312
50
315.0730962
51
345.0429362
0
ARC
8
DEFAULT_255_1_388
10
23.8653087
20
44.6955539
40
0.31246
50
344.598526
51
357.9270698
0
ARC
8
DEFAULT_255_1_388
10
23.7643391
20
44.7024705
40
0.4136265
50
357.4755098
51
0.0224936
0
ARC
8
DEFAULT_255_1_388
10
23.8796269
20
44.7052099
40
0.2983498
50
359.5051035
51
13.4236939
0
ARC
8
DEFAULT_255_1_388
10
23.9771359
20
44.7301637
40
0.1977186
50
12.9497905
51
48.7550905
0
ARC
8
DEFAULT_255_1_388
10
23.9566281
20
44.7021373
40
0.2323321
50
49.509109
51
72.1832965
0
ARC
8
DEFAULT_255_1_388
10
23.9163749
20
44.5826632
40
0.358397
50
71.9008458
51
84.3555134
0
ARC
8
DEFAULT_255_1_388
10
23.8982144
20
44.4294712
40
0.512641
50
84.019632
51
89.3326067
0
LINE
8
DEFAULT_255_1_388
10
24.3975318
20
52.4133382
11
24.3975318
21
52.2769
0
LINE
8
DEFAULT_255_1_388
10
24.3975318
20
52.2769
11
23.5355313
21
52.2769
0
LINE
8
DEFAULT_255_1_388
10
23.5355313
20
52.2769
11
23.5355313
21
52.3970741
0
LINE
8
DEFAULT_255_1_388
10
23.5355313
20
52.3970741
11
23.9909278
21
52.9030702
0
LINE
8
DEFAULT_255_1_388
10
23.6773909
20
53.2048607
11
23.5102315
21
53.2048607
0
LINE
8
DEFAULT_255_1_388
10
24.0894163
20
52.795546
11
23.7370262
21
52.4133382
0
LINE
8
DEFAULT_255_1_388
10
23.7370262
20
52.4133382
11
24.3975318
21
52.4133382
0
ARC
8
DEFAULT_255_1_388
10
22.4733337
20
54.2450983
40
2.0258655
50
318.5132526
51
320.7829045
0
ARC
8
DEFAULT_255_1_388
10
23.0681294
20
53.7609929
40
1.2589638
50
320.7372878
51
323.9739031
0
ARC
8
DEFAULT_255_1_388
10
23.5090226
20
53.4415554
40
0.7145141
50
323.8962701
51
328.64194
0
ARC
8
DEFAULT_255_1_388
10
23.7392484
20
53.2995545
40
0.4440242
50
328.8294576
51
331.7891185
0
ARC
8
DEFAULT_255_1_388
10
23.8514804
20
53.2416374
40
0.3177517
50
331.4254512
51
352.9365785
0
ARC
8
DEFAULT_255_1_388
10
23.8667804
20
53.238205
40
0.3021496
50
353.2257659
51
0.0166158
0
ARC
8
DEFAULT_255_1_388
10
23.8904564
20
53.2407894
40
0.2784847
50
359.486299
51
15.9343185
0
ARC
8
DEFAULT_255_1_388
10
23.9474831
20
53.2561269
40
0.2194403
50
16.1712913
51
43.5286088
0
ARC
8
DEFAULT_255_1_388
10
23.9561776
20
53.2648191
40
0.2071504
50
43.4417391
51
83.1661095
0
ARC
8
DEFAULT_255_1_388
10
23.9410937
20
53.1819316
40
0.2912888
50
82.160179
51
90.1505708
0
ARC
8
DEFAULT_255_1_388
10
23.9375418
20
53.1215279
40
0.3517025
50
89.5460741
51
102.5418361
0
ARC
8
DEFAULT_255_1_388
10
23.9102138
20
53.2374933
40
0.2325748
50
102.1738499
51
129.206123
0
ARC
8
DEFAULT_255_1_388
10
23.9013592
20
53.2514664
40
0.2161591
50
129.72865
51
135.753947
0
ARC
8
DEFAULT_255_1_388
10
23.9150074
20
53.2405728
40
0.2335433
50
136.1757367
51
166.3673339
0
ARC
8
DEFAULT_255_1_388
10
24.0282762
20
53.2102148
40
0.3507873
50
165.9090694
51
178.8684636
0
ARC
8
DEFAULT_255_1_388
10
24.1258534
20
53.2049263
40
0.4484624
50
178.4391136
51
180.0083808
0
ARC
8
DEFAULT_255_1_388
10
23.9679235
20
53.2093197
40
0.4577138
50
163.2878482
51
180.5581842
0
ARC
8
DEFAULT_255_1_388
10
23.8777276
20
53.2341393
40
0.3641968
50
133.4540601
51
162.947111
0
ARC
8
DEFAULT_255_1_388
10
23.8978158
20
53.2127789
40
0.3935189
50
100.7869829
51
133.4382499
0
ARC
8
DEFAULT_255_1_388
10
23.9369403
20
53.0385399
40
0.5720313
50
89.660664
51
101.3702276
0
ARC
8
DEFAULT_255_1_388
10
23.9444012
20
53.0454263
40
0.5651495
50
78.2172678
51
90.412935
0
ARC
8
DEFAULT_255_1_388
10
23.9843478
20
53.2281511
40
0.378122
50
55.9269121
51
78.4888449
0
ARC
8
DEFAULT_255_1_388
10
24.0064193
20
53.2662187
40
0.3342379
50
47.929771
51
55.4049217
0
ARC
8
DEFAULT_255_1_388
10
24.0178723
20
53.2778618
40
0.3179217
50
4.334829
51
48.0560205
0
ARC
8
DEFAULT_255_1_388
10
23.8946525
20
53.2587487
40
0.442341
50
359.9251713
51
5.5971671
0
ARC
8
DEFAULT_255_1_388
10
23.942868
20
53.2650728
40
0.3941854
50
337.8914027
51
358.9967534
0
ARC
8
DEFAULT_255_1_388
10
23.637625
20
53.3828295
40
0.7213271
50
326.9132501
51
338.3508308
0
ARC
8
DEFAULT_255_1_388
10
23.1892362
20
53.6702105
40
1.2538973
50
319.6471833
51
327.0959558
0
ARC
8
DEFAULT_255_1_388
10
22.757902
20
54.026005
40
1.8129975
50
317.2588228
51
319.9045804
0
LINE
8
DEFAULT_255_1_388
10
24.0931985
20
61.5363148
11
24.0931985
21
60.2144
0
LINE
8
DEFAULT_255_1_388
10
24.0931985
20
60.2144
11
23.9251355
21
60.2144
0
LINE
8
DEFAULT_255_1_388
10
23.9251355
20
60.2144
11
23.9251355
21
61.328495
0
LINE
8
DEFAULT_255_1_388
10
23.9251355
20
61.328495
11
23.588106
21
61.2047066
0
LINE
8
DEFAULT_255_1_388
10
23.588106
20
61.2047066
11
23.588106
21
61.3565055
0
LINE
8
DEFAULT_255_1_388
10
23.588106
20
61.3565055
11
24.0669951
21
61.5363148
0
LINE
8
DEFAULT_255_1_388
10
24.0669951
20
61.5363148
11
24.0931985
21
61.5363148
0
ENDSEC
0
EOF