0
SECTION
2
HEADER
9
$MEASUREMENT
70
1
0
ENDSEC
0
SECTION
2
TABLES
0
TABLE
2
LTYPE
0
LTYPE
72
65
70
64
2
CONTINUOUS
3
______
73
0
40
0
0
ENDTAB
0
TABLE
2
LAYER
0
LAYER
2
DEFAULT_255_2_778
70
0
62
255
6
CONTINUOUS
0
LAYER
2
DEFAULT_255_1_388
70
0
62
255
6
CONTINUOUS
0
ENDTAB
0
ENDSEC
0
SECTION
2
ENTITIES
0
ARC
8
DEFAULT_255_2_778
10
3.5700693
20
139.3052021
40
0.7914215
50
129.1312896
51
180.1450914
0
ARC
8
DEFAULT_255_2_778
10
3.5703345
20
139.3056893
40
0.7912112
50
89.854026
51
129.1684493
0
ARC
8
DEFAULT_255_2_778
10
25.7993937
20
139.3053758
40
0.7915249
50
39.4792447
51
90.147911
0
ARC
8
DEFAULT_255_2_778
10
25.7999935
20
139.3052224
40
0.7911595
50
359.8533901
51
39.5154338
0
ARC
8
DEFAULT_255_2_778
10
25.7996693
20
-1.9863501
40
0.7914836
50
309.4761667
51
0.1482649
0
ARC
8
DEFAULT_255_2_778
10
25.799398
20
-1.9867812
40
0.7913235
50
269.8517415
51
309.511178
0
ARC
8
DEFAULT_255_2_778
10
3.570342
20
-1.986723
40
0.7913815
50
219.1282118
51
270.1454017
0
ARC
8
DEFAULT_255_2_778
10
3.5700247
20
-1.9863406
40
0.7913769
50
179.8524075
51
219.1641908
0
LINE
8
DEFAULT_255_2_778
10
3.5723503
20
140.096898
11
25.7973503
21
140.096898
0
LINE
8
DEFAULT_255_2_778
10
26.5911503
20
139.303198
11
26.5911503
21
-1.984302
0
LINE
8
DEFAULT_255_2_778
10
25.7973503
20
-2.778102
11
3.5723503
21
-2.778102
0
LINE
8
DEFAULT_255_2_778
10
2.7786503
20
-1.984302
11
2.7786503
21
139.303198
0
LINE
8
DEFAULT_255_1_388
10
9.8378094
20
-0.1247683
11
9.5278868
21
-0.1247683
0
LINE
8
DEFAULT_255_1_388
10
9.5278868
20
-0.1247683
11
9.5278868
21
-0.6398
0
LINE
8
DEFAULT_255_1_388
10
9.5278868
20
-0.6398
11
9.3544024
21
-0.6398
0
LINE
8
DEFAULT_255_1_388
10
9.3544024
20
-0.6398
11
9.3544024
21
0.6757898
0
LINE
8
DEFAULT_255_1_388
10
9.3544024
20
0.6757898
11
9.8396165
21
0.6757898
0
LINE
8
DEFAULT_255_1_388
10
9.5278868
20
0.5330267
11
9.5278868
21
0.0170914
0
LINE
8
DEFAULT_255_1_388
10
9.5278868
20
0.0170914
11
9.8396165
21
0.0170914
0
LINE
8
DEFAULT_255_1_388
10
9.8495557
20
0.5330267
11
9.5278868
21
0.5330267
0
ARC
8
DEFAULT_255_1_388
10
9.8443538
20
-0.0058666
40
0.6816729
50
78.8380084
51
90.398184
0
ARC
8
DEFAULT_255_1_388
10
9.8911569
20
0.2214796
40
0.449571
50
58.9633273
51
79.0810717
0
ARC
8
DEFAULT_255_1_388
10
9.9250953
20
0.2844823
40
0.3781049
50
48.0194715
51
58.4475592
0
ARC
8
DEFAULT_255_1_388
10
9.9350773
20
0.2940818
40
0.3642936
50
3.3374546
51
48.1766642
0
ARC
8
DEFAULT_255_1_388
10
9.796558
20
0.2741581
40
0.5038766
50
359.9483251
51
4.6822857
0
ARC
8
DEFAULT_255_1_388
10
9.8105503
20
0.2693779
40
0.4899031
50
346.1879032
51
0.5059221
0
ARC
8
DEFAULT_255_1_388
10
9.9634295
20
0.2296763
40
0.3319729
50
310.8832219
51
346.5426612
0
ARC
8
DEFAULT_255_1_388
10
9.9287143
20
0.2765853
40
0.3901853
50
286.6925305
51
310.228778
0
ARC
8
DEFAULT_255_1_388
10
9.8646873
20
0.4779585
40
0.6014737
50
274.6848219
51
287.0247342
0
ARC
8
DEFAULT_255_1_388
10
9.8393422
20
0.7264088
40
0.8511785
50
269.8968222
51
275.0192639
0
ARC
8
DEFAULT_255_1_388
10
9.8424415
20
0.4926144
40
0.4755314
50
269.6596206
51
279.4150542
0
ARC
8
DEFAULT_255_1_388
10
9.8713873
20
0.3248945
40
0.3053379
50
279.2050006
51
294.9901776
0
ARC
8
DEFAULT_255_1_388
10
9.9040508
20
0.2520353
40
0.2255036
50
295.2886769
51
311.2912669
0
ARC
8
DEFAULT_255_1_388
10
9.9120249
20
0.2401938
40
0.2113522
50
311.7853512
51
347.2860549
0
ARC
8
DEFAULT_255_1_388
10
9.801341
20
0.268643
40
0.3256011
50
346.6891629
51
0.1057086
0
ARC
8
DEFAULT_255_1_388
10
9.709087
20
0.2719247
40
0.417863
50
359.63239
51
359.9961329
0
ARC
8
DEFAULT_255_1_388
10
9.8255475
20
0.2746987
40
0.3014155
50
359.4673371
51
15.5931159
0
ARC
8
DEFAULT_255_1_388
10
9.8958538
20
0.2936937
40
0.2285918
50
15.7441779
51
46.620186
0
ARC
8
DEFAULT_255_1_388
10
9.8792298
20
0.2745361
40
0.2539359
50
46.8628482
51
75.6676625
0
ARC
8
DEFAULT_255_1_388
10
9.8461354
20
0.1554243
40
0.3775415
50
75.2763152
51
88.2916439
0
ARC
8
DEFAULT_255_1_388
10
9.8395354
20
0.0552097
40
0.4779221
50
87.8589087
51
88.7986197
0
LINE
8
DEFAULT_255_1_388
10
11.3404371
20
-0.5033618
11
11.3404371
21
-0.6398
0
LINE
8
DEFAULT_255_1_388
10
11.3404371
20
-0.6398
11
10.4784366
21
-0.6398
0
LINE
8
DEFAULT_255_1_388
10
10.4784366
20
-0.6398
11
10.4784366
21
-0.5196259
0
LINE
8
DEFAULT_255_1_388
10
10.4784366
20
-0.5196259
11
10.9338331
21
-0.0136298
0
LINE
8
DEFAULT_255_1_388
10
10.6202962
20
0.2881607
11
10.4531368
21
0.2881607
0
LINE
8
DEFAULT_255_1_388
10
11.0323216
20
-0.121154
11
10.6799314
21
-0.5033618
0
LINE
8
DEFAULT_255_1_388
10
10.6799314
20
-0.5033618
11
11.3404371
21
-0.5033618
0
ARC
8
DEFAULT_255_1_388
10
9.416239
20
1.3283983
40
2.0258655
50
318.5132526
51
320.7829045
0
ARC
8
DEFAULT_255_1_388
10
10.0110347
20
0.8442929
40
1.2589638
50
320.7372878
51
323.9739031
0
ARC
8
DEFAULT_255_1_388
10
10.4519279
20
0.5248554
40
0.7145141
50
323.8962701
51
328.64194
0
ARC
8
DEFAULT_255_1_388
10
10.6821536
20
0.3828545
40
0.4440242
50
328.8294576
51
331.7891185
0
ARC
8
DEFAULT_255_1_388
10
10.7943856
20
0.3249374
40
0.3177517
50
331.4254512
51
352.9365785
0
ARC
8
DEFAULT_255_1_388
10
10.8096856
20
0.321505
40
0.3021496
50
353.2257659
51
0.0166158
0
ARC
8
DEFAULT_255_1_388
10
10.8333617
20
0.3240894
40
0.2784847
50
359.486299
51
15.9343185
0
ARC
8
DEFAULT_255_1_388
10
10.8903884
20
0.3394269
40
0.2194403
50
16.1712913
51
43.5286088
0
ARC
8
DEFAULT_255_1_388
10
10.8990828
20
0.3481191
40
0.2071504
50
43.4417391
51
83.1661095
0
ARC
8
DEFAULT_255_1_388
10
10.8839989
20
0.2652316
40
0.2912888
50
82.160179
51
90.1505708
0
ARC
8
DEFAULT_255_1_388
10
10.8804471
20
0.2048279
40
0.3517025
50
89.5460741
51
102.5418361
0
ARC
8
DEFAULT_255_1_388
10
10.8531191
20
0.3207933
40
0.2325748
50
102.1738499
51
129.206123
0
ARC
8
DEFAULT_255_1_388
10
10.8442644
20
0.3347664
40
0.2161591
50
129.72865
51
135.753947
0
ARC
8
DEFAULT_255_1_388
10
10.8579127
20
0.3238728
40
0.2335433
50
136.1757367
51
166.3673339
0
ARC
8
DEFAULT_255_1_388
10
10.9711815
20
0.2935148
40
0.3507873
50
165.9090694
51
178.8684636
0
ARC
8
DEFAULT_255_1_388
10
11.0687586
20
0.2882263
40
0.4484624
50
178.4391136
51
180.0083808
0
ARC
8
DEFAULT_255_1_388
10
10.9108288
20
0.2926197
40
0.4577138
50
163.2878482
51
180.5581842
0
ARC
8
DEFAULT_255_1_388
10
10.8206329
20
0.3174393
40
0.3641968
50
133.4540601
51
162.947111
0
ARC
8
DEFAULT_255_1_388
10
10.8407211
20
0.2960789
40
0.3935189
50
100.7869829
51
133.4382499
0
ARC
8
DEFAULT_255_1_388
10
10.8798456
20
0.1218399
40
0.5720313
50
89.660664
51
101.3702276
0
ARC
8
DEFAULT_255_1_388
10
10.8873065
20
0.1287263
40
0.5651495
50
78.2172678
51
90.412935
0
ARC
8
DEFAULT_255_1_388
10
10.9272531
20
0.3114511
40
0.378122
50
55.9269121
51
78.4888449
0
ARC
8
DEFAULT_255_1_388
10
10.9493246
20
0.3495187
40
0.3342379
50
47.929771
51
55.4049217
0
ARC
8
DEFAULT_255_1_388
10
10.9607776
20
0.3611618
40
0.3179217
50
4.334829
51
48.0560205
0
ARC
8
DEFAULT_255_1_388
10
10.8375578
20
0.3420487
40
0.442341
50
359.9251713
51
5.5971671
0
ARC
8
DEFAULT_255_1_388
10
10.8857732
20
0.3483728
40
0.3941854
50
337.8914027
51
358.9967534
0
ARC
8
DEFAULT_255_1_388
10
10.5805303
20
0.4661295
40
0.7213271
50
326.9132501
51
338.3508308
0
ARC
8
DEFAULT_255_1_388
10
10.1321414
20
0.7535105
40
1.2538973
50
319.6471833
51
327.0959558
0
ARC
8
DEFAULT_255_1_388
10
9.7008073
20
1.109305
40
1.8129975
50
317.2588228
51
319.9045804
0
LINE
8
DEFAULT_255_1_388
10
11.8825757
20
-0.0127263
11
11.8825757
21
-0.1491645
0
LINE
8
DEFAULT_255_1_388
10
11.8825757
20
-0.1491645
11
11.4416363
21
-0.1491645
0
LINE
8
DEFAULT_255_1_388
10
11.4416363
20
-0.1491645
11
11.4416363
21
-0.0127263
0
LINE
8
DEFAULT_255_1_388
10
11.4416363
20
-0.0127263
11
11.8825757
21
-0.0127263
0
LINE
8
DEFAULT_255_1_388
10
12.5774168
20
0.6821148
11
12.5774168
21
-0.6398
0
LINE
8
DEFAULT_255_1_388
10
12.5774168
20
-0.6398
11
12.4093538
21
-0.6398
0
LINE
8
DEFAULT_255_1_388
10
12.4093538
20
-0.6398
11
12.4093538
21
0.474295
0
LINE
8
DEFAULT_255_1_388
10
12.4093538
20
0.474295
11
12.0723243
21
0.3505066
0
LINE
8
DEFAULT_255_1_388
10
12.0723243
20
0.3505066
11
12.0723243
21
0.5023055
0
LINE
8
DEFAULT_255_1_388
10
12.0723243
20
0.5023055
11
12.5512134
21
0.6821148
0
LINE
8
DEFAULT_255_1_388
10
12.5512134
20
0.6821148
11
12.5774168
21
0.6821148
0
LINE
8
DEFAULT_255_1_388
10
13.6933189
20
0.6766934
11
13.7231365
21
0.6766934
0
LINE
8
DEFAULT_255_1_388
10
13.7231365
20
0.6766934
11
13.7231365
21
0.5348338
0
LINE
8
DEFAULT_255_1_388
10
13.7231365
20
0.5348338
11
13.6924153
21
0.5348338
0
LINE
8
DEFAULT_255_1_388
10
13.0770879
20
-0.1392253
11
13.0770879
21
-0.0750722
0
LINE
8
DEFAULT_255_1_388
10
13.2451509
20
-0.0967578
11
13.2451509
21
-0.1582001
0
ARC
8
DEFAULT_255_1_388
10
13.6983045
20
-0.0274174
40
0.562282
50
90.6001079
51
104.5146616
0
ARC
8
DEFAULT_255_1_388
10
13.6546004
20
0.13511
40
0.3939917
50
104.2855758
51
133.8630124
0
ARC
8
DEFAULT_255_1_388
10
13.6730257
20
0.1229243
40
0.4155734
50
134.5304124
51
161.6210222
0
ARC
8
DEFAULT_255_1_388
10
13.8590189
20
0.0573421
40
0.6127682
50
161.2850533
51
174.2074364
0
ARC
8
DEFAULT_255_1_388
10
14.0179756
20
0.0354437
40
0.7731446
50
173.7817938
51
174.9251711
0
ARC
8
DEFAULT_255_1_388
10
13.505395
20
-0.120073
40
0.3412588
50
95.8332067
51
138.995412
0
ARC
8
DEFAULT_255_1_388
10
13.530523
20
-0.2639305
40
0.4870358
50
89.8755506
51
97.0540979
0
ARC
8
DEFAULT_255_1_388
10
13.5358619
20
-0.1699159
40
0.3930432
50
71.6407016
51
90.6240821
0
ARC
8
DEFAULT_255_1_388
10
13.5528013
20
-0.1075567
40
0.3285421
50
39.6368051
51
71.0190743
0
ARC
8
DEFAULT_255_1_388
10
13.481192
20
-0.1694414
40
0.4231706
50
10.6588054
51
39.9044509
0
ARC
8
DEFAULT_255_1_388
10
13.3070466
20
-0.2072777
40
0.60133
50
359.6827842
51
11.1326896
0
ARC
8
DEFAULT_255_1_388
10
13.3025802
20
-0.2152285
40
0.6058047
50
347.2485908
51
0.4371098
0
ARC
8
DEFAULT_255_1_388
10
13.4901587
20
-0.2603621
40
0.4128987
50
318.1408565
51
347.6118497
0
ARC
8
DEFAULT_255_1_388
10
13.5267184
20
-0.2904097
40
0.3656244
50
275.6342406
51
317.824739
0
ARC
8
DEFAULT_255_1_388
10
13.5018705
20
-0.1442173
40
0.513655
50
269.8872513
51
276.7916069
0
ARC
8
DEFAULT_255_1_388
10
13.4956897
20
-0.2595819
40
0.398323
50
246.9139443
51
270.7436787
0
ARC
8
DEFAULT_255_1_388
10
13.4964093
20
-0.2755956
40
0.3839368
50
218.1665534
51
245.8780431
0
ARC
8
DEFAULT_255_1_388
10
13.5953465
20
-0.1928097
40
0.5128958
50
191.4115343
51
218.6077624
0
ARC
8
DEFAULT_255_1_388
10
13.8133781
20
-0.1439223
40
0.7363054
50
179.6344971
51
191.7836758
0
ARC
8
DEFAULT_255_1_388
10
14.4413656
20
-0.0675505
40
1.3642984
50
171.4523743
51
180.3158856
0
ARC
8
DEFAULT_255_1_388
10
13.9469383
20
0.0093895
40
0.8639311
50
157.9802296
51
171.6246761
0
ARC
8
DEFAULT_255_1_388
10
13.6978733
20
0.1087038
40
0.5958004
50
141.4299236
51
157.8541251
0
ARC
8
DEFAULT_255_1_388
10
13.6256817
20
0.1597746
40
0.5075416
50
102.871586
51
140.8564533
0
ARC
8
DEFAULT_255_1_388
10
13.698537
20
-0.1147057
40
0.7914163
50
90.377773
51
103.5868422
0
ARC
8
DEFAULT_255_1_388
10
13.5029891
20
-0.1827457
40
0.2667015
50
89.8751238
51
126.2072139
0
ARC
8
DEFAULT_255_1_388
10
13.5081362
20
-0.2001153
40
0.2838229
50
124.9742447
51
144.8960197
0
ARC
8
DEFAULT_255_1_388
10
13.4883607
20
-0.1840019
40
0.2583845
50
145.2974778
51
160.2660922
0
ARC
8
DEFAULT_255_1_388
10
13.8340095
20
-0.1617849
40
0.5888695
50
179.6512124
51
190.285571
0
ARC
8
DEFAULT_255_1_388
10
13.6434575
20
-0.1977032
40
0.3949683
50
190.0944895
51
207.5099647
0
ARC
8
DEFAULT_255_1_388
10
13.5798157
20
-0.2279823
40
0.3245464
50
207.9585471
51
216.325377
0
ARC
8
DEFAULT_255_1_388
10
13.5415794
20
-0.2594288
40
0.2751259
50
215.7661336
51
232.5457193
0
ARC
8
DEFAULT_255_1_388
10
13.4984909
20
-0.3141727
40
0.2054668
50
232.8005815
51
270.6605497
0
ARC
8
DEFAULT_255_1_388
10
13.5036334
20
-0.2732147
40
0.2464268
50
269.3550767
51
288.474612
0
ARC
8
DEFAULT_255_1_388
10
13.5140841
20
-0.3125279
40
0.2058436
50
289.1831976
51
322.9685307
0
ARC
8
DEFAULT_255_1_388
10
13.4452942
20
-0.2582721
40
0.2934408
50
322.6007085
51
346.5183319
0
ARC
8
DEFAULT_255_1_388
10
13.3150699
20
-0.2250566
40
0.4278249
50
346.2584622
51
358.7739592
0
ARC
8
DEFAULT_255_1_388
10
13.1999274
20
-0.2188171
40
0.5430876
50
358.3757628
51
0.0082477
0
ARC
8
DEFAULT_255_1_388
10
13.2856092
20
-0.2157144
40
0.4574157
50
359.6211417
51
11.28403
0
ARC
8
DEFAULT_255_1_388
10
13.4292699
20
-0.1857465
40
0.3106708
50
11.0483152
51
31.8145585
0
ARC
8
DEFAULT_255_1_388
10
13.4640404
20
-0.1668955
40
0.2711963
50
32.3028554
51
38.0820598
0
ARC
8
DEFAULT_255_1_388
10
13.5113637
20
-0.1240283
40
0.2075566
50
36.8249851
51
85.741667
0
ARC
8
DEFAULT_255_1_388
10
13.5038049
20
-0.1803935
40
0.2643487
50
85.0150021
51
90.050843
0
LINE
8
DEFAULT_255_1_388
10
15.1607076
20
0.6757898
11
15.1607076
21
-0.6398
0
LINE
8
DEFAULT_255_1_388
10
15.1607076
20
-0.6398
11
14.9863196
21
-0.6398
0
LINE
8
DEFAULT_255_1_388
10
14.9863196
20
-0.6398
11
14.3240069
21
0.3739993
0
LINE
8
DEFAULT_255_1_388
10
14.3240069
20
0.3739993
11
14.3240069
21
-0.6398
0
LINE
8
DEFAULT_255_1_388
10
14.3240069
20
-0.6398
11
14.1496189
21
-0.6398
0
LINE
8
DEFAULT_255_1_388
10
14.1496189
20
-0.6398
11
14.1496189
21
0.6757898
0
LINE
8
DEFAULT_255_1_388
10
14.1496189
20
0.6757898
11
14.3240069
21
0.6757898
0
LINE
8
DEFAULT_255_1_388
10
14.3240069
20
0.6757898
11
14.9881268
21
-0.3425273
0
LINE
8
DEFAULT_255_1_388
10
14.9881268
20
-0.3425273
11
14.9881268
21
0.6757898
0
LINE
8
DEFAULT_255_1_388
10
14.9881268
20
0.6757898
11
15.1607076
21
0.6757898
0
LINE
8
DEFAULT_255_1_388
10
15.8329595
20
-0.6398
11
15.468823
21
-0.6398
0
LINE
8
DEFAULT_255_1_388
10
15.468823
20
-0.6398
11
15.468823
21
0.6757898
0
LINE
8
DEFAULT_255_1_388
10
15.468823
20
0.6757898
11
15.840188
21
0.6757898
0
LINE
8
DEFAULT_255_1_388
10
16.4202764
20
0.0622696
11
16.4202764
21
-0.0217619
0
LINE
8
DEFAULT_255_1_388
10
15.8447059
20
0.5330267
11
15.6423074
21
0.5330267
0
LINE
8
DEFAULT_255_1_388
10
15.6423074
20
0.5330267
11
15.6423074
21
-0.4979404
0
LINE
8
DEFAULT_255_1_388
10
15.6423074
20
-0.4979404
11
15.8248274
21
-0.4979404
0
LINE
8
DEFAULT_255_1_388
10
16.2485992
20
-0.0181477
11
16.2485992
21
0.0586553
0
ARC
8
DEFAULT_255_1_388
10
15.8445675
20
0.0159436
40
0.6598608
50
75.4100343
51
90.3802731
0
ARC
8
DEFAULT_255_1_388
10
15.8703921
20
0.1235691
40
0.5492049
50
60.1455157
51
75.1889627
0
ARC
8
DEFAULT_255_1_388
10
15.8882512
20
0.1546914
40
0.5133226
50
26.525419
51
60.1451222
0
ARC
8
DEFAULT_255_1_388
10
15.7622298
20
0.0878642
40
0.6559324
50
7.4029944
51
26.832209
0
ARC
8
DEFAULT_255_1_388
10
15.5828696
20
0.0599229
40
0.8374103
50
0.1605597
51
7.7176135
0
ARC
8
DEFAULT_255_1_388
10
15.6013096
20
-0.0260679
40
0.8189782
50
348.7289744
51
0.30125
0
ARC
8
DEFAULT_255_1_388
10
15.787656
20
-0.0630844
40
0.628991
50
333.0706936
51
348.7181455
0
ARC
8
DEFAULT_255_1_388
10
15.8964188
20
-0.1221551
40
0.5052808
50
299.2531435
51
333.4571133
0
ARC
8
DEFAULT_255_1_388
10
15.8558219
20
-0.0450371
40
0.5924066
50
278.1072193
51
299.0340218
0
ARC
8
DEFAULT_255_1_388
10
15.8270268
20
0.1245979
40
0.7644209
50
270.4446841
51
278.4508355
0
ARC
8
DEFAULT_255_1_388
10
15.8293751
20
0.02003
40
0.5179903
50
269.4969684
51
284.0204874
0
ARC
8
DEFAULT_255_1_388
10
15.869347
20
-0.1335585
40
0.3592968
50
283.7699076
51
318.1557121
0
ARC
8
DEFAULT_255_1_388
10
15.8314015
20
-0.1051601
40
0.4065308
50
318.7417595
51
343.687252
0
ARC
8
DEFAULT_255_1_388
10
15.6284594
20
-0.0417725
40
0.6191194
50
343.3324891
51
355.8548594
0
ARC
8
DEFAULT_255_1_388
10
15.3923631
20
-0.0193281
40
0.856237
50
355.4988754
51
0.0789913
0
ARC
8
DEFAULT_255_1_388
10
15.480443
20
0.063408
40
0.7681709
50
359.6455047
51
9.8607559
0
ARC
8
DEFAULT_255_1_388
10
15.7460154
20
0.1113664
40
0.498312
50
9.6573037
51
26.1931522
0
ARC
8
DEFAULT_255_1_388
10
15.8504228
20
0.1598587
40
0.3832303
50
26.5777895
51
40.1533752
0
ARC
8
DEFAULT_255_1_388
10
15.8791893
20
0.182302
40
0.3467742
50
40.3839958
51
80.1430923
0
ARC
8
DEFAULT_255_1_388
10
15.8424149
20
0.0192486
40
0.5137832
50
79.2153636
51
89.7445174
0
LINE
8
DEFAULT_255_1_388
10
16.8819979
20
-0.0371225
11
16.8819979
21
0.0993157
0
LINE
8
DEFAULT_255_1_388
10
16.8819979
20
0.0993157
11
17.0075933
21
0.0993157
0
LINE
8
DEFAULT_255_1_388
10
16.7934485
20
0.3306282
11
16.6262891
21
0.3306282
0
LINE
8
DEFAULT_255_1_388
10
16.6145428
20
-0.2928313
11
16.7826058
21
-0.2928313
0
LINE
8
DEFAULT_255_1_388
10
17.0075933
20
-0.0371225
11
16.8819979
21
-0.0371225
0
ARC
8
DEFAULT_255_1_388
10
17.004316
20
0.4809922
40
0.3816905
50
270.491971
51
281.8953028
0
ARC
8
DEFAULT_255_1_388
10
17.0314587
20
0.3570199
40
0.2547877
50
281.6690378
51
301.2943765
0
ARC
8
DEFAULT_255_1_388
10
17.0506038
20
0.3219926
40
0.2149197
50
301.7834992
51
311.754567
0
ARC
8
DEFAULT_255_1_388
10
17.0609079
20
0.310565
40
0.1995326
50
311.7325027
51
354.2803031
0
ARC
8
DEFAULT_255_1_388
10
16.9791495
20
0.324628
40
0.2823461
50
353.0941646
51
0.1174696
0
ARC
8
DEFAULT_255_1_388
10
16.9273053
20
0.3299874
40
0.3342238
50
359.1804452
51
15.0452323
0
ARC
8
DEFAULT_255_1_388
10
17.0787111
20
0.3741546
40
0.1765747
50
13.957816
51
77.6713812
0
ARC
8
DEFAULT_255_1_388
10
17.0352347
20
0.2183464
40
0.3381982
50
76.111571
51
90.7028736
0
ARC
8
DEFAULT_255_1_388
10
17.0285759
20
0.249125
40
0.3074046
50
89.5321574
51
103.5319393
0
ARC
8
DEFAULT_255_1_388
10
17.0060143
20
0.3390443
40
0.2147041
50
103.2930114
51
133.5619756
0
ARC
8
DEFAULT_255_1_388
10
17.0010085
20
0.3457351
40
0.2064084
50
133.8349761
51
173.5343225
0
ARC
8
DEFAULT_255_1_388
10
17.0823742
20
0.3313144
40
0.2889266
50
172.5097183
51
180.1360699
0
ARC
8
DEFAULT_255_1_388
10
16.9753506
20
0.335188
40
0.3490913
50
155.3483706
51
180.7484035
0
ARC
8
DEFAULT_255_1_388
10
16.9698482
20
0.3319519
40
0.3454798
50
131.5745177
51
154.4799474
0
ARC
8
DEFAULT_255_1_388
10
17.0050764
20
0.2963422
40
0.3955058
50
96.9874487
51
131.9690874
0
ARC
8
DEFAULT_255_1_388
10
17.0297657
20
0.1562407
40
0.537622
50
89.8592909
51
97.7827481
0
ARC
8
DEFAULT_255_1_388
10
17.0351766
20
0.126736
40
0.5671399
50
78.3654493
51
90.4132586
0
ARC
8
DEFAULT_255_1_388
10
17.0754407
20
0.3133918
40
0.3762034
50
56.6229818
51
78.6387103
0
ARC
8
DEFAULT_255_1_388
10
17.0996236
20
0.3556846
40
0.3275964
50
47.0254604
51
56.085558
0
ARC
8
DEFAULT_255_1_388
10
17.1018487
20
0.3601189
40
0.3228382
50
10.9207523
51
46.777927
0
ARC
8
DEFAULT_255_1_388
10
16.9484081
20
0.3246401
40
0.4802559
50
359.6364235
51
11.6087615
0
ARC
8
DEFAULT_255_1_388
10
17.1548247
20
0.3229404
40
0.273833
50
332.3549969
51
359.7179765
0
ARC
8
DEFAULT_255_1_388
10
17.0816647
20
0.3576285
40
0.3547505
50
325.2332381
51
332.8746682
0
ARC
8
DEFAULT_255_1_388
10
17.098823
20
0.3456763
40
0.3338396
50
292.9803892
51
325.2391113
0
ARC
8
DEFAULT_255_1_388
10
17.0677426
20
0.4061679
40
0.4016959
50
292.542178
51
293.6931461
0
ARC
8
DEFAULT_255_1_388
10
17.1120998
20
-0.3203964
40
0.372079
50
57.643292
51
72.8626085
0
ARC
8
DEFAULT_255_1_388
10
17.1519833
20
-0.2557727
40
0.2961455
50
36.7246661
51
57.4701329
0
ARC
8
DEFAULT_255_1_388
10
17.1506989
20
-0.254353
40
0.2963321
50
8.054535
51
36.3561529
0
ARC
8
DEFAULT_255_1_388
10
17.0536662
20
-0.2717927
40
0.3948682
50
359.8316595
51
8.5873361
0
ARC
8
DEFAULT_255_1_388
10
17.0114136
20
-0.277203
40
0.4371398
50
343.9831631
51
0.557075
0
ARC
8
DEFAULT_255_1_388
10
17.1111186
20
-0.3045037
40
0.3337749
50
311.6358204
51
343.7652116
0
ARC
8
DEFAULT_255_1_388
10
17.0685439
20
-0.2565045
40
0.3979351
50
279.7829743
51
311.625622
0
ARC
8
DEFAULT_255_1_388
10
17.0346575
20
-0.0948358
40
0.5630417
50
269.7285092
51
280.3857694
0
ARC
8
DEFAULT_255_1_388
10
17.0276888
20
-0.0994759
40
0.5584119
50
256.6827433
51
270.4412869
0
ARC
8
DEFAULT_255_1_388
10
16.9895874
20
-0.2552302
40
0.3980715
50
229.4223821
51
256.8554507
0
ARC
8
DEFAULT_255_1_388
10
16.9429427
20
-0.3077317
40
0.3278564
50
181.8183354
51
229.6455015
0
ARC
8
DEFAULT_255_1_388
10
17.0599037
20
-0.2930175
40
0.4453611
50
179.9760419
51
183.2330638
0
ARC
8
DEFAULT_255_1_388
10
17.0405589
20
-0.2953219
40
0.2579652
50
179.4467996
51
196.2871626
0
ARC
8
DEFAULT_255_1_388
10
16.9857043
20
-0.3103291
40
0.2011057
50
196.5661293
51
227.7059371
0
ARC
8
DEFAULT_255_1_388
10
17.004165
20
-0.2896845
40
0.2287994
50
227.7653015
51
257.8763321
0
ARC
8
DEFAULT_255_1_388
10
17.0294733
20
-0.1836039
40
0.3378385
50
257.4583525
51
270.4267406
0
ARC
8
DEFAULT_255_1_388
10
17.0345983
20
-0.150977
40
0.3704652
50
269.5965319
51
280.8788143
0
ARC
8
DEFAULT_255_1_388
10
17.0604211
20
-0.2799471
40
0.2389415
50
280.6347277
51
299.8594068
0
ARC
8
DEFAULT_255_1_388
10
17.0818981
20
-0.3207264
40
0.19289
50
300.3575552
51
314.5515667
0
ARC
8
DEFAULT_255_1_388
10
17.0725656
20
-0.3138975
40
0.204312
50
315.0730962
51
345.0429362
0
ARC
8
DEFAULT_255_1_388
10
16.9687164
20
-0.2836461
40
0.31246
50
344.598526
51
357.9270698
0
ARC
8
DEFAULT_255_1_388
10
16.8677469
20
-0.2767295
40
0.4136265
50
357.4755098
51
0.0224936
0
ARC
8
DEFAULT_255_1_388
10
16.9830346
20
-0.2739901
40
0.2983498
50
359.5051035
51
13.4236939
0
ARC
8
DEFAULT_255_1_388
10
17.0805436
20
-0.2490363
40
0.1977186
50
12.9497905
51
48.7550905
0
ARC
8
DEFAULT_255_1_388
10
17.0600358
20
-0.2770627
40
0.2323321
50
49.509109
51
72.1832965
0
ARC
8
DEFAULT_255_1_388
10
17.0197826
20
-0.3965368
40
0.358397
50
71.9008458
51
84.3555134
0
ARC
8
DEFAULT_255_1_388
10
17.0016221
20
-0.5497288
40
0.512641
50
84.019632
51
89.3326067
0
LINE
8
DEFAULT_255_1_388
10
18.0430782
20
-0.0127263
11
18.0430782
21
-0.1491645
0
LINE
8
DEFAULT_255_1_388
10
18.0430782
20
-0.1491645
11
17.6021387
21
-0.1491645
0
LINE
8
DEFAULT_255_1_388
10
17.6021387
20
-0.1491645
11
17.6021387
21
-0.0127263
0
LINE
8
DEFAULT_255_1_388
10
17.6021387
20
-0.0127263
11
18.0430782
21
-0.0127263
0
LINE
8
DEFAULT_255_1_388
10
18.7379192
20
0.6821148
11
18.7379192
21
-0.6398
0
LINE
8
DEFAULT_255_1_388
10
18.7379192
20
-0.6398
11
18.5698563
21
-0.6398
0
LINE
8
DEFAULT_255_1_388
10
18.5698563
20
-0.6398
11
18.5698563
21
0.474295
0
LINE
8
DEFAULT_255_1_388
10
18.5698563
20
0.474295
11
18.2328267
21
0.3505066
0
LINE
8
DEFAULT_255_1_388
10
18.2328267
20
0.3505066
11
18.2328267
21
0.5023055
0
LINE
8
DEFAULT_255_1_388
10
18.2328267
20
0.5023055
11
18.7117159
21
0.6821148
0
LINE
8
DEFAULT_255_1_388
10
18.7117159
20
0.6821148
11
18.7379192
21
0.6821148
0
ARC
8
DEFAULT_255_2_778
10
8.4842378
20
137.6308433
40
0.4373747
50
56.3665942
51
72.7074496
0
ARC
8
DEFAULT_255_2_778
10
8.5215053
20
137.7444036
40
0.3178747
50
73.036784
51
89.7973226
0
ARC
8
DEFAULT_255_2_778
10
8.5288513
20
137.7220167
40
0.3403165
50
91.0475309
51
125.5485458
0
ARC
8
DEFAULT_255_2_778
10
8.6945904
20
137.4731582
40
0.6392287
50
124.6669492
51
139.114563
0
ARC
8
DEFAULT_255_2_778
10
8.9360319
20
137.2497476
40
0.9680575
50
138.4713305
51
142.1157612
0
ARC
8
DEFAULT_255_2_778
10
8.5585787
20
137.2804798
40
0.5212765
50
117.7453356
51
135.8758074
0
ARC
8
DEFAULT_255_2_778
10
8.4614378
20
137.4628273
40
0.3146729
50
90.4656379
51
117.5483702
0
ARC
8
DEFAULT_255_2_778
10
8.4553272
20
137.4475634
40
0.3299454
50
64.3679478
51
89.3829577
0
ARC
8
DEFAULT_255_2_778
10
8.4230062
20
137.3659901
40
0.4175182
50
64.8738747
51
65.2115951
0
LINE
8
DEFAULT_255_2_778
10
8.1719896
20
137.8442008
11
8.1719896
21
138.0202008
0
LINE
8
DEFAULT_255_2_778
10
8.1719896
20
138.0202008
11
7.8316896
21
138.0202008
0
LINE
8
DEFAULT_255_2_778
10
7.8316896
20
138.0202008
11
7.8316896
21
136.8015008
0
LINE
8
DEFAULT_255_2_778
10
7.8316896
20
136.8015008
11
8.1970896
21
136.8015008
0
LINE
8
DEFAULT_255_2_778
10
8.1970896
20
136.8015008
11
8.1843896
21
137.6434008
0
LINE
8
DEFAULT_255_2_778
10
8.6002896
20
137.7440008
11
8.7264896
21
137.9950008
0
ARC
8
DEFAULT_255_2_778
10
12.3462297
20
137.1889166
40
0.1058286
50
290.4109967
51
338.4144294
0
ARC
8
DEFAULT_255_2_778
10
12.162295
20
137.558021
40
0.5177505
50
282.5203845
51
295.2483499
0
ARC
8
DEFAULT_255_2_778
10
12.2164596
20
137.4246179
40
0.3756367
50
270.2518229
51
277.9224239
0
ARC
8
DEFAULT_255_2_778
10
12.2019255
20
137.2121058
40
0.163922
50
191.9135594
51
275.6664103
0
ARC
8
DEFAULT_255_2_778
10
12.266424
20
137.3396972
40
0.6680449
50
207.8643513
51
221.7718618
0
ARC
8
DEFAULT_255_2_778
10
12.0489477
20
137.1332613
40
0.3684417
50
220.3588923
51
270.0277924
0
ARC
8
DEFAULT_255_2_778
10
12.0434926
20
137.2653085
40
0.5005206
50
270.6449322
51
287.6494066
0
ARC
8
DEFAULT_255_2_778
10
11.9529907
20
137.5612608
40
0.8099892
50
287.4026496
51
297.6988649
0
ARC
8
DEFAULT_255_2_778
10
11.7449905
20
137.9644576
40
1.2636684
50
297.5514274
51
304.3018591
0
LINE
8
DEFAULT_255_2_778
10
12.0415344
20
137.1782664
11
12.0351344
21
138.0262664
0
LINE
8
DEFAULT_255_2_778
10
12.0351344
20
138.0262664
11
11.6758344
21
138.0262664
0
LINE
8
DEFAULT_255_2_778
10
11.6758344
20
138.0262664
11
11.6758344
21
137.0274664
0
LINE
8
DEFAULT_255_2_778
10
12.4571344
20
136.9205664
11
12.4698344
21
136.8075664
0
LINE
8
DEFAULT_255_2_778
10
12.4698344
20
136.8075664
11
12.8101344
21
136.8075664
0
LINE
8
DEFAULT_255_2_778
10
12.8101344
20
136.8075664
11
12.8101344
21
138.0389664
0
LINE
8
DEFAULT_255_2_778
10
12.8101344
20
138.0389664
11
12.4444344
21
138.0389664
0
LINE
8
DEFAULT_255_2_778
10
12.4444344
20
138.0389664
11
12.4444344
21
137.1467664
0
LINE
8
DEFAULT_255_2_778
10
15.1797344
20
136.8012664
11
15.1797344
21
138.0326664
0
LINE
8
DEFAULT_255_2_778
10
15.1797344
20
138.0326664
11
15.5453344
21
138.0326664
0
LINE
8
DEFAULT_255_2_778
10
15.5453344
20
138.0326664
11
15.5453344
21
136.8012664
0
LINE
8
DEFAULT_255_2_778
10
15.5453344
20
136.8012664
11
15.1797344
21
136.8012664
0
ARC
8
DEFAULT_255_2_778
10
15.3647435
20
138.425366
40
0.1978332
50
90.7257917
51
180.9507563
0
ARC
8
DEFAULT_255_2_778
10
15.3597161
20
138.4254493
40
0.1977501
50
359.0247012
51
89.2694187
0
ARC
8
DEFAULT_255_2_778
10
15.3597161
20
138.4187174
40
0.1977501
50
270.7305813
51
0.9752988
0
ARC
8
DEFAULT_255_2_778
10
15.3647435
20
138.4188007
40
0.1978332
50
179.0492437
51
269.2742083
0
LINE
8
DEFAULT_255_2_778
10
15.1669375
20
138.4220833
11
15.1669375
21
138.4220833
0
LINE
8
DEFAULT_255_2_778
10
16.8729729
20
136.7979854
11
16.8729729
21
138.0293854
0
LINE
8
DEFAULT_255_2_778
10
16.8729729
20
138.0293854
11
17.2386729
21
138.0293854
0
LINE
8
DEFAULT_255_2_778
10
17.2386729
20
138.0293854
11
17.2386729
21
136.7979854
0
LINE
8
DEFAULT_255_2_778
10
17.2386729
20
136.7979854
11
16.8729729
21
136.7979854
0
ARC
8
DEFAULT_255_2_778
10
17.0581435
20
138.422166
40
0.1978332
50
90.7257917
51
180.9507563
0
ARC
8
DEFAULT_255_2_778
10
17.0531161
20
138.4222493
40
0.1977501
50
359.0247012
51
89.2694187
0
ARC
8
DEFAULT_255_2_778
10
17.0531161
20
138.4155174
40
0.1977501
50
270.7305813
51
0.9752988
0
ARC
8
DEFAULT_255_2_778
10
17.0581435
20
138.4156007
40
0.1978332
50
179.0492437
51
269.2742083
0
LINE
8
DEFAULT_255_2_778
10
16.8603375
20
138.4188833
11
16.8603375
21
138.4188833
0
ARC
8
DEFAULT_255_2_778
10
21.970418
20
136.6564227
40
0.3997146
50
186.2131711
51
214.6577436
0
ARC
8
DEFAULT_255_2_778
10
21.8841491
20
136.6168601
40
0.3066997
50
217.744646
51
266.8145684
0
ARC
8
DEFAULT_255_2_778
10
21.9237244
20
136.8277036
40
0.5201599
50
263.7511447
51
266.7848801
0
ARC
8
DEFAULT_255_2_778
10
21.9002471
20
136.6334163
40
0.2402213
50
195.2759813
51
268.6413445
0
ARC
8
DEFAULT_255_2_778
10
22.1728439
20
136.7590818
40
0.5385664
50
193.3133601
51
200.5393414
0
ARC
8
DEFAULT_255_2_778
10
21.9558314
20
136.6061054
40
0.3084425
50
141.9154932
51
174.6130531
0
ARC
8
DEFAULT_255_2_778
10
21.8946765
20
136.6320396
40
0.2449229
50
90.0292982
51
137.86297
0
ARC
8
DEFAULT_255_2_778
10
21.8900311
20
136.6501835
40
0.3117117
50
89.169111
51
162.3562446
0
ARC
8
DEFAULT_255_2_778
10
22.1495641
20
136.5185256
40
0.6007672
50
157.8882743
51
162.6116909
0
ARC
8
DEFAULT_255_2_778
10
13.7518475
20
137.210969
40
0.434232
50
284.0737984
51
307.1283935
0
ARC
8
DEFAULT_255_2_778
10
13.6603344
20
137.5475455
40
0.7829896
50
272.5675489
51
284.5802087
0
ARC
8
DEFAULT_255_2_778
10
13.6344156
20
137.9064403
40
1.1427274
50
269.9523961
51
273.0596894
0
ARC
8
DEFAULT_255_2_778
10
13.6383034
20
138.2881179
40
1.5244123
50
264.3721605
51
269.8181894
0
ARC
8
DEFAULT_255_2_778
10
13.7027881
20
138.9598919
40
2.1992727
50
260.3040359
51
264.4165702
0
ARC
8
DEFAULT_255_2_778
10
13.7920902
20
139.5123156
40
2.75885
50
259.2299789
51
260.4081406
0
ARC
8
DEFAULT_255_2_778
10
13.5130405
20
137.3618783
40
0.6077178
50
188.8927198
51
247.0988028
0
ARC
8
DEFAULT_255_2_778
10
13.8555895
20
137.4530217
40
0.9609548
50
185.1081288
51
191.1050073
0
ARC
8
DEFAULT_255_2_778
10
13.7233792
20
137.380517
40
0.8250312
50
161.5072483
51
180.9066349
0
ARC
8
DEFAULT_255_2_778
10
13.4744453
20
137.4592627
40
0.5639907
50
120.4701872
51
161.0725957
0
ARC
8
DEFAULT_255_2_778
10
13.5600933
20
137.392527
40
0.6661417
50
90.0499347
51
123.9108507
0
ARC
8
DEFAULT_255_2_778
10
13.573003
20
137.235998
40
0.8227812
50
89.9974966
51
90.9394619
0
ARC
8
DEFAULT_255_2_778
10
13.567053
20
137.0749594
40
0.9838382
50
77.8335832
51
89.6513936
0
ARC
8
DEFAULT_255_2_778
10
13.4795686
20
136.6570554
40
1.4107957
50
69.8093959
51
77.9373312
0
ARC
8
DEFAULT_255_2_778
10
13.3760065
20
136.3552908
40
1.7297745
50
69.0266426
51
70.0397415
0
ARC
8
DEFAULT_255_2_778
10
13.5343739
20
136.3772164
40
1.4359408
50
73.9178594
51
79.2452957
0
ARC
8
DEFAULT_255_2_778
10
13.6318735
20
136.8975106
40
0.9065925
50
79.1629935
51
86.6049203
0
ARC
8
DEFAULT_255_2_778
10
13.649902
20
137.148833
40
0.654651
50
86.8774046
51
89.9568351
0
ARC
8
DEFAULT_255_2_778
10
13.64243
20
137.3861025
40
0.4174572
50
88.9067133
51
108.0688095
0
ARC
8
DEFAULT_255_2_778
10
13.5852023
20
137.5598459
40
0.2345328
50
107.942404
51
152.2459688
0
ARC
8
DEFAULT_255_2_778
10
14.2993316
20
137.2295872
40
1.0210941
50
154.5072776
51
162.5682748
0
ARC
8
DEFAULT_255_2_778
10
13.9273868
20
137.3443314
40
0.6318603
50
162.3915767
51
174.8213024
0
ARC
8
DEFAULT_255_2_778
10
13.7622439
20
137.3631421
40
0.4657093
50
175.2922289
51
179.9490984
0
ARC
8
DEFAULT_255_2_778
10
13.635088
20
137.3557528
40
0.338643
50
178.6796766
51
234.9381893
0
ARC
8
DEFAULT_255_2_778
10
13.6327313
20
137.3674177
40
0.3469445
50
236.3635337
51
264.9414885
0
ARC
8
DEFAULT_255_2_778
10
13.6587955
20
137.5429041
40
0.5241505
50
263.7947872
51
270.1188666
0
ARC
8
DEFAULT_255_2_778
10
13.6535226
20
137.7802912
40
0.7615633
50
270.4785196
51
281.0719661
0
ARC
8
DEFAULT_255_2_778
10
13.5692117
20
138.2341518
40
1.2231753
50
280.8649891
51
287.2606546
0
ARC
8
DEFAULT_255_2_778
10
14.6239491
20
139.0670775
40
2.2970478
50
276.5245429
51
279.5045514
0
ARC
8
DEFAULT_255_2_778
10
14.6893389
20
138.4894423
40
1.7157236
50
272.7759418
51
276.5469051
0
ARC
8
DEFAULT_255_2_778
10
14.7091281
20
138.1091849
40
1.3349546
50
270.0439674
51
272.7180028
0
ARC
8
DEFAULT_255_2_778
10
14.7005118
20
137.6410255
40
0.8668484
50
258.6359382
51
270.6372354
0
ARC
8
DEFAULT_255_2_778
10
14.6078537
20
137.2051002
40
0.4212409
50
235.5405817
51
259.3086539
0
ARC
8
DEFAULT_255_2_778
10
14.5467662
20
137.0977689
40
0.2983588
50
181.5929591
51
233.550276
0
ARC
8
DEFAULT_255_2_778
10
14.7449853
20
137.1277298
40
0.4979343
50
179.9387066
51
184.4062155
0
ARC
8
DEFAULT_255_2_778
10
14.8385536
20
137.2237996
40
0.2332136
50
194.3846046
51
259.805052
0
ARC
8
DEFAULT_255_2_778
10
14.9431857
20
137.5890482
40
0.6124159
50
256.2164989
51
270.9014371
0
ARC
8
DEFAULT_255_2_778
10
14.9523166
20
137.9559885
40
0.9792806
50
270.0294815
51
272.249316
0
LINE
8
DEFAULT_255_2_778
10
15.5956513
20
138.0262625
11
15.9422513
21
138.0262625
0
LINE
8
DEFAULT_255_2_778
10
15.9422513
20
138.0262625
11
16.2131513
21
137.2849625
0
LINE
8
DEFAULT_255_2_778
10
16.2131513
20
137.2849625
11
16.4840513
21
138.0326625
0
LINE
8
DEFAULT_255_2_778
10
16.4840513
20
138.0326625
11
16.7928513
21
138.0326625
0
LINE
8
DEFAULT_255_2_778
10
16.7928513
20
138.0326625
11
16.2885513
21
136.7824625
0
LINE
8
DEFAULT_255_2_778
10
16.2885513
20
136.7824625
11
16.0678513
21
136.7824625
0
LINE
8
DEFAULT_255_2_778
10
16.0678513
20
136.7824625
11
15.5956513
21
138.0262625
0
LINE
8
DEFAULT_255_2_778
10
6.2182513
20
138.6546625
11
6.3002513
21
138.6546625
0
LINE
8
DEFAULT_255_2_778
10
6.3002513
20
138.6546625
11
6.3002513
21
136.6977625
0
LINE
8
DEFAULT_255_2_778
10
6.3002513
20
136.6977625
11
18.5070513
21
136.6946625
0
LINE
8
DEFAULT_255_2_778
10
18.5070513
20
136.6946625
11
18.5102513
21
136.6128625
0
LINE
8
DEFAULT_255_2_778
10
18.5102513
20
136.6128625
11
6.2182513
21
136.6128625
0
LINE
8
DEFAULT_255_2_778
10
6.2182513
20
136.6128625
11
6.2182513
21
138.6483625
0
LINE
8
DEFAULT_255_2_778
10
18.9671513
20
136.7009625
11
18.9671513
21
136.6131625
0
LINE
8
DEFAULT_255_2_778
10
18.9671513
20
136.6131625
11
21.5730513
21
136.6131625
0
LINE
8
DEFAULT_255_2_778
10
21.8945513
20
136.3083625
11
21.8945513
21
136.3932625
0
LINE
8
DEFAULT_255_2_778
10
21.8945513
20
136.8769625
11
21.8945513
21
136.9618625
0
LINE
8
DEFAULT_255_2_778
10
21.5762513
20
136.6980625
11
18.9735513
21
136.6980625
0
LINE
8
DEFAULT_255_2_778
10
13.9382513
20
137.0658625
11
14.0139513
21
136.8647625
0
LINE
8
DEFAULT_255_2_778
10
13.9951513
20
137.9704625
11
13.9321513
21
137.7569625
0
LINE
8
DEFAULT_255_2_778
10
14.2470513
20
137.1282625
11
14.2470513
21
137.8190625
0
LINE
8
DEFAULT_255_2_778
10
14.2470513
20
137.8190625
11
14.0578513
21
137.8190625
0
LINE
8
DEFAULT_255_2_778
10
14.0578513
20
137.8190625
11
14.0578513
21
138.0326625
0
LINE
8
DEFAULT_255_2_778
10
14.0578513
20
138.0326625
11
14.2470513
21
138.0326625
0
LINE
8
DEFAULT_255_2_778
10
14.2470513
20
138.0326625
11
14.3856513
21
138.5350625
0
LINE
8
DEFAULT_255_2_778
10
14.3856513
20
138.5350625
11
14.5999513
21
138.5350625
0
LINE
8
DEFAULT_255_2_778
10
14.5999513
20
138.5350625
11
14.6126513
21
138.0326625
0
LINE
8
DEFAULT_255_2_778
10
14.6126513
20
138.0326625
11
14.9529513
21
138.0326625
0
LINE
8
DEFAULT_255_2_778
10
14.9529513
20
138.0326625
11
14.9529513
21
137.8190625
0
LINE
8
DEFAULT_255_2_778
10
14.9529513
20
137.8190625
11
14.6126513
21
137.8190625
0
LINE
8
DEFAULT_255_2_778
10
14.6126513
20
137.8190625
11
14.6126513
21
137.1658625
0
LINE
8
DEFAULT_255_2_778
10
14.9907513
20
136.9774625
11
15.0032513
21
136.8015625
0
ARC
8
DEFAULT_255_2_778
10
18.2771567
20
136.6608016
40
0.588921
50
314.1465216
51
331.9330914
0
ARC
8
DEFAULT_255_2_778
10
18.4147245
20
136.5206113
40
0.3925118
50
269.0312524
51
313.9901377
0
ARC
8
DEFAULT_255_2_778
10
18.4130071
20
136.7129619
40
0.584827
50
255.6549108
51
269.5180973
0
ARC
8
DEFAULT_255_2_778
10
18.4880411
20
137.0161139
40
0.8971207
50
246.7072254
51
255.8091359
0
ARC
8
DEFAULT_255_2_778
10
18.6124803
20
137.3186796
40
1.2242447
50
243.4735796
51
246.9574492
0
ARC
8
DEFAULT_255_2_778
10
18.3377307
20
136.7493958
40
0.365718
50
238.6975405
51
269.7536991
0
ARC
8
DEFAULT_255_2_778
10
18.3341625
20
136.7833672
40
0.3996911
50
270.2861506
51
285.9235992
0
ARC
8
DEFAULT_255_2_778
10
18.3190528
20
136.6040257
40
0.2399938
50
301.3239159
51
328.5484084
0
ARC
8
DEFAULT_255_2_778
10
17.8344662
20
136.9302796
40
0.8240117
50
326.7768178
51
337.3925755
0
ARC
8
DEFAULT_255_2_778
10
16.7758869
20
137.3889406
40
1.9776351
50
336.9149998
51
342.1307954
0
ARC
8
DEFAULT_255_2_778
10
18.1003835
20
137.1935501
40
0.1954042
50
190.120766
51
263.958695
0
ARC
8
DEFAULT_255_2_778
10
18.1765334
20
137.4961691
40
0.5062622
50
258.9866291
51
270.5697296
0
ARC
8
DEFAULT_255_2_778
10
18.179421
20
137.8136009
40
0.8236717
50
270.1493118
51
275.0745303
0
ARC
8
DEFAULT_255_2_778
10
18.1623931
20
138.0306991
40
1.0414275
50
274.9512067
51
276.4741818
0
ARC
8
DEFAULT_255_2_778
10
17.8865118
20
139.2869593
40
2.5197089
50
276.512457
51
279.4178429
0
ARC
8
DEFAULT_255_2_778
10
17.9623799
20
138.6166109
40
1.8450814
50
272.9002784
51
276.532699
0
ARC
8
DEFAULT_255_2_778
10
17.9860581
20
138.174308
40
1.4021477
50
270.0528156
51
272.8484525
0
ARC
8
DEFAULT_255_2_778
10
17.9780255
20
137.6655179
40
0.8934054
50
259.5071449
51
270.5980454
0
ARC
8
DEFAULT_255_2_778
10
17.887913
20
137.2045607
40
0.4237716
50
238.7101736
51
260.1371304
0
ARC
8
DEFAULT_255_2_778
10
17.8040731
20
137.0581077
40
0.2551147
50
181.256628
51
237.7180126
0
LINE
8
DEFAULT_255_2_778
10
18.0657198
20
136.2233129
11
18.1477198
21
136.4369129
0
LINE
8
DEFAULT_255_2_778
10
18.6581198
20
136.7821129
11
18.2295198
21
137.8124129
0
LINE
8
DEFAULT_255_2_778
10
18.2295198
20
137.8124129
11
17.9080198
21
137.8124129
0
LINE
8
DEFAULT_255_2_778
10
17.9080198
20
137.8124129
11
17.9080198
21
137.1592129
0
LINE
8
DEFAULT_255_2_778
10
18.2798198
20
136.9959129
11
18.2988198
21
136.8012129
0
LINE
8
DEFAULT_255_2_778
10
17.5490198
20
137.0525129
11
17.5363198
21
137.8190129
0
LINE
8
DEFAULT_255_2_778
10
17.5363198
20
137.8190129
11
17.3471198
21
137.8190129
0
LINE
8
DEFAULT_255_2_778
10
17.3471198
20
137.8190129
11
17.3471198
21
138.0326129
0
LINE
8
DEFAULT_255_2_778
10
17.3471198
20
138.0326129
11
17.5487198
21
138.0326129
0
LINE
8
DEFAULT_255_2_778
10
17.5487198
20
138.0326129
11
17.6747198
21
138.5350129
0
LINE
8
DEFAULT_255_2_778
10
17.6747198
20
138.5350129
11
17.8890198
21
138.5350129
0
LINE
8
DEFAULT_255_2_778
10
17.8890198
20
138.5350129
11
17.9017198
21
138.0326129
0
LINE
8
DEFAULT_255_2_778
10
17.9017198
20
138.0326129
11
18.5319198
21
138.0326129
0
LINE
8
DEFAULT_255_2_778
10
18.5319198
20
138.0326129
11
18.8343198
21
137.2034129
0
LINE
8
DEFAULT_255_2_778
10
18.8343198
20
137.2034129
11
19.1367198
21
138.0326129
0
LINE
8
DEFAULT_255_2_778
10
19.1367198
20
138.0326129
11
19.4519198
21
138.0326129
0
LINE
8
DEFAULT_255_2_778
10
19.4519198
20
138.0326129
11
18.7965198
21
136.3866129
0
ARC
8
DEFAULT_255_2_778
10
19.6924911
20
137.9865064
40
0.0240119
50
28.9725327
51
103.4850922
0
ARC
8
DEFAULT_255_2_778
10
19.6675258
20
137.7713978
40
0.2392435
50
85.3570436
51
90.3180147
0
ARC
8
DEFAULT_255_2_778
10
19.68302
20
137.3749354
40
0.7352792
50
91.4451573
51
94.5103719
0
ARC
8
DEFAULT_255_2_778
10
19.6762642
20
137.6000413
40
0.5100756
50
90.0204387
51
91.3242457
0
ARC
8
DEFAULT_255_2_778
10
19.6820782
20
137.8787926
40
0.231402
50
77.5838349
51
91.484776
0
ARC
8
DEFAULT_255_2_778
10
19.7300541
20
138.0729087
40
0.0319233
50
15.1916927
51
86.8071299
0
ARC
8
DEFAULT_255_2_778
10
19.7392759
20
138.0790197
40
0.0217032
50
359.9550511
51
5.9623374
0
ARC
8
DEFAULT_255_2_778
10
19.7113423
20
138.0839073
40
0.0498786
50
318.6903529
51
354.3569627
0
ARC
8
DEFAULT_255_2_778
10
19.59333
20
138.1714286
40
0.1966754
50
312.4194177
51
322.2354785
0
ARC
8
DEFAULT_255_2_778
10
19.7074456
20
137.9834292
40
0.0466555
50
7.7623904
51
66.56899
0
ARC
8
DEFAULT_255_2_778
10
19.5728806
20
137.9554086
40
0.184022
50
4.3922991
51
10.7492459
0
ARC
8
DEFAULT_255_2_778
10
19.7790464
20
137.9657679
40
0.0229895
50
170.6523659
51
230.6545988
0
ARC
8
DEFAULT_255_2_778
10
19.7669101
20
137.9562613
40
0.0086241
50
253.5721784
51
270.5831571
0
ARC
8
DEFAULT_255_2_778
10
19.6864906
20
138.0529188
40
0.034333
50
13.334954
51
106.2290103
0
ARC
8
DEFAULT_255_2_778
10
19.6694514
20
137.905895
40
0.1801426
50
87.631716
51
90.0488074
0
ARC
8
DEFAULT_255_2_778
10
19.6792828
20
138.1048746
40
0.0666888
50
261.3891358
51
304.5653386
0
ARC
8
DEFAULT_255_2_778
10
19.7080184
20
138.0575951
40
0.0118802
50
319.9940947
51
0.6866831
0
ARC
8
DEFAULT_255_2_778
10
19.6909745
20
138.0294613
40
0.1602765
50
89.8843696
51
180.00852
0
ARC
8
DEFAULT_255_2_778
10
19.6918123
20
138.0296526
40
0.1600857
50
359.923006
51
90.1841118
0
ARC
8
DEFAULT_255_2_778
10
19.6917276
20
138.0292075
40
0.1601705
50
269.8462838
51
0.0822692
0
ARC
8
DEFAULT_255_2_778
10
19.6908681
20
138.0292074
40
0.1601705
50
179.9177057
51
270.1537517
0
ARC
8
DEFAULT_255_2_778
10
19.6941702
20
138.0305588
40
0.1256773
50
179.9900739
51
180.5112141
0
ARC
8
DEFAULT_255_2_778
10
19.6929324
20
138.0306978
40
0.1244397
50
135.616881
51
180.0539568
0
ARC
8
DEFAULT_255_2_778
10
19.6926982
20
138.0309377
40
0.1241046
50
90.5079979
51
135.6204406
0
ARC
8
DEFAULT_255_2_778
10
19.6904941
20
138.0311676
40
0.1238749
50
44.3347873
51
89.4894407
0
ARC
8
DEFAULT_255_2_778
10
19.6901635
20
138.0306978
40
0.1244397
50
359.9460432
51
44.383119
0
ARC
8
DEFAULT_255_2_778
10
19.6889256
20
138.0305588
40
0.1256775
50
359.4887859
51
0.0099261
0
ARC
8
DEFAULT_255_2_778
10
19.6889212
20
138.0283161
40
0.1256817
50
359.9900717
51
0.5112118
0
ARC
8
DEFAULT_255_2_778
10
19.6899314
20
138.0281718
40
0.1246718
50
315.6604182
51
0.0563277
0
ARC
8
DEFAULT_255_2_778
10
19.690317
20
138.0280233
40
0.1242924
50
270.5905059
51
315.5851458
0
ARC
8
DEFAULT_255_2_778
10
19.6928761
20
138.0282548
40
0.1245239
50
224.4596468
51
269.4118891
0
ARC
8
DEFAULT_255_2_778
10
19.6931644
20
138.0281718
40
0.1246718
50
179.9436723
51
224.3395818
0
ARC
8
DEFAULT_255_2_778
10
19.6941746
20
138.0283161
40
0.1256819
50
179.4887882
51
180.0099283
0
LINE
8
DEFAULT_255_2_778
10
19.7671979
20
137.9479375
11
19.7261979
21
137.9479375
0
LINE
8
DEFAULT_255_2_778
10
19.7261979
20
137.9479375
11
19.7134979
21
137.9981375
0
LINE
8
DEFAULT_255_2_778
10
19.6661979
20
138.0106375
11
19.6661979
21
137.9479375
0
LINE
8
DEFAULT_255_2_778
10
19.6661979
20
137.9479375
11
19.6282979
21
137.9479375
0
LINE
8
DEFAULT_255_2_778
10
19.6282979
20
137.9479375
11
19.6251979
21
138.1079375
0
LINE
8
DEFAULT_255_2_778
10
19.7669979
20
137.9476375
11
19.7671979
21
137.9479375
0
LINE
8
DEFAULT_255_2_778
10
19.6692979
20
138.0860375
11
19.6692979
21
138.0389375
0
LINE
8
DEFAULT_255_2_778
10
19.5306979
20
138.0294375
11
19.5306979
21
138.0294375
0
LINE
8
DEFAULT_255_2_778
10
19.5684979
20
138.0294375
11
19.5684979
21
138.0294375
0
LINE
8
DEFAULT_255_2_778
10
11.0900688
20
137.7568698
11
11.0900688
21
137.1285698
0
ARC
8
DEFAULT_255_2_778
10
10.4258178
20
138.3217512
40
1.3656176
50
292.8223416
51
299.1049387
0
ARC
8
DEFAULT_255_2_778
10
10.6923229
20
137.6800623
40
0.6708024
50
282.4794629
51
293.1002978
0
ARC
8
DEFAULT_255_2_778
10
10.7656801
20
137.3545416
40
0.3371233
50
270.5838487
51
282.2615078
0
ARC
8
DEFAULT_255_2_778
10
10.7637817
20
137.187928
40
0.1705756
50
241.3798642
51
271.7918735
0
ARC
8
DEFAULT_255_2_778
10
10.7476697
20
137.151112
40
0.1305871
50
222.8095502
51
239.8477433
0
ARC
8
DEFAULT_255_2_778
10
10.8383448
20
137.2756648
40
0.2833162
50
195.5923976
51
228.8379937
0
ARC
8
DEFAULT_255_2_778
10
11.2233514
20
137.3994125
40
0.6875956
50
182.8988217
51
196.901328
0
ARC
8
DEFAULT_255_2_778
10
11.7297763
20
137.4415595
40
1.1956176
50
179.9089191
51
183.6886871
0
ARC
8
DEFAULT_255_2_778
10
12.0981229
20
137.4419544
40
1.5639636
50
177.2544012
51
179.9448392
0
LINE
8
DEFAULT_255_2_778
10
10.5359547
20
137.5168705
11
10.5359688
21
137.5171698
0
ARC
8
DEFAULT_255_2_778
10
11.0005754
20
137.4522208
40
0.4691244
50
149.0121274
51
172.0420019
0
ARC
8
DEFAULT_255_2_778
10
10.8347413
20
137.5426494
40
0.280511
50
88.5440138
51
147.4067729
0
ARC
8
DEFAULT_255_2_778
10
10.7657193
20
136.9924864
40
0.8340669
50
72.0203436
51
84.7616527
0
ARC
8
DEFAULT_255_2_778
10
10.8831282
20
137.3705191
40
0.4382821
50
61.8252032
51
71.3646611
0
ARC
8
DEFAULT_255_2_778
10
10.4737962
20
138.0409032
40
1.2918982
50
287.0682731
51
298.4915226
0
ARC
8
DEFAULT_255_2_778
10
10.6328818
20
137.5179772
40
0.7453122
50
270.6811176
51
287.1763457
0
ARC
8
DEFAULT_255_2_778
10
10.6416525
20
137.3519494
40
0.5792318
50
267.7358327
51
270.0088232
0
ARC
8
DEFAULT_255_2_778
10
10.6221952
20
137.1923768
40
0.4192211
50
203.9093897
51
269.5317059
0
ARC
8
DEFAULT_255_2_778
10
11.0896726
20
137.4517122
40
0.9528801
50
192.6009015
51
206.7737237
0
ARC
8
DEFAULT_255_2_778
10
11.4914822
20
137.5600427
40
1.3687639
50
192.6165694
51
193.3570279
0
ARC
8
DEFAULT_255_2_778
10
11.1915444
20
137.4542151
40
1.05363
50
182.6356817
51
190.5628607
0
ARC
8
DEFAULT_255_2_778
10
11.0380576
20
137.4446692
40
0.89987
50
180.0135228
51
182.4779265
0
ARC
8
DEFAULT_255_2_778
10
10.8122185
20
137.4605664
40
0.6742234
50
136.7456723
51
181.3691273
0
ARC
8
DEFAULT_255_2_778
10
10.662857
20
137.5493873
40
0.5059802
50
89.2314975
51
132.4774114
0
ARC
8
DEFAULT_255_2_778
10
10.6695571
20
137.4386601
40
0.6166618
50
87.8056342
51
89.9919799
0
ARC
8
DEFAULT_255_2_778
10
10.6807164
20
136.8969717
40
1.157965
50
70.3175508
51
89.3838437
0
ARC
8
DEFAULT_255_2_778
10
10.5893508
20
136.5894874
40
1.4783609
50
70.2024224
51
70.9971735
0
ARC
8
DEFAULT_255_2_778
10
9.3624819
20
137.4233426
40
0.1950108
50
91.6788031
51
181.813939
0
ARC
8
DEFAULT_255_2_778
10
9.350989
20
137.4232798
40
0.1950756
50
358.2051219
51
88.3021655
0
ARC
8
DEFAULT_255_2_778
10
9.3509891
20
137.4110596
40
0.1950754
50
271.6978133
51
1.7949071
0
ARC
8
DEFAULT_255_2_778
10
9.3624819
20
137.4109969
40
0.1950108
50
178.186061
51
268.3211969
0
ARC
8
DEFAULT_255_2_778
10
9.5084727
20
137.4239309
40
0.4668529
50
145.043768
51
180.8298084
0
ARC
8
DEFAULT_255_2_778
10
9.3653029
20
137.5316132
40
0.287883
50
91.6987406
51
146.2830079
0
ARC
8
DEFAULT_255_2_778
10
9.3415457
20
137.5146621
40
0.3050877
50
23.4934874
51
87.1398977
0
ARC
8
DEFAULT_255_2_778
10
9.1870732
20
137.4207629
40
0.484809
50
359.5753549
51
26.3944218
0
ARC
8
DEFAULT_255_2_778
10
9.2053375
20
137.41042
40
0.4665802
50
325.0256173
51
0.8288991
0
ARC
8
DEFAULT_255_2_778
10
9.3482106
20
137.3028699
40
0.2879274
50
271.7032906
51
326.2656695
0
ARC
8
DEFAULT_255_2_778
10
9.3720078
20
137.3199987
40
0.3053095
50
203.3271307
51
267.1389871
0
ARC
8
DEFAULT_255_2_778
10
9.5267258
20
137.413593
40
0.4850703
50
179.5775117
51
206.2433806
0
ARC
8
DEFAULT_255_2_778
10
9.3462242
20
137.3982025
40
0.6700752
50
95.9615992
51
178.9168048
0
ARC
8
DEFAULT_255_2_778
10
9.3692457
20
137.3301302
40
0.7403396
50
89.982733
51
97.186551
0
ARC
8
DEFAULT_255_2_778
10
9.3737015
20
137.3603279
40
0.7101545
50
48.1622127
51
90.3414937
0
ARC
8
DEFAULT_255_2_778
10
9.4198028
20
137.4093697
40
0.6428678
50
0.1336951
51
48.3079447
0
ARC
8
DEFAULT_255_2_778
10
9.3927134
20
137.423537
40
0.6700752
50
275.9615992
51
358.9168048
0
ARC
8
DEFAULT_255_2_778
10
9.3696919
20
137.4916094
40
0.7403396
50
269.982733
51
277.186551
0
ARC
8
DEFAULT_255_2_778
10
9.3652362
20
137.4614116
40
0.7101545
50
228.1622127
51
270.3414937
0
ARC
8
DEFAULT_255_2_778
10
9.3191349
20
137.4123698
40
0.6428678
50
180.1336951
51
228.3079447
0
ARC
8
DEFAULT_255_2_778
10
6.8107463
20
138.1078908
40
0.4410946
50
358.399361
51
20.0218069
0
ARC
8
DEFAULT_255_2_778
10
7.0252301
20
138.1839859
40
0.2135292
50
20.5419455
51
86.7410997
0
ARC
8
DEFAULT_255_2_778
10
6.9403671
20
138.1440134
40
0.3150485
50
287.9324001
51
351.1547913
0
ARC
8
DEFAULT_255_2_778
10
7.0381682
20
138.09225
40
0.6191268
50
4.9683528
51
29.9289322
0
ARC
8
DEFAULT_255_2_778
10
7.1427871
20
138.1333443
40
0.508227
50
31.7987523
51
73.6168205
0
ARC
8
DEFAULT_255_2_778
10
7.0076309
20
137.7522148
40
0.9122727
50
72.2244713
51
84.9667071
0
ARC
8
DEFAULT_255_2_778
10
6.9731565
20
138.5162673
40
0.9427779
50
276.9765222
51
292.3131775
0
ARC
8
DEFAULT_255_2_778
10
7.152457
20
138.1087302
40
0.4978062
50
291.0302401
51
353.4987619
0
ARC
8
DEFAULT_255_2_778
10
6.882936
20
138.1640679
40
0.7722473
50
351.6832812
51
358.6496898
0
LINE
8
DEFAULT_255_2_778
10
11.0900688
20
137.7568698
11
11.0900688
21
137.7568698
0
LINE
8
DEFAULT_255_2_778
10
11.0900688
20
137.9802698
11
11.0900688
21
138.7326698
0
LINE
8
DEFAULT_255_2_778
10
11.0900688
20
138.7326698
11
11.4538688
21
138.7739698
0
LINE
8
DEFAULT_255_2_778
10
11.4538688
20
138.7739698
11
11.4538688
21
136.8062698
0
LINE
8
DEFAULT_255_2_778
10
11.4538688
20
136.8062698
11
11.0982688
21
136.8062698
0
LINE
8
DEFAULT_255_2_778
10
11.0982688
20
136.8062698
11
11.0900688
21
136.9054698
0
LINE
8
DEFAULT_255_2_778
10
11.0900688
20
137.9804698
11
11.0900688
21
137.9802698
0
LINE
8
DEFAULT_255_2_778
10
9.1675688
20
137.4171698
11
9.1675688
21
137.4171698
0
LINE
8
DEFAULT_255_2_778
10
9.0416688
20
137.4171698
11
9.0416688
21
137.4171698
0
LINE
8
DEFAULT_255_2_778
10
8.6762688
20
137.4108698
11
8.6762688
21
137.4108698
0
LINE
8
DEFAULT_255_2_778
10
7.0373688
20
138.3971698
11
6.7728688
21
138.3971698
0
LINE
8
DEFAULT_255_2_778
10
6.7728688
20
138.3971698
11
6.7728688
21
137.8442698
0
LINE
8
DEFAULT_255_2_778
10
6.7728688
20
137.8442698
11
7.0373688
21
137.8442698
0
LINE
8
DEFAULT_255_2_778
10
7.2516688
20
138.0955698
11
7.2516688
21
138.0955698
0
LINE
8
DEFAULT_255_2_778
10
7.0876688
20
138.6609698
11
6.3817688
21
138.6609698
0
LINE
8
DEFAULT_255_2_778
10
6.3817688
20
138.6609698
11
6.3817688
21
136.8014698
0
LINE
8
DEFAULT_255_2_778
10
6.3817688
20
136.8014698
11
6.7725688
21
136.8014698
0
LINE
8
DEFAULT_255_2_778
10
6.7725688
20
136.8014698
11
6.7725688
21
137.5804698
0
LINE
8
DEFAULT_255_2_778
10
6.7725688
20
137.5804698
11
7.0876688
21
137.5804698
0
LINE
8
DEFAULT_255_2_778
10
7.6549688
20
138.1458698
11
7.6549688
21
138.1458698
0
ARC
8
DEFAULT_255_2_778
10
22.0341103
20
136.6396325
40
0.1933696
50
91.2195322
51
181.3554583
0
ARC
8
DEFAULT_255_2_778
10
22.0258793
20
136.6396325
40
0.1933696
50
358.6445319
51
88.7804717
0
ARC
8
DEFAULT_255_2_778
10
22.0258794
20
136.6304841
40
0.1933695
50
271.2194968
51
1.3554733
0
ARC
8
DEFAULT_255_2_778
10
22.0341102
20
136.6304841
40
0.1933696
50
178.6445267
51
268.7805032
0
ARC
8
DEFAULT_255_2_778
10
22.500592
20
136.6396522
40
0.1933518
50
91.2438577
51
181.3614136
0
ARC
8
DEFAULT_255_2_778
10
22.4922792
20
136.6396325
40
0.1933696
50
358.6445428
51
88.7804459
0
ARC
8
DEFAULT_255_2_778
10
22.4922795
20
136.6304841
40
0.1933694
50
271.219471
51
1.3554842
0
ARC
8
DEFAULT_255_2_778
10
22.5005921
20
136.6304647
40
0.1933519
50
178.638633
51
268.7561308
0
ARC
8
DEFAULT_255_2_778
10
22.966792
20
136.652352
40
0.1933518
50
91.2438477
51
181.3613675
0
ARC
8
DEFAULT_255_2_778
10
22.9584792
20
136.6523325
40
0.1933696
50
358.6445428
51
88.7804459
0
ARC
8
DEFAULT_255_2_778
10
22.9584795
20
136.6431841
40
0.1933694
50
271.219471
51
1.3554842
0
ARC
8
DEFAULT_255_2_778
10
22.9667921
20
136.6431645
40
0.1933517
50
178.6385825
51
268.7561312
0
LINE
8
DEFAULT_255_2_778
10
21.8407948
20
136.6350583
11
21.8407948
21
136.6350583
0
LINE
8
DEFAULT_255_2_778
10
22.3072948
20
136.6350583
11
22.3072948
21
136.6350583
0
LINE
8
DEFAULT_255_2_778
10
22.7734948
20
136.6477583
11
22.7734948
21
136.6477583
0
LINE
8
DEFAULT_255_2_778
10
21.8956365
20
136.391124
11
21.8665365
21
136.395924
0
LINE
8
DEFAULT_255_2_778
10
21.8665365
20
136.395924
11
21.8059365
21
136.405724
0
LINE
8
DEFAULT_255_2_778
10
21.8059365
20
136.405724
11
21.7299365
21
136.463924
0
LINE
8
DEFAULT_255_2_778
10
21.7299365
20
136.463924
11
21.6728365
21
136.539624
0
LINE
8
DEFAULT_255_2_778
10
21.6728365
20
136.539624
11
21.6476365
21
136.633024
0
LINE
8
DEFAULT_255_2_778
10
21.6476365
20
136.633024
11
21.6728365
21
136.726624
0
LINE
8
DEFAULT_255_2_778
10
21.6728365
20
136.726624
11
21.7294365
21
136.803424
0
LINE
8
DEFAULT_255_2_778
10
21.7294365
20
136.803424
11
21.8053365
21
136.862924
0
LINE
8
DEFAULT_255_2_778
10
21.8053365
20
136.862924
11
21.8665365
21
136.872924
0
LINE
8
DEFAULT_255_2_778
10
21.8665365
20
136.872924
11
21.8958365
21
136.877724
0
LINE
8
DEFAULT_255_2_778
10
21.8958365
20
136.308124
11
21.8546365
21
136.313624
0
LINE
8
DEFAULT_255_2_778
10
21.8546365
20
136.313624
11
21.7707365
21
136.325024
0
LINE
8
DEFAULT_255_2_778
10
21.7707365
20
136.325024
11
21.6683365
21
136.399624
0
LINE
8
DEFAULT_255_2_778
10
21.6683365
20
136.399624
11
21.5950365
21
136.498324
0
LINE
8
DEFAULT_255_2_778
10
21.5950365
20
136.498324
11
21.5733365
21
136.613924
0
ARC
8
DEFAULT_255_2_778
10
19.6071242
20
137.2321303
40
0.3581298
50
180.0162757
51
182.2699138
0
ARC
8
DEFAULT_255_2_778
10
19.4534829
20
137.2457764
40
0.2049502
50
100.1638691
51
183.8462269
0
ARC
8
DEFAULT_255_2_778
10
19.5515993
20
136.9171455
40
0.5471003
50
90.0234402
51
104.2080975
0
ARC
8
DEFAULT_255_2_778
10
19.5528834
20
137.2704699
40
0.1937818
50
5.5175223
51
90.4458723
0
ARC
8
DEFAULT_255_2_778
10
19.3612362
20
137.2300775
40
0.3890348
50
359.7014597
51
8.726641
0
ARC
8
DEFAULT_255_2_778
10
19.2420729
20
137.2282577
40
0.5081929
50
357.7544822
51
359.976639
0
ARC
8
DEFAULT_255_2_778
10
19.3404742
20
137.273607
40
0.4145702
50
340.5439579
51
350.9428846
0
ARC
8
DEFAULT_255_2_778
10
19.6818113
20
137.1526061
40
0.0524224
50
319.3350621
51
340.9786234
0
ARC
8
DEFAULT_255_2_778
10
19.1300329
20
137.335169
40
0.4858933
50
337.8212904
51
346.2526281
0
ARC
8
DEFAULT_255_2_778
10
19.5379362
20
137.2340825
40
0.0656649
50
347.3486169
51
358.3972422
0
ARC
8
DEFAULT_255_2_778
10
19.3892367
20
137.2412112
40
0.2145262
50
357.6048162
51
359.9743471
0
ARC
8
DEFAULT_255_2_778
10
19.521739
20
137.2546395
40
0.0831313
50
350.6371276
51
96.844243
0
ARC
8
DEFAULT_255_2_778
10
19.5122091
20
137.1365521
40
0.2006266
50
90.1076454
51
94.8990763
0
ARC
8
DEFAULT_255_2_778
10
19.5034127
20
137.2331153
40
0.1036663
50
94.6129189
51
177.4610849
0
ARC
8
DEFAULT_255_2_778
10
19.6883706
20
137.1784397
40
0.2945469
50
168.391873
51
173.2331892
0
LINE
8
DEFAULT_255_2_778
10
19.3955754
20
137.2131458
11
19.2492754
21
137.2179458
0
LINE
8
DEFAULT_255_2_778
10
19.7215754
20
137.1184458
11
19.4572754
21
136.8199458
0
LINE
8
DEFAULT_255_2_778
10
19.4572754
20
136.8199458
11
19.7784754
21
136.8199458
0
LINE
8
DEFAULT_255_2_778
10
19.7784754
20
136.8199458
11
19.7784754
21
136.6969458
0
LINE
8
DEFAULT_255_2_778
10
19.7784754
20
136.6969458
11
19.2682754
21
136.6969458
0
LINE
8
DEFAULT_255_2_778
10
19.2682754
20
136.6969458
11
19.2682754
21
136.8012458
0
LINE
8
DEFAULT_255_2_778
10
19.2682754
20
136.8012458
11
19.5799754
21
137.1517458
0
LINE
8
DEFAULT_255_2_778
10
19.3958754
20
137.2131458
11
19.3955754
21
137.2131458
0
ARC
8
DEFAULT_255_2_778
10
21.6491338
20
137.0979013
40
0.5330281
50
158.8297779
51
180.8126209
0
ARC
8
DEFAULT_255_2_778
10
21.3443043
20
137.2240829
40
0.2033429
50
124.0119958
51
160.9659866
0
ARC
8
DEFAULT_255_2_778
10
21.2743176
20
137.317462
40
0.0869831
50
90.4994457
51
120.2017555
0
ARC
8
DEFAULT_255_2_778
10
21.2600082
20
137.2790586
40
0.1261132
50
24.6798401
51
83.8315083
0
ARC
8
DEFAULT_255_2_778
10
21.0025231
20
137.123952
40
0.4261556
50
6.130385
51
29.1785479
0
ARC
8
DEFAULT_255_2_778
10
20.8148831
20
137.0909702
40
0.6163766
50
359.941576
51
7.3161118
0
ARC
8
DEFAULT_255_2_778
10
20.8991049
20
137.0827366
40
0.5322088
50
338.8055679
51
0.8187669
0
ARC
8
DEFAULT_255_2_778
10
21.2033747
20
136.9566684
40
0.203082
50
303.9150541
51
340.932466
0
ARC
8
DEFAULT_255_2_778
10
21.2728185
20
136.8637902
40
0.0874515
50
270.4854298
51
300.1080748
0
ARC
8
DEFAULT_255_2_778
10
21.2871918
20
136.9020041
40
0.1263997
50
204.3281643
51
263.8084993
0
ARC
8
DEFAULT_255_2_778
10
21.5498039
20
137.0580123
40
0.4313014
50
185.613152
51
208.8453558
0
ARC
8
DEFAULT_255_2_778
10
21.738281
20
137.0897819
40
0.6221217
50
179.9484445
51
186.8272745
0
ARC
8
DEFAULT_255_2_778
10
21.5396261
20
137.0944048
40
0.5243157
50
152.5254433
51
180.7827883
0
ARC
8
DEFAULT_255_2_778
10
21.3138339
20
137.2218837
40
0.2653266
50
108.4095367
51
154.4544086
0
ARC
8
DEFAULT_255_2_778
10
21.2768034
20
137.3006783
40
0.1791635
50
90.0140927
51
105.1293658
0
ARC
8
DEFAULT_255_2_778
10
21.2623719
20
137.2489205
40
0.231369
50
28.2822033
51
86.4348199
0
ARC
8
DEFAULT_255_2_778
10
21.0418618
20
137.1017258
40
0.4959362
50
2.837394
51
31.1881489
0
ARC
8
DEFAULT_255_2_778
10
20.9404116
20
137.0873304
40
0.5980477
50
359.9914968
51
3.7337628
0
ARC
8
DEFAULT_255_2_778
10
21.0137058
20
137.0801164
40
0.524802
50
332.6504535
51
0.7779361
0
ARC
8
DEFAULT_255_2_778
10
21.2395936
20
136.9531026
40
0.265965
50
288.44039
51
334.5981325
0
ARC
8
DEFAULT_255_2_778
10
21.2767199
20
136.8743438
40
0.1798021
50
270.0125899
51
285.1541198
0
ARC
8
DEFAULT_255_2_778
10
21.2909632
20
136.9251186
40
0.2310141
50
208.1688806
51
266.4749618
0
ARC
8
DEFAULT_255_2_778
10
21.513001
20
137.0725235
40
0.4969751
50
182.8019459
51
211.0671432
0
ARC
8
DEFAULT_255_2_778
10
21.6169279
20
137.0871537
40
0.6015684
50
179.9916184
51
183.7098813
0
LINE
8
DEFAULT_255_2_778
10
21.1161594
20
137.0903417
11
21.1161594
21
137.0903417
0
LINE
8
DEFAULT_255_2_778
10
21.0153594
20
137.0872417
11
21.0153594
21
137.0872417
0
ARC
8
DEFAULT_255_2_778
10
21.0567338
20
137.0979013
40
0.5330281
50
158.8297779
51
180.8126209
0
ARC
8
DEFAULT_255_2_778
10
20.7519043
20
137.2240829
40
0.2033429
50
124.0119958
51
160.9659866
0
ARC
8
DEFAULT_255_2_778
10
20.6819176
20
137.317462
40
0.0869831
50
90.4994457
51
120.2017555
0
ARC
8
DEFAULT_255_2_778
10
20.6676082
20
137.2790586
40
0.1261132
50
24.6798401
51
83.8315083
0
ARC
8
DEFAULT_255_2_778
10
20.4101231
20
137.123952
40
0.4261556
50
6.130385
51
29.1785479
0
ARC
8
DEFAULT_255_2_778
10
20.2224831
20
137.0909702
40
0.6163766
50
359.941576
51
7.3161118
0
ARC
8
DEFAULT_255_2_778
10
20.3067049
20
137.0827366
40
0.5322088
50
338.8055679
51
0.8187669
0
ARC
8
DEFAULT_255_2_778
10
20.6109747
20
136.9566684
40
0.203082
50
303.9150541
51
340.932466
0
ARC
8
DEFAULT_255_2_778
10
20.6804185
20
136.8637902
40
0.0874515
50
270.4854298
51
300.1080748
0
ARC
8
DEFAULT_255_2_778
10
20.6947918
20
136.9020041
40
0.1263997
50
204.3281643
51
263.8084993
0
ARC
8
DEFAULT_255_2_778
10
20.9574039
20
137.0580123
40
0.4313014
50
185.613152
51
208.8453558
0
ARC
8
DEFAULT_255_2_778
10
21.145881
20
137.0897819
40
0.6221217
50
179.9484445
51
186.8272745
0
ARC
8
DEFAULT_255_2_778
10
20.9472261
20
137.0944048
40
0.5243157
50
152.5254433
51
180.7827883
0
ARC
8
DEFAULT_255_2_778
10
20.7214339
20
137.2218837
40
0.2653266
50
108.4095367
51
154.4544086
0
ARC
8
DEFAULT_255_2_778
10
20.6844034
20
137.3006783
40
0.1791635
50
90.0140927
51
105.1293658
0
ARC
8
DEFAULT_255_2_778
10
20.6699719
20
137.2489205
40
0.231369
50
28.2822033
51
86.4348199
0
ARC
8
DEFAULT_255_2_778
10
20.4494618
20
137.1017258
40
0.4959362
50
2.837394
51
31.1881489
0
ARC
8
DEFAULT_255_2_778
10
20.3480116
20
137.0873304
40
0.5980477
50
359.9914968
51
3.7337628
0
ARC
8
DEFAULT_255_2_778
10
20.4213058
20
137.0801164
40
0.524802
50
332.6504535
51
0.7779361
0
ARC
8
DEFAULT_255_2_778
10
20.6471936
20
136.9531026
40
0.265965
50
288.44039
51
334.5981325
0
ARC
8
DEFAULT_255_2_778
10
20.6843199
20
136.8743438
40
0.1798021
50
270.0125899
51
285.1541198
0
ARC
8
DEFAULT_255_2_778
10
20.6985632
20
136.9251186
40
0.2310141
50
208.1688806
51
266.4749618
0
ARC
8
DEFAULT_255_2_778
10
20.920601
20
137.0725235
40
0.4969751
50
182.8019459
51
211.0671432
0
ARC
8
DEFAULT_255_2_778
10
21.0245279
20
137.0871537
40
0.6015684
50
179.9916184
51
183.7098813
0
LINE
8
DEFAULT_255_2_778
10
20.5237594
20
137.0903417
11
20.5237594
21
137.0903417
0
LINE
8
DEFAULT_255_2_778
10
20.4229594
20
137.0872417
11
20.4229594
21
137.0872417
0
ARC
8
DEFAULT_255_2_778
10
20.4643338
20
137.0979013
40
0.5330281
50
158.8297779
51
180.8126209
0
ARC
8
DEFAULT_255_2_778
10
20.1595043
20
137.2240829
40
0.2033429
50
124.0119958
51
160.9659866
0
ARC
8
DEFAULT_255_2_778
10
20.0895176
20
137.317462
40
0.0869831
50
90.4994457
51
120.2017555
0
ARC
8
DEFAULT_255_2_778
10
20.0752082
20
137.2790586
40
0.1261132
50
24.6798401
51
83.8315083
0
ARC
8
DEFAULT_255_2_778
10
19.8177231
20
137.123952
40
0.4261556
50
6.130385
51
29.1785479
0
ARC
8
DEFAULT_255_2_778
10
19.6300831
20
137.0909702
40
0.6163766
50
359.941576
51
7.3161118
0
ARC
8
DEFAULT_255_2_778
10
19.7143049
20
137.0827366
40
0.5322088
50
338.8055679
51
0.8187669
0
ARC
8
DEFAULT_255_2_778
10
20.0185747
20
136.9566684
40
0.203082
50
303.9150541
51
340.932466
0
ARC
8
DEFAULT_255_2_778
10
20.0880185
20
136.8637902
40
0.0874515
50
270.4854298
51
300.1080748
0
ARC
8
DEFAULT_255_2_778
10
20.1023918
20
136.9020041
40
0.1263997
50
204.3281643
51
263.8084993
0
ARC
8
DEFAULT_255_2_778
10
20.3650039
20
137.0580123
40
0.4313014
50
185.613152
51
208.8453558
0
ARC
8
DEFAULT_255_2_778
10
20.553481
20
137.0897819
40
0.6221217
50
179.9484445
51
186.8272745
0
ARC
8
DEFAULT_255_2_778
10
20.3548261
20
137.0944048
40
0.5243157
50
152.5254433
51
180.7827883
0
ARC
8
DEFAULT_255_2_778
10
20.1290339
20
137.2218837
40
0.2653266
50
108.4095367
51
154.4544086
0
ARC
8
DEFAULT_255_2_778
10
20.0920034
20
137.3006783
40
0.1791635
50
90.0140927
51
105.1293658
0
ARC
8
DEFAULT_255_2_778
10
20.0775719
20
137.2489205
40
0.231369
50
28.2822033
51
86.4348199
0
ARC
8
DEFAULT_255_2_778
10
19.8570618
20
137.1017258
40
0.4959362
50
2.837394
51
31.1881489
0
ARC
8
DEFAULT_255_2_778
10
19.7556116
20
137.0873304
40
0.5980477
50
359.9914968
51
3.7337628
0
ARC
8
DEFAULT_255_2_778
10
19.8289058
20
137.0801164
40
0.524802
50
332.6504535
51
0.7779361
0
ARC
8
DEFAULT_255_2_778
10
20.0547936
20
136.9531026
40
0.265965
50
288.44039
51
334.5981325
0
ARC
8
DEFAULT_255_2_778
10
20.0919199
20
136.8743438
40
0.1798021
50
270.0125899
51
285.1541198
0
ARC
8
DEFAULT_255_2_778
10
20.1061632
20
136.9251186
40
0.2310141
50
208.1688806
51
266.4749618
0
ARC
8
DEFAULT_255_2_778
10
20.328201
20
137.0725235
40
0.4969751
50
182.8019459
51
211.0671432
0
ARC
8
DEFAULT_255_2_778
10
20.4321279
20
137.0871537
40
0.6015684
50
179.9916184
51
183.7098813
0
LINE
8
DEFAULT_255_2_778
10
19.9313594
20
137.0903417
11
19.9313594
21
137.0903417
0
LINE
8
DEFAULT_255_2_778
10
19.8305594
20
137.0872417
11
19.8305594
21
137.0872417
0
LINE
8
DEFAULT_255_1_388
10
7.8500094
20
134.1513317
11
7.5400868
21
134.1513317
0
LINE
8
DEFAULT_255_1_388
10
7.5400868
20
134.1513317
11
7.5400868
21
133.6363
0
LINE
8
DEFAULT_255_1_388
10
7.5400868
20
133.6363
11
7.3666024
21
133.6363
0
LINE
8
DEFAULT_255_1_388
10
7.3666024
20
133.6363
11
7.3666024
21
134.9518898
0
LINE
8
DEFAULT_255_1_388
10
7.3666024
20
134.9518898
11
7.8518165
21
134.9518898
0
LINE
8
DEFAULT_255_1_388
10
7.5400868
20
134.8091267
11
7.5400868
21
134.2931914
0
LINE
8
DEFAULT_255_1_388
10
7.5400868
20
134.2931914
11
7.8518165
21
134.2931914
0
LINE
8
DEFAULT_255_1_388
10
7.8617557
20
134.8091267
11
7.5400868
21
134.8091267
0
ARC
8
DEFAULT_255_1_388
10
7.8565538
20
134.2702334
40
0.6816729
50
78.8380084
51
90.398184
0
ARC
8
DEFAULT_255_1_388
10
7.9033569
20
134.4975796
40
0.449571
50
58.9633273
51
79.0810717
0
ARC
8
DEFAULT_255_1_388
10
7.9372953
20
134.5605823
40
0.3781049
50
48.0194715
51
58.4475592
0
ARC
8
DEFAULT_255_1_388
10
7.9472773
20
134.5701818
40
0.3642936
50
3.3374546
51
48.1766642
0
ARC
8
DEFAULT_255_1_388
10
7.808758
20
134.5502581
40
0.5038766
50
359.9483251
51
4.6822857
0
ARC
8
DEFAULT_255_1_388
10
7.8227503
20
134.5454779
40
0.4899031
50
346.1879032
51
0.5059221
0
ARC
8
DEFAULT_255_1_388
10
7.9756295
20
134.5057763
40
0.3319729
50
310.8832219
51
346.5426612
0
ARC
8
DEFAULT_255_1_388
10
7.9409143
20
134.5526853
40
0.3901853
50
286.6925305
51
310.228778
0
ARC
8
DEFAULT_255_1_388
10
7.8768873
20
134.7540585
40
0.6014737
50
274.6848219
51
287.0247342
0
ARC
8
DEFAULT_255_1_388
10
7.8515422
20
135.0025088
40
0.8511785
50
269.8968222
51
275.0192639
0
ARC
8
DEFAULT_255_1_388
10
7.8546415
20
134.7687144
40
0.4755314
50
269.6596206
51
279.4150542
0
ARC
8
DEFAULT_255_1_388
10
7.8835873
20
134.6009945
40
0.3053379
50
279.2050006
51
294.9901776
0
ARC
8
DEFAULT_255_1_388
10
7.9162508
20
134.5281353
40
0.2255036
50
295.2886769
51
311.2912669
0
ARC
8
DEFAULT_255_1_388
10
7.9242249
20
134.5162938
40
0.2113522
50
311.7853512
51
347.2860549
0
ARC
8
DEFAULT_255_1_388
10
7.813541
20
134.544743
40
0.3256011
50
346.6891629
51
0.1057086
0
ARC
8
DEFAULT_255_1_388
10
7.721287
20
134.5480247
40
0.417863
50
359.63239
51
359.9961329
0
ARC
8
DEFAULT_255_1_388
10
7.8377475
20
134.5507987
40
0.3014155
50
359.4673371
51
15.5931159
0
ARC
8
DEFAULT_255_1_388
10
7.9080538
20
134.5697937
40
0.2285918
50
15.7441779
51
46.620186
0
ARC
8
DEFAULT_255_1_388
10
7.8914298
20
134.5506361
40
0.2539359
50
46.8628482
51
75.6676625
0
ARC
8
DEFAULT_255_1_388
10
7.8583354
20
134.4315243
40
0.3775415
50
75.2763152
51
88.2916439
0
ARC
8
DEFAULT_255_1_388
10
7.8517354
20
134.3313097
40
0.4779221
50
87.8589087
51
88.7986197
0
LINE
8
DEFAULT_255_1_388
10
8.9803685
20
134.6193781
11
8.9803685
21
134.463965
0
LINE
8
DEFAULT_255_1_388
10
8.6749637
20
134.3302375
11
8.6749637
21
133.6363
0
LINE
8
DEFAULT_255_1_388
10
8.6749637
20
133.6363
11
8.5078043
21
133.6363
0
LINE
8
DEFAULT_255_1_388
10
8.5078043
20
133.6363
11
8.5078043
21
134.6139567
0
LINE
8
DEFAULT_255_1_388
10
8.5078043
20
134.6139567
11
8.6704459
21
134.6139567
0
LINE
8
DEFAULT_255_1_388
10
8.6704459
20
134.6139567
11
8.6731566
21
134.5010112
0
ARC
8
DEFAULT_255_1_388
10
8.9053845
20
134.0073068
40
0.4627735
50
80.6751522
51
86.893806
0
ARC
8
DEFAULT_255_1_388
10
8.8985675
20
133.8981103
40
0.5721798
50
86.8046851
51
90.0423898
0
ARC
8
DEFAULT_255_1_388
10
8.8944094
20
134.1748197
40
0.2954939
50
89.2758283
51
106.6212906
0
ARC
8
DEFAULT_255_1_388
10
8.8714119
20
134.2584009
40
0.2088351
50
107.1347109
51
157.6456887
0
ARC
8
DEFAULT_255_1_388
10
8.9482181
20
134.2156908
40
0.296292
50
155.6557383
51
157.256838
0
ARC
8
DEFAULT_255_1_388
10
8.9261795
20
134.3467472
40
0.296341
50
127.8167201
51
148.6300223
0
ARC
8
DEFAULT_255_1_388
10
8.8976543
20
134.3760066
40
0.2557782
50
91.3329934
51
126.7875218
0
ARC
8
DEFAULT_255_1_388
10
8.906193
20
134.2956718
40
0.3363561
50
89.9858247
51
92.4688453
0
ARC
8
DEFAULT_255_1_388
10
8.9071423
20
134.3265114
40
0.3055179
50
85.3587643
51
90.1624243
0
ARC
8
DEFAULT_255_1_388
10
8.9166488
20
134.4394458
40
0.1921848
50
78.4019195
51
85.4592653
0
ARC
8
DEFAULT_255_1_388
10
8.9329549
20
134.5172142
40
0.1127267
50
67.7849217
51
78.573798
0
ARC
8
DEFAULT_255_1_388
10
8.9451183
20
134.5487374
40
0.0789473
50
63.4805074
51
67.3074739
0
LINE
8
DEFAULT_255_1_388
10
9.0716285
20
134.1224177
11
9.0716285
21
134.134164
0
LINE
8
DEFAULT_255_1_388
10
9.9616395
20
134.1260319
11
9.9616395
21
134.1142856
0
ARC
8
DEFAULT_255_1_388
10
9.700073
20
134.137804
40
0.628455
50
166.3005265
51
180.3318609
0
ARC
8
DEFAULT_255_1_388
10
9.6030079
20
134.1595267
40
0.52901
50
153.8608648
51
166.0965672
0
ARC
8
DEFAULT_255_1_388
10
9.5281245
20
134.1996652
40
0.4441126
50
135.1317053
51
154.2534962
0
ARC
8
DEFAULT_255_1_388
10
9.4967896
20
134.2273431
40
0.4023863
50
121.7042632
51
134.7771455
0
ARC
8
DEFAULT_255_1_388
10
9.5043328
20
134.2128469
40
0.4186852
50
93.4001111
51
121.5399523
0
ARC
8
DEFAULT_255_1_388
10
9.5150162
20
134.1198759
40
0.5121521
50
89.9706387
51
93.9763381
0
ARC
8
DEFAULT_255_1_388
10
9.5203147
20
134.1638563
40
0.4681988
50
71.3321659
51
90.6162917
0
ARC
8
DEFAULT_255_1_388
10
9.538618
20
134.2316003
40
0.3981841
50
41.1813875
51
70.7072086
0
ARC
8
DEFAULT_255_1_388
10
9.4848897
20
134.182813
40
0.4707474
50
12.1971434
51
41.3446641
0
ARC
8
DEFAULT_255_1_388
10
9.268216
20
134.1312328
40
0.6934429
50
359.5702713
51
12.5803533
0
ARC
8
DEFAULT_255_1_388
10
9.3214476
20
134.1107207
40
0.6402018
50
347.0196754
51
0.3190452
0
ARC
8
DEFAULT_255_1_388
10
9.429253
20
134.0875189
40
0.5299421
50
334.350439
51
346.8460534
0
ARC
8
DEFAULT_255_1_388
10
9.5243776
20
134.0381244
40
0.4228234
50
310.4228125
51
334.8045131
0
ARC
8
DEFAULT_255_1_388
10
9.5335754
20
134.0309301
40
0.4113892
50
301.8488154
51
310.0972985
0
ARC
8
DEFAULT_255_1_388
10
9.5299495
20
134.0394573
40
0.4205483
50
274.3078723
51
301.6554173
0
ARC
8
DEFAULT_255_1_388
10
9.517495
20
134.1381943
40
0.5199658
50
269.954904
51
274.859116
0
ARC
8
DEFAULT_255_1_388
10
9.5119774
20
134.0818239
40
0.4636233
50
250.8887647
51
270.6313164
0
ARC
8
DEFAULT_255_1_388
10
9.4950935
20
134.0189405
40
0.398705
50
221.1701369
51
250.2227012
0
ARC
8
DEFAULT_255_1_388
10
9.54956
20
134.0685716
40
0.4723796
50
191.6263861
51
221.3526879
0
ARC
8
DEFAULT_255_1_388
10
9.7619446
20
134.1177203
40
0.6903321
50
179.6101251
51
192.0694841
0
ARC
8
DEFAULT_255_1_388
10
9.8095793
20
134.1106681
40
0.5698993
50
179.636304
51
190.6161344
0
ARC
8
DEFAULT_255_1_388
10
9.6248125
20
134.0746635
40
0.3816643
50
190.4136062
51
208.7168709
0
ARC
8
DEFAULT_255_1_388
10
9.5674159
20
134.0461905
40
0.3176572
50
209.187109
51
217.4221816
0
ARC
8
DEFAULT_255_1_388
10
9.507863
20
133.9937729
40
0.2385702
50
216.1156863
51
265.2575395
0
ARC
8
DEFAULT_255_1_388
10
9.5167666
20
134.0582608
40
0.3035941
50
264.5891546
51
270.0602378
0
ARC
8
DEFAULT_255_1_388
10
9.5204863
20
134.0155539
40
0.2609091
50
269.2532353
51
291.8793864
0
ARC
8
DEFAULT_255_1_388
10
9.5237742
20
133.9955359
40
0.241148
50
292.9269367
51
323.1777736
0
ARC
8
DEFAULT_255_1_388
10
9.4767027
20
134.0368762
40
0.3036446
50
322.25666
51
323.087958
0
ARC
8
DEFAULT_255_1_388
10
9.4464285
20
134.0551332
40
0.3388345
50
323.6941379
51
343.8493587
0
ARC
8
DEFAULT_255_1_388
10
9.2688721
20
134.1091698
40
0.5244204
50
343.5746655
51
355.008149
0
ARC
8
DEFAULT_255_1_388
10
9.0430413
20
134.1325797
40
0.7514406
50
354.728272
51
0.1208026
0
ARC
8
DEFAULT_255_1_388
10
9.2419438
20
134.1377947
40
0.5525482
50
359.6235211
51
11.2016685
0
ARC
8
DEFAULT_255_1_388
10
9.4145265
20
134.1733284
40
0.3763527
50
10.9991302
51
30.8317616
0
ARC
8
DEFAULT_255_1_388
10
9.4590569
20
134.1967988
40
0.3260975
50
31.3007463
51
37.395541
0
ARC
8
DEFAULT_255_1_388
10
9.5149288
20
134.2439773
40
0.253082
50
36.5918894
51
62.2439906
0
ARC
8
DEFAULT_255_1_388
10
9.520158
20
134.2436378
40
0.2509927
50
63.3364883
51
89.7193846
0
ARC
8
DEFAULT_255_1_388
10
9.5153033
20
134.1788375
40
0.3158485
50
88.8962924
51
90.004475
0
ARC
8
DEFAULT_255_1_388
10
9.5117461
20
134.2441071
40
0.250604
50
89.1923115
51
114.7099029
0
ARC
8
DEFAULT_255_1_388
10
9.5149802
20
134.2483675
40
0.2481307
50
115.7996284
51
142.2901353
0
ARC
8
DEFAULT_255_1_388
10
9.5618073
20
134.2064752
40
0.310833
50
141.4607507
51
142.383894
0
ARC
8
DEFAULT_255_1_388
10
9.5765925
20
134.1996449
40
0.3267335
50
143.0176473
51
163.2340089
0
ARC
8
DEFAULT_255_1_388
10
9.7541213
20
134.1434553
40
0.5129308
50
162.9446504
51
174.3733893
0
ARC
8
DEFAULT_255_1_388
10
9.9955186
20
134.1163483
40
0.75583
50
174.1225809
51
180.1563667
0
LINE
8
DEFAULT_255_1_388
10
10.1306061
20
134.1206105
11
10.1306061
21
134.1332604
0
LINE
8
DEFAULT_255_1_388
10
10.788401
20
134.5145646
11
10.788401
21
135.024175
0
LINE
8
DEFAULT_255_1_388
10
10.788401
20
135.024175
11
10.9555604
21
135.024175
0
LINE
8
DEFAULT_255_1_388
10
10.9555604
20
135.024175
11
10.9555604
21
133.6363
0
LINE
8
DEFAULT_255_1_388
10
10.9555604
20
133.6363
11
10.8019544
21
133.6363
0
LINE
8
DEFAULT_255_1_388
10
10.8019544
20
133.6363
11
10.7938224
21
133.7411135
0
LINE
8
DEFAULT_255_1_388
10
10.788401
20
133.9028515
11
10.788401
21
134.351923
0
ARC
8
DEFAULT_255_1_388
10
10.9040754
20
134.1382084
40
0.7734851
50
169.1662656
51
180.3665225
0
ARC
8
DEFAULT_255_1_388
10
10.6569663
20
134.1874773
40
0.5215235
50
150.2837807
51
169.3798657
0
ARC
8
DEFAULT_255_1_388
10
10.5857114
20
134.2239124
40
0.4415937
50
142.1063912
51
149.8065902
0
ARC
8
DEFAULT_255_1_388
10
10.5213326
20
134.2799913
40
0.3563766
50
118.4282495
51
142.8642233
0
ARC
8
DEFAULT_255_1_388
10
10.5102338
20
134.2870109
40
0.3449797
50
89.9199141
51
117.3621403
0
ARC
8
DEFAULT_255_1_388
10
10.516419
20
134.1995171
40
0.4325108
50
89.9988001
51
90.7555106
0
ARC
8
DEFAULT_255_1_388
10
10.5206268
20
134.2282362
40
0.4038136
50
72.8979482
51
90.595751
0
ARC
8
DEFAULT_255_1_388
10
10.5428948
20
134.3086099
40
0.3204539
50
39.9932308
51
72.4773248
0
ARC
8
DEFAULT_255_1_388
10
10.5396039
20
133.9472007
40
0.3272598
50
275.0849466
51
320.9693562
0
ARC
8
DEFAULT_255_1_388
10
10.5154955
20
134.0897895
40
0.4715615
50
269.8937433
51
276.4672347
0
ARC
8
DEFAULT_255_1_388
10
10.5078495
20
133.947215
40
0.3290559
50
222.0839188
51
271.1791339
0
ARC
8
DEFAULT_255_1_388
10
10.5766004
20
134.0175998
40
0.4272982
50
217.5168262
51
222.9097935
0
ARC
8
DEFAULT_255_1_388
10
10.6320877
20
134.0557851
40
0.4945763
50
193.0962732
51
217.1109075
0
ARC
8
DEFAULT_255_1_388
10
10.8522607
20
134.1107252
40
0.7214806
50
181.1071959
51
193.3839643
0
ARC
8
DEFAULT_255_1_388
10
11.0406983
20
134.1204904
40
0.9100921
50
179.9924355
51
181.4926257
0
ARC
8
DEFAULT_255_1_388
10
10.947834
20
134.1107904
40
0.650078
50
179.6919448
51
188.655086
0
ARC
8
DEFAULT_255_1_388
10
10.7206397
20
134.0750086
40
0.420088
50
188.4934981
51
202.2188222
0
ARC
8
DEFAULT_255_1_388
10
10.6118204
20
134.0318888
40
0.3030458
50
202.4516374
51
215.9308342
0
ARC
8
DEFAULT_255_1_388
10
10.5451628
20
133.978769
40
0.2179351
50
214.9061987
51
264.2076983
0
ARC
8
DEFAULT_255_1_388
10
10.5557166
20
134.0459867
40
0.2858989
50
263.4629438
51
270.0938577
0
ARC
8
DEFAULT_255_1_388
10
10.56021
20
134.035673
40
0.2756141
50
269.1632216
51
291.0932257
0
ARC
8
DEFAULT_255_1_388
10
10.5694005
20
133.9983218
40
0.2375078
50
292.2675188
51
328.1937653
0
ARC
8
DEFAULT_255_1_388
10
10.4916663
20
134.0544245
40
0.3332054
50
327.040169
51
332.941918
0
ARC
8
DEFAULT_255_1_388
10
10.5380876
20
134.2206122
40
0.2826647
50
27.6808655
51
48.7895461
0
ARC
8
DEFAULT_255_1_388
10
10.5699512
20
134.2499738
40
0.2396281
50
49.8958562
51
87.0102063
0
ARC
8
DEFAULT_255_1_388
10
10.5582356
20
134.1613941
40
0.3287745
50
85.7763593
51
90.0424518
0
ARC
8
DEFAULT_255_1_388
10
10.5549423
20
134.2355766
40
0.25461
50
89.3136862
51
109.426258
0
ARC
8
DEFAULT_255_1_388
10
10.5465845
20
134.269891
40
0.2194978
50
110.3479382
51
145.1577921
0
ARC
8
DEFAULT_255_1_388
10
10.6201325
20
134.216319
40
0.3104736
50
144.7981654
51
162.8715843
0
ARC
8
DEFAULT_255_1_388
10
10.8107925
20
134.1550138
40
0.5107383
50
162.598526
51
173.3417416
0
ARC
8
DEFAULT_255_1_388
10
11.1109298
20
134.1177767
40
0.8131718
50
173.1877249
51
180.2459848
0
LINE
8
DEFAULT_255_1_388
10
11.8220787
20
133.6363
11
11.8184645
21
133.7329814
0
LINE
8
DEFAULT_255_1_388
10
11.2112691
20
133.9778474
11
11.2112691
21
134.6139567
0
LINE
8
DEFAULT_255_1_388
10
11.2112691
20
134.6139567
11
11.3784286
21
134.6139567
0
LINE
8
DEFAULT_255_1_388
10
11.3784286
20
134.6139567
11
11.3784286
21
133.9823652
0
LINE
8
DEFAULT_255_1_388
10
11.8139466
20
133.9028515
11
11.8139466
21
134.6139567
0
LINE
8
DEFAULT_255_1_388
10
11.8139466
20
134.6139567
11
11.9811061
21
134.6139567
0
LINE
8
DEFAULT_255_1_388
10
11.9811061
20
134.6139567
11
11.9811061
21
133.6363
0
LINE
8
DEFAULT_255_1_388
10
11.9811061
20
133.6363
11
11.8220787
21
133.6363
0
ARC
8
DEFAULT_255_1_388
10
11.5804683
20
133.9374675
40
0.3137782
50
282.5436457
51
319.3308483
0
ARC
8
DEFAULT_255_1_388
10
11.5369109
20
134.1069138
40
0.4886732
50
269.8919644
51
283.213949
0
ARC
8
DEFAULT_255_1_388
10
11.5320078
20
134.2473412
40
0.6291125
50
270.0024363
51
270.3626317
0
ARC
8
DEFAULT_255_1_388
10
11.5286056
20
134.0472026
40
0.4289875
50
257.7354503
51
270.4579702
0
ARC
8
DEFAULT_255_1_388
10
11.4951594
20
133.9010679
40
0.2790881
50
233.3385202
51
258.072161
0
ARC
8
DEFAULT_255_1_388
10
11.4800459
20
133.8763828
40
0.250276
50
221.9625878
51
232.7397557
0
ARC
8
DEFAULT_255_1_388
10
11.5115422
20
133.9005961
40
0.2899023
50
197.9449652
51
221.3587453
0
ARC
8
DEFAULT_255_1_388
10
11.6684927
20
133.9542197
40
0.4557469
50
185.8086112
51
198.2791204
0
ARC
8
DEFAULT_255_1_388
10
11.8813675
20
133.9795327
40
0.6701004
50
180.1441004
51
186.1197471
0
ARC
8
DEFAULT_255_1_388
10
11.7799353
20
133.9783589
40
0.4015267
50
179.428312
51
191.0738067
0
ARC
8
DEFAULT_255_1_388
10
11.5905535
20
133.939262
40
0.2081712
50
190.5250706
51
212.6989599
0
ARC
8
DEFAULT_255_1_388
10
11.5383303
20
133.9104416
40
0.1487075
50
214.2246262
51
264.4398306
0
ARC
8
DEFAULT_255_1_388
10
11.5582816
20
134.0127845
40
0.2526976
50
262.1851951
51
270.1949702
0
ARC
8
DEFAULT_255_1_388
10
11.562992
20
134.156346
40
0.3962764
50
269.4432626
51
282.9581304
0
ARC
8
DEFAULT_255_1_388
10
11.600872
20
134.0022077
40
0.2375807
50
282.3910141
51
311.9723859
0
ARC
8
DEFAULT_255_1_388
10
11.6017253
20
133.9940255
40
0.2309774
50
313.1724921
51
336.7508062
0
LINE
8
DEFAULT_255_1_388
10
12.8575636
20
133.9444155
11
13.0156874
21
133.9444155
0
LINE
8
DEFAULT_255_1_388
10
12.1916366
20
134.1160927
11
12.1916366
21
134.1441032
0
LINE
8
DEFAULT_255_1_388
10
13.0156874
20
134.2778308
11
12.8575636
21
134.2778308
0
LINE
8
DEFAULT_255_1_388
10
12.358796
20
134.1377783
11
12.358796
21
134.1061535
0
ARC
8
DEFAULT_255_1_388
10
12.6312193
20
133.9954109
40
0.2407783
50
269.0327343
51
309.2224588
0
ARC
8
DEFAULT_255_1_388
10
12.6548196
20
133.971219
40
0.207135
50
308.3965377
51
329.6987678
0
ARC
8
DEFAULT_255_1_388
10
12.6703255
20
133.9594899
40
0.1878439
50
330.4013397
51
355.3970937
0
ARC
8
DEFAULT_255_1_388
10
12.7217239
20
133.9614312
40
0.2944555
50
329.2357424
51
356.6872018
0
ARC
8
DEFAULT_255_1_388
10
12.6599134
20
133.9941153
40
0.3643032
50
324.8702872
51
329.7911998
0
ARC
8
DEFAULT_255_1_388
10
12.6510416
20
134.0017113
40
0.3759315
50
298.8769973
51
324.7015261
0
ARC
8
DEFAULT_255_1_388
10
12.613696
20
134.061229
40
0.4461015
50
296.902888
51
299.3854973
0
ARC
8
DEFAULT_255_1_388
10
12.6282957
20
134.0288595
40
0.4106323
50
269.8407861
51
297.1298875
0
ARC
8
DEFAULT_255_1_388
10
12.6222953
20
134.1006354
40
0.4824312
50
253.3156606
51
270.5771301
0
ARC
8
DEFAULT_255_1_388
10
12.5945131
20
134.0000943
40
0.3781531
50
221.1002518
51
252.9743523
0
ARC
8
DEFAULT_255_1_388
10
12.6462601
20
134.0445131
40
0.4463481
50
194.5394284
51
221.0302764
0
ARC
8
DEFAULT_255_1_388
10
12.8542422
20
134.1024897
40
0.6622359
50
182.0498004
51
194.8774376
0
ARC
8
DEFAULT_255_1_388
10
13.0535511
20
134.1157778
40
0.8619146
50
179.9790673
51
182.4586753
0
ARC
8
DEFAULT_255_1_388
10
12.8578825
20
134.1474412
40
0.6662543
50
168.615001
51
180.2870547
0
ARC
8
DEFAULT_255_1_388
10
12.7226734
20
134.1739636
40
0.5284705
50
154.9162417
51
168.5402053
0
ARC
8
DEFAULT_255_1_388
10
12.619001
20
134.2251942
40
0.4128641
50
133.5745308
51
155.2559538
0
ARC
8
DEFAULT_255_1_388
10
12.6006853
20
134.2408116
40
0.3889328
50
122.0165845
51
133.2056002
0
ARC
8
DEFAULT_255_1_388
10
12.6047177
20
134.2308977
40
0.3994808
50
97.8732516
51
121.753124
0
ARC
8
DEFAULT_255_1_388
10
12.6248635
20
134.111959
40
0.5200708
50
89.8471322
51
98.2768545
0
ARC
8
DEFAULT_255_1_388
10
12.6303483
20
134.1805809
40
0.4514657
50
73.3760755
51
90.5199878
0
ARC
8
DEFAULT_255_1_388
10
12.6524399
20
134.261855
40
0.3672743
50
47.7085939
51
73.0510707
0
ARC
8
DEFAULT_255_1_388
10
12.6670502
20
134.2745231
40
0.3480795
50
3.7442743
51
48.0844373
0
ARC
8
DEFAULT_255_1_388
10
12.5558496
20
134.2567946
40
0.4603187
50
2.6192831
51
5.0424684
0
ARC
8
DEFAULT_255_1_388
10
12.6073967
20
134.2612986
40
0.2507126
50
3.78087
51
23.9354314
0
ARC
8
DEFAULT_255_1_388
10
12.6331226
20
134.2703644
40
0.2235311
50
24.4867863
51
46.9439952
0
ARC
8
DEFAULT_255_1_388
10
12.6332172
20
134.2729874
40
0.2215567
50
46.4987715
51
89.3298168
0
ARC
8
DEFAULT_255_1_388
10
12.626283
20
134.2063742
40
0.2883121
50
88.1066411
51
90.0063536
0
ARC
8
DEFAULT_255_1_388
10
12.6231806
20
134.2121548
40
0.2825481
50
89.3773571
51
107.2070287
0
ARC
8
DEFAULT_255_1_388
10
12.6071075
20
134.2703667
40
0.2221946
50
107.688418
51
143.3582986
0
ARC
8
DEFAULT_255_1_388
10
12.6709369
20
134.2224064
40
0.3020337
50
143.2845866
51
162.9352432
0
ARC
8
DEFAULT_255_1_388
10
12.8403385
20
134.1680401
40
0.4799362
50
162.6652705
51
174.0802646
0
ARC
8
DEFAULT_255_1_388
10
13.0813866
20
134.1400287
40
0.7225942
50
173.8422673
51
180.1784414
0
ARC
8
DEFAULT_255_1_388
10
13.0197536
20
134.1027276
40
0.6609665
50
179.7030218
51
188.2277356
0
ARC
8
DEFAULT_255_1_388
10
12.7833144
20
134.0673143
40
0.4218948
50
188.0630838
51
201.115837
0
ARC
8
DEFAULT_255_1_388
10
12.6598029
20
134.020173
40
0.2896941
50
201.2186162
51
216.9761863
0
ARC
8
DEFAULT_255_1_388
10
12.6090186
20
133.9821225
40
0.2262366
50
217.0136373
51
265.2055518
0
ARC
8
DEFAULT_255_1_388
10
12.6265523
20
134.0858503
40
0.3311837
50
263.6824874
51
270.1042034
0
LINE
8
DEFAULT_255_1_388
10
13.263264
20
134.8506906
11
13.4304234
21
134.8506906
0
LINE
8
DEFAULT_255_1_388
10
13.4304234
20
134.8506906
11
13.4304234
21
134.6139567
0
LINE
8
DEFAULT_255_1_388
10
13.4304234
20
134.6139567
11
13.6129435
21
134.6139567
0
LINE
8
DEFAULT_255_1_388
10
13.6129435
20
134.6139567
11
13.6129435
21
134.484747
0
LINE
8
DEFAULT_255_1_388
10
13.6129435
20
134.484747
11
13.4304234
21
134.484747
0
LINE
8
DEFAULT_255_1_388
10
13.4304234
20
134.484747
11
13.4304234
21
133.8784553
0
LINE
8
DEFAULT_255_1_388
10
13.6174613
20
133.7718347
11
13.6174613
21
133.6363
0
LINE
8
DEFAULT_255_1_388
10
13.263264
20
133.8784553
11
13.263264
21
134.484747
0
LINE
8
DEFAULT_255_1_388
10
13.263264
20
134.484747
11
13.0852618
21
134.484747
0
LINE
8
DEFAULT_255_1_388
10
13.0852618
20
134.484747
11
13.0852618
21
134.6139567
0
LINE
8
DEFAULT_255_1_388
10
13.0852618
20
134.6139567
11
13.263264
21
134.6139567
0
LINE
8
DEFAULT_255_1_388
10
13.263264
20
134.6139567
11
13.263264
21
134.8506906
0
ARC
8
DEFAULT_255_1_388
10
13.6562742
20
133.8772842
40
0.2258538
50
179.7029045
51
187.9180047
0
ARC
8
DEFAULT_255_1_388
10
13.5723316
20
133.8652019
40
0.1410477
50
187.7540838
51
200.2454047
0
ARC
8
DEFAULT_255_1_388
10
13.5250221
20
133.8475591
40
0.0905561
50
200.1304287
51
219.1733455
0
ARC
8
DEFAULT_255_1_388
10
13.5097388
20
133.8371695
40
0.0721626
50
220.4434631
51
249.6169985
0
ARC
8
DEFAULT_255_1_388
10
13.5271614
20
133.8809919
40
0.1193141
50
249.1038184
51
262.7745376
0
ARC
8
DEFAULT_255_1_388
10
13.5370796
20
133.9517481
40
0.1907583
50
262.4921618
51
270.2607019
0
ARC
8
DEFAULT_255_1_388
10
13.5367878
20
133.9759817
40
0.2149929
50
270.309081
51
275.6615459
0
ARC
8
DEFAULT_255_1_388
10
13.5207286
20
134.1448342
40
0.3846066
50
275.5607354
51
279.087751
0
ARC
8
DEFAULT_255_1_388
10
13.4835218
20
134.3809428
40
0.6236283
50
279.0369545
51
281.5000133
0
ARC
8
DEFAULT_255_1_388
10
13.4444486
20
134.5786499
40
0.825157
50
281.4217093
51
282.1031556
0
ARC
8
DEFAULT_255_1_388
10
13.4820461
20
134.1243229
40
0.5064619
50
275.2597791
51
285.5081125
0
ARC
8
DEFAULT_255_1_388
10
13.4889475
20
134.0617452
40
0.4435166
50
270.0268175
51
275.1130565
0
ARC
8
DEFAULT_255_1_388
10
13.4866927
20
133.9124367
40
0.2942182
50
257.3572424
51
270.4795428
0
ARC
8
DEFAULT_255_1_388
10
13.4627197
20
133.8113952
40
0.1903838
50
230.8036715
51
257.7414447
0
ARC
8
DEFAULT_255_1_388
10
13.4550693
20
133.7990723
40
0.1760087
50
219.9745381
51
230.1985446
0
ARC
8
DEFAULT_255_1_388
10
13.492398
20
133.8276116
40
0.2229598
50
196.5081334
51
219.4319996
0
ARC
8
DEFAULT_255_1_388
10
13.6066592
20
133.8634617
40
0.3427033
50
184.6408645
51
196.8266009
0
ARC
8
DEFAULT_255_1_388
10
13.7467497
20
133.877601
40
0.4834863
50
179.8987586
51
184.9677262
0
LINE
8
DEFAULT_255_1_388
10
13.9897298
20
134.6139567
11
13.9897298
21
133.6363
0
LINE
8
DEFAULT_255_1_388
10
13.9897298
20
133.6363
11
13.8225704
21
133.6363
0
LINE
8
DEFAULT_255_1_388
10
13.8225704
20
133.6363
11
13.8225704
21
134.6139567
0
LINE
8
DEFAULT_255_1_388
10
13.8225704
20
134.6139567
11
13.9897298
21
134.6139567
0
ARC
8
DEFAULT_255_1_388
10
13.9191066
20
134.8743428
40
0.1100948
50
161.4148232
51
180.5532607
0
ARC
8
DEFAULT_255_1_388
10
13.9051376
20
134.8781875
40
0.0956324
50
138.1830164
51
160.9307633
0
ARC
8
DEFAULT_255_1_388
10
13.8927563
20
134.8889313
40
0.0792417
50
104.6371663
51
138.0036136
0
ARC
8
DEFAULT_255_1_388
10
13.9048102
20
134.8476963
40
0.1221906
50
92.0601206
51
105.2198859
0
ARC
8
DEFAULT_255_1_388
10
13.9074466
20
134.8088583
40
0.161103
50
89.9790681
51
92.5006086
0
ARC
8
DEFAULT_255_1_388
10
13.9085642
20
134.8344998
40
0.1354654
50
78.0234649
51
90.4478111
0
ARC
8
DEFAULT_255_1_388
10
13.9189227
20
134.8810203
40
0.0878096
50
55.0521508
51
78.336297
0
ARC
8
DEFAULT_255_1_388
10
13.9245761
20
134.8905168
40
0.0767913
50
42.0506198
51
54.4508489
0
ARC
8
DEFAULT_255_1_388
10
13.9093794
20
134.8765821
40
0.0974091
50
1.7493657
51
42.1498724
0
ARC
8
DEFAULT_255_1_388
10
13.88077
20
134.8733166
40
0.1261276
50
359.9832635
51
2.8353994
0
ARC
8
DEFAULT_255_1_388
10
13.8994109
20
134.8722412
40
0.1074916
50
342.1062453
51
0.5535864
0
ARC
8
DEFAULT_255_1_388
10
13.9154534
20
134.8678197
40
0.0908695
50
316.7110111
51
341.6513114
0
ARC
8
DEFAULT_255_1_388
10
13.9229966
20
134.8610607
40
0.0807447
50
285.4398289
51
316.5320129
0
ARC
8
DEFAULT_255_1_388
10
13.9106136
20
134.9022023
40
0.1237022
50
272.3543902
51
285.8951677
0
ARC
8
DEFAULT_255_1_388
10
13.9075846
20
134.9437742
40
0.1653687
50
269.9725761
51
272.8112722
0
ARC
8
DEFAULT_255_1_388
10
13.9064898
20
134.9186727
40
0.1402709
50
258.8433431
51
270.4148607
0
ARC
8
DEFAULT_255_1_388
10
13.8963678
20
134.8696739
40
0.0902407
50
238.54281
51
259.1289544
0
ARC
8
DEFAULT_255_1_388
10
13.8887
20
134.8557694
40
0.0743817
50
222.5056676
51
237.9918132
0
ARC
8
DEFAULT_255_1_388
10
13.9030593
20
134.8688295
40
0.0937918
50
184.1070774
51
222.4604165
0
ARC
8
DEFAULT_255_1_388
10
13.9333007
20
134.8731538
40
0.1242838
50
179.9419581
51
185.0970785
0
LINE
8
DEFAULT_255_1_388
10
14.3312772
20
134.6139567
11
14.5797574
21
133.8630947
0
LINE
8
DEFAULT_255_1_388
10
14.5797574
20
133.8630947
11
14.8219127
21
134.6139567
0
LINE
8
DEFAULT_255_1_388
10
14.8219127
20
134.6139567
11
14.9926864
21
134.6139567
0
LINE
8
DEFAULT_255_1_388
10
14.9926864
20
134.6139567
11
14.6421034
21
133.6363
0
LINE
8
DEFAULT_255_1_388
10
14.6421034
20
133.6363
11
14.5147008
21
133.6363
0
LINE
8
DEFAULT_255_1_388
10
14.5147008
20
133.6363
11
14.1605035
21
134.6139567
0
LINE
8
DEFAULT_255_1_388
10
14.1605035
20
134.6139567
11
14.3312772
21
134.6139567
0
LINE
8
DEFAULT_255_1_388
10
15.3351373
20
134.6139567
11
15.3351373
21
133.6363
0
LINE
8
DEFAULT_255_1_388
10
15.3351373
20
133.6363
11
15.1679779
21
133.6363
0
LINE
8
DEFAULT_255_1_388
10
15.1679779
20
133.6363
11
15.1679779
21
134.6139567
0
LINE
8
DEFAULT_255_1_388
10
15.1679779
20
134.6139567
11
15.3351373
21
134.6139567
0
ARC
8
DEFAULT_255_1_388
10
15.2645141
20
134.8743428
40
0.1100948
50
161.4148232
51
180.5532607
0
ARC
8
DEFAULT_255_1_388
10
15.2505451
20
134.8781875
40
0.0956324
50
138.1830164
51
160.9307633
0
ARC
8
DEFAULT_255_1_388
10
15.2381638
20
134.8889313
40
0.0792417
50
104.6371663
51
138.0036136
0
ARC
8
DEFAULT_255_1_388
10
15.2502177
20
134.8476963
40
0.1221906
50
92.0601206
51
105.2198859
0
ARC
8
DEFAULT_255_1_388
10
15.2528541
20
134.8088583
40
0.161103
50
89.9790681
51
92.5006086
0
ARC
8
DEFAULT_255_1_388
10
15.2539717
20
134.8344998
40
0.1354654
50
78.0234649
51
90.4478111
0
ARC
8
DEFAULT_255_1_388
10
15.2643301
20
134.8810203
40
0.0878096
50
55.0521508
51
78.336297
0
ARC
8
DEFAULT_255_1_388
10
15.2699836
20
134.8905168
40
0.0767913
50
42.0506198
51
54.4508489
0
ARC
8
DEFAULT_255_1_388
10
15.2547869
20
134.8765821
40
0.0974091
50
1.7493657
51
42.1498724
0
ARC
8
DEFAULT_255_1_388
10
15.2261774
20
134.8733166
40
0.1261276
50
359.9832635
51
2.8353994
0
ARC
8
DEFAULT_255_1_388
10
15.2448184
20
134.8722412
40
0.1074916
50
342.1062453
51
0.5535864
0
ARC
8
DEFAULT_255_1_388
10
15.2608608
20
134.8678197
40
0.0908695
50
316.7110111
51
341.6513114
0
ARC
8
DEFAULT_255_1_388
10
15.268404
20
134.8610607
40
0.0807447
50
285.4398289
51
316.5320129
0
ARC
8
DEFAULT_255_1_388
10
15.2560211
20
134.9022023
40
0.1237022
50
272.3543902
51
285.8951677
0
ARC
8
DEFAULT_255_1_388
10
15.2529921
20
134.9437742
40
0.1653687
50
269.9725761
51
272.8112722
0
ARC
8
DEFAULT_255_1_388
10
15.2518973
20
134.9186727
40
0.1402709
50
258.8433431
51
270.4148607
0
ARC
8
DEFAULT_255_1_388
10
15.2417753
20
134.8696739
40
0.0902407
50
238.54281
51
259.1289544
0
ARC
8
DEFAULT_255_1_388
10
15.2341074
20
134.8557694
40
0.0743817
50
222.5056676
51
237.9918132
0
ARC
8
DEFAULT_255_1_388
10
15.2484668
20
134.8688295
40
0.0937918
50
184.1070774
51
222.4604165
0
ARC
8
DEFAULT_255_1_388
10
15.2787081
20
134.8731538
40
0.1242838
50
179.9419581
51
185.0970785
0
LINE
8
DEFAULT_255_1_388
10
15.6622276
20
134.8506906
11
15.8293871
21
134.8506906
0
LINE
8
DEFAULT_255_1_388
10
15.8293871
20
134.8506906
11
15.8293871
21
134.6139567
0
LINE
8
DEFAULT_255_1_388
10
15.8293871
20
134.6139567
11
16.0119071
21
134.6139567
0
LINE
8
DEFAULT_255_1_388
10
16.0119071
20
134.6139567
11
16.0119071
21
134.484747
0
LINE
8
DEFAULT_255_1_388
10
16.0119071
20
134.484747
11
15.8293871
21
134.484747
0
LINE
8
DEFAULT_255_1_388
10
15.8293871
20
134.484747
11
15.8293871
21
133.8784553
0
LINE
8
DEFAULT_255_1_388
10
16.0164249
20
133.7718347
11
16.0164249
21
133.6363
0
LINE
8
DEFAULT_255_1_388
10
15.6622276
20
133.8784553
11
15.6622276
21
134.484747
0
LINE
8
DEFAULT_255_1_388
10
15.6622276
20
134.484747
11
15.4842254
21
134.484747
0
LINE
8
DEFAULT_255_1_388
10
15.4842254
20
134.484747
11
15.4842254
21
134.6139567
0
LINE
8
DEFAULT_255_1_388
10
15.4842254
20
134.6139567
11
15.6622276
21
134.6139567
0
LINE
8
DEFAULT_255_1_388
10
15.6622276
20
134.6139567
11
15.6622276
21
134.8506906
0
ARC
8
DEFAULT_255_1_388
10
16.0552378
20
133.8772842
40
0.2258538
50
179.7029045
51
187.9180047
0
ARC
8
DEFAULT_255_1_388
10
15.9712952
20
133.8652019
40
0.1410477
50
187.7540838
51
200.2454047
0
ARC
8
DEFAULT_255_1_388
10
15.9239858
20
133.8475591
40
0.0905561
50
200.1304287
51
219.1733455
0
ARC
8
DEFAULT_255_1_388
10
15.9087024
20
133.8371695
40
0.0721626
50
220.4434631
51
249.6169985
0
ARC
8
DEFAULT_255_1_388
10
15.9261251
20
133.8809919
40
0.1193141
50
249.1038184
51
262.7745376
0
ARC
8
DEFAULT_255_1_388
10
15.9360433
20
133.9517481
40
0.1907583
50
262.4921618
51
270.2607019
0
ARC
8
DEFAULT_255_1_388
10
15.9357515
20
133.9759817
40
0.2149929
50
270.309081
51
275.6615459
0
ARC
8
DEFAULT_255_1_388
10
15.9196922
20
134.1448342
40
0.3846066
50
275.5607354
51
279.087751
0
ARC
8
DEFAULT_255_1_388
10
15.8824854
20
134.3809428
40
0.6236283
50
279.0369545
51
281.5000133
0
ARC
8
DEFAULT_255_1_388
10
15.8434122
20
134.5786499
40
0.825157
50
281.4217093
51
282.1031556
0
ARC
8
DEFAULT_255_1_388
10
15.8810098
20
134.1243229
40
0.5064619
50
275.2597791
51
285.5081125
0
ARC
8
DEFAULT_255_1_388
10
15.8879112
20
134.0617452
40
0.4435166
50
270.0268175
51
275.1130565
0
ARC
8
DEFAULT_255_1_388
10
15.8856563
20
133.9124367
40
0.2942182
50
257.3572424
51
270.4795428
0
ARC
8
DEFAULT_255_1_388
10
15.8616833
20
133.8113952
40
0.1903838
50
230.8036715
51
257.7414447
0
ARC
8
DEFAULT_255_1_388
10
15.8540329
20
133.7990723
40
0.1760087
50
219.9745381
51
230.1985446
0
ARC
8
DEFAULT_255_1_388
10
15.8913617
20
133.8276116
40
0.2229598
50
196.5081334
51
219.4319996
0
ARC
8
DEFAULT_255_1_388
10
16.0056228
20
133.8634617
40
0.3427033
50
184.6408645
51
196.8266009
0
ARC
8
DEFAULT_255_1_388
10
16.1457134
20
133.877601
40
0.4834863
50
179.8987586
51
184.9677262
0
LINE
8
DEFAULT_255_1_388
10
16.2829764
20
134.6139567
11
16.5269388
21
133.881166
0
LINE
8
DEFAULT_255_1_388
10
16.5269388
20
133.881166
11
16.7546371
21
134.6139567
0
LINE
8
DEFAULT_255_1_388
10
16.7546371
20
134.6139567
11
16.9335428
21
134.6139567
0
LINE
8
DEFAULT_255_1_388
10
16.9335428
20
134.6139567
11
16.5404923
21
133.4854047
0
LINE
8
DEFAULT_255_1_388
10
16.2504481
20
133.2414423
11
16.2188233
21
133.244153
0
LINE
8
DEFAULT_255_1_388
10
16.2188233
20
133.244153
11
16.1564774
21
133.2558994
0
LINE
8
DEFAULT_255_1_388
10
16.1564774
20
133.2558994
11
16.1564774
21
133.391434
0
LINE
8
DEFAULT_255_1_388
10
16.1564774
20
133.391434
11
16.2016556
21
133.3878198
0
LINE
8
DEFAULT_255_1_388
10
16.4121861
20
133.5477507
11
16.4492323
21
133.6471428
0
LINE
8
DEFAULT_255_1_388
10
16.4492323
20
133.6471428
11
16.1004564
21
134.6139567
0
LINE
8
DEFAULT_255_1_388
10
16.1004564
20
134.6139567
11
16.2829764
21
134.6139567
0
ARC
8
DEFAULT_255_1_388
10
16.0190998
20
133.6749303
40
0.5547703
50
327.7224407
51
340.0238521
0
ARC
8
DEFAULT_255_1_388
10
16.2162157
20
133.5476231
40
0.3201385
50
305.2165641
51
328.1467003
0
ARC
8
DEFAULT_255_1_388
10
16.2550379
20
133.5016258
40
0.260224
50
268.9893726
51
304.0733864
0
ARC
8
DEFAULT_255_1_388
10
16.2033137
20
133.7292952
40
0.3414794
50
269.7217889
51
278.0406077
0
ARC
8
DEFAULT_255_1_388
10
16.220839
20
133.6100724
40
0.2209783
50
277.8651481
51
290.8634591
0
ARC
8
DEFAULT_255_1_388
10
16.2442371
20
133.5475914
40
0.1542617
50
291.0076566
51
305.5961613
0
ARC
8
DEFAULT_255_1_388
10
16.2421246
20
133.5458164
40
0.1540723
50
306.6192176
51
324.1022951
0
ARC
8
DEFAULT_255_1_388
10
16.1580896
20
133.6081842
40
0.2587177
50
323.8256989
51
334.2991437
0
ARC
8
DEFAULT_255_1_388
10
16.0181584
20
133.6769118
40
0.4146127
50
334.1272297
51
340.8153479
0
ARC
8
DEFAULT_255_1_388
10
15.9122103
20
133.7160101
40
0.5275293
50
340.5860638
51
341.400105
0
LINE
8
DEFAULT_255_1_388
10
17.9274637
20
133.7727382
11
17.9274637
21
133.6363
0
LINE
8
DEFAULT_255_1_388
10
17.9274637
20
133.6363
11
17.0654632
21
133.6363
0
LINE
8
DEFAULT_255_1_388
10
17.0654632
20
133.6363
11
17.0654632
21
133.7564741
0
LINE
8
DEFAULT_255_1_388
10
17.0654632
20
133.7564741
11
17.5208597
21
134.2624702
0
LINE
8
DEFAULT_255_1_388
10
17.2073229
20
134.5642607
11
17.0401634
21
134.5642607
0
LINE
8
DEFAULT_255_1_388
10
17.6193482
20
134.154946
11
17.2669581
21
133.7727382
0
LINE
8
DEFAULT_255_1_388
10
17.2669581
20
133.7727382
11
17.9274637
21
133.7727382
0
ARC
8
DEFAULT_255_1_388
10
16.0032657
20
135.6044983
40
2.0258655
50
318.5132526
51
320.7829045
0
ARC
8
DEFAULT_255_1_388
10
16.5980614
20
135.1203929
40
1.2589638
50
320.7372878
51
323.9739031
0
ARC
8
DEFAULT_255_1_388
10
17.0389545
20
134.8009554
40
0.7145141
50
323.8962701
51
328.64194
0
ARC
8
DEFAULT_255_1_388
10
17.2691803
20
134.6589545
40
0.4440242
50
328.8294576
51
331.7891185
0
ARC
8
DEFAULT_255_1_388
10
17.3814123
20
134.6010374
40
0.3177517
50
331.4254512
51
352.9365785
0
ARC
8
DEFAULT_255_1_388
10
17.3967123
20
134.597605
40
0.3021496
50
353.2257659
51
0.0166158
0
ARC
8
DEFAULT_255_1_388
10
17.4203884
20
134.6001894
40
0.2784847
50
359.486299
51
15.9343185
0
ARC
8
DEFAULT_255_1_388
10
17.477415
20
134.6155269
40
0.2194403
50
16.1712913
51
43.5286088
0
ARC
8
DEFAULT_255_1_388
10
17.4861095
20
134.6242191
40
0.2071504
50
43.4417391
51
83.1661095
0
ARC
8
DEFAULT_255_1_388
10
17.4710256
20
134.5413316
40
0.2912888
50
82.160179
51
90.1505708
0
ARC
8
DEFAULT_255_1_388
10
17.4674738
20
134.4809279
40
0.3517025
50
89.5460741
51
102.5418361
0
ARC
8
DEFAULT_255_1_388
10
17.4401458
20
134.5968933
40
0.2325748
50
102.1738499
51
129.206123
0
ARC
8
DEFAULT_255_1_388
10
17.4312911
20
134.6108664
40
0.2161591
50
129.72865
51
135.753947
0
ARC
8
DEFAULT_255_1_388
10
17.4449393
20
134.5999728
40
0.2335433
50
136.1757367
51
166.3673339
0
ARC
8
DEFAULT_255_1_388
10
17.5582082
20
134.5696148
40
0.3507873
50
165.9090694
51
178.8684636
0
ARC
8
DEFAULT_255_1_388
10
17.6557853
20
134.5643263
40
0.4484624
50
178.4391136
51
180.0083808
0
ARC
8
DEFAULT_255_1_388
10
17.4978555
20
134.5687197
40
0.4577138
50
163.2878482
51
180.5581842
0
ARC
8
DEFAULT_255_1_388
10
17.4076596
20
134.5935393
40
0.3641968
50
133.4540601
51
162.947111
0
ARC
8
DEFAULT_255_1_388
10
17.4277478
20
134.5721789
40
0.3935189
50
100.7869829
51
133.4382499
0
ARC
8
DEFAULT_255_1_388
10
17.4668723
20
134.3979399
40
0.5720313
50
89.660664
51
101.3702276
0
ARC
8
DEFAULT_255_1_388
10
17.4743331
20
134.4048263
40
0.5651495
50
78.2172678
51
90.412935
0
ARC
8
DEFAULT_255_1_388
10
17.5142797
20
134.5875511
40
0.378122
50
55.9269121
51
78.4888449
0
ARC
8
DEFAULT_255_1_388
10
17.5363512
20
134.6256187
40
0.3342379
50
47.929771
51
55.4049217
0
ARC
8
DEFAULT_255_1_388
10
17.5478043
20
134.6372618
40
0.3179217
50
4.334829
51
48.0560205
0
ARC
8
DEFAULT_255_1_388
10
17.4245844
20
134.6181487
40
0.442341
50
359.9251713
51
5.5971671
0
ARC
8
DEFAULT_255_1_388
10
17.4727999
20
134.6244728
40
0.3941854
50
337.8914027
51
358.9967534
0
ARC
8
DEFAULT_255_1_388
10
17.1675569
20
134.7422295
40
0.7213271
50
326.9132501
51
338.3508308
0
ARC
8
DEFAULT_255_1_388
10
16.7191681
20
135.0296105
40
1.2538973
50
319.6471833
51
327.0959558
0
ARC
8
DEFAULT_255_1_388
10
16.2878339
20
135.385405
40
1.8129975
50
317.2588228
51
319.9045804
0
LINE
8
DEFAULT_255_1_388
10
18.9295167
20
134.414269
11
18.9295167
21
134.1974135
0
LINE
8
DEFAULT_255_1_388
10
18.099141
20
134.1748244
11
18.099141
21
134.3980048
0
LINE
8
DEFAULT_255_1_388
10
18.7623573
20
134.1522353
11
18.7623573
21
134.4260153
0
LINE
8
DEFAULT_255_1_388
10
18.2663004
20
134.4386652
11
18.2663004
21
134.1712102
0
ARC
8
DEFAULT_255_1_388
10
17.5517501
20
134.1919118
40
1.3777776
50
353.8440855
51
0.2287917
0
ARC
8
DEFAULT_255_1_388
10
18.0736518
20
134.1336414
40
0.852639
50
344.4934746
51
353.9763743
0
ARC
8
DEFAULT_255_1_388
10
18.4103326
20
134.0379191
40
0.5026273
50
329.2803599
51
344.7473406
0
ARC
8
DEFAULT_255_1_388
10
18.5218821
20
133.9767038
40
0.3754848
50
324.9361395
51
328.6153007
0
ARC
8
DEFAULT_255_1_388
10
18.5644471
20
133.9469586
40
0.3235566
50
280.5801797
51
324.9173226
0
ARC
8
DEFAULT_255_1_388
10
18.51931
20
134.1349236
40
0.5167077
50
269.5979457
51
281.6732777
0
ARC
8
DEFAULT_255_1_388
10
18.5112003
20
134.1214113
40
0.5032026
50
256.6228565
51
270.5105488
0
ARC
8
DEFAULT_255_1_388
10
18.4659746
20
133.9472345
40
0.3233092
50
215.8618351
51
257.2787793
0
ARC
8
DEFAULT_255_1_388
10
18.5808453
20
134.0243106
40
0.4615831
50
197.9695203
51
215.2622745
0
ARC
8
DEFAULT_255_1_388
10
18.8604129
20
134.1186641
40
0.7566307
50
187.8816486
51
198.2346584
0
ARC
8
DEFAULT_255_1_388
10
19.3057367
20
134.1829453
40
1.2065653
50
180.8977266
51
188.0054894
0
ARC
8
DEFAULT_255_1_388
10
19.6107581
20
134.19444
40
1.5117443
50
180.7434591
51
181.152202
0
ARC
8
DEFAULT_255_1_388
10
19.4432576
20
134.4034371
40
1.3441277
50
173.7674302
51
180.2315596
0
ARC
8
DEFAULT_255_1_388
10
18.9350445
20
134.4608779
40
0.8326847
50
164.3058537
51
173.9000553
0
ARC
8
DEFAULT_255_1_388
10
18.6074445
20
134.5552652
40
0.4917711
50
148.7922028
51
164.5682288
0
ARC
8
DEFAULT_255_1_388
10
18.5005183
20
134.6149457
40
0.3694204
50
144.5883979
51
148.1161588
0
ARC
8
DEFAULT_255_1_388
10
18.4617928
20
134.6419667
40
0.322202
50
101.6440149
51
144.5142619
0
ARC
8
DEFAULT_255_1_388
10
18.509612
20
134.4519337
40
0.5180451
50
89.528284
51
102.5820197
0
ARC
8
DEFAULT_255_1_388
10
18.5185112
20
134.4475376
40
0.5224441
50
77.0437914
51
90.508231
0
ARC
8
DEFAULT_255_1_388
10
18.5637366
20
134.6323272
40
0.3322297
50
48.2777708
51
77.4996087
0
ARC
8
DEFAULT_255_1_388
10
18.5719106
20
134.6468557
40
0.315966
50
36.3141586
51
47.6307332
0
ARC
8
DEFAULT_255_1_388
10
18.4741828
20
134.5810159
40
0.4337313
50
18.2931065
51
35.6770203
0
ARC
8
DEFAULT_255_1_388
10
18.1880669
20
134.4828107
40
0.7362203
50
8.0246996
51
18.5605636
0
ARC
8
DEFAULT_255_1_388
10
17.7197024
20
134.4136432
40
1.2096583
50
1.127539
51
8.1718423
0
ARC
8
DEFAULT_255_1_388
10
17.3548158
20
134.3993374
40
1.5747719
50
0.5432713
51
1.38669
0
ARC
8
DEFAULT_255_1_388
10
17.5605537
20
134.4300163
40
1.2018103
50
359.8092569
51
4.9408001
0
ARC
8
DEFAULT_255_1_388
10
18.0342118
20
134.47229
40
0.7262727
50
4.8364937
51
12.2906017
0
ARC
8
DEFAULT_255_1_388
10
18.3441583
20
134.5413485
40
0.4087324
50
12.0806994
51
23.8171225
0
ARC
8
DEFAULT_255_1_388
10
18.4761979
20
134.5972508
40
0.2653719
50
24.2874621
51
31.3934353
0
ARC
8
DEFAULT_255_1_388
10
18.5352415
20
134.6358822
40
0.1948607
50
30.7407708
51
82.4658033
0
ARC
8
DEFAULT_255_1_388
10
18.5150075
20
134.5365017
40
0.2961198
50
81.1057101
51
90.2187368
0
ARC
8
DEFAULT_255_1_388
10
18.5109887
20
134.5655421
40
0.2670929
50
89.380395
51
105.6763916
0
ARC
8
DEFAULT_255_1_388
10
18.4903609
20
134.640532
40
0.1893189
50
105.7980655
51
149.7387869
0
ARC
8
DEFAULT_255_1_388
10
18.6100749
20
134.5685719
40
0.3289892
50
149.4208441
51
163.628295
0
ARC
8
DEFAULT_255_1_388
10
18.8452979
20
134.4968345
40
0.5749004
50
163.3764549
51
172.141138
0
ARC
8
DEFAULT_255_1_388
10
19.21657
20
134.4436582
40
0.9499585
50
172.0258462
51
178.0705453
0
ARC
8
DEFAULT_255_1_388
10
19.5587253
20
134.4274682
40
1.2924734
50
177.8639301
51
179.5036263
0
ARC
8
DEFAULT_255_1_388
10
19.4368272
20
134.1671151
40
1.170534
50
179.7995545
51
185.246089
0
ARC
8
DEFAULT_255_1_388
10
18.9819865
20
134.1240404
40
0.7136613
50
185.1411911
51
193.0082205
0
ARC
8
DEFAULT_255_1_388
10
18.6846126
20
134.0537441
40
0.4080987
50
192.7897338
51
205.2507384
0
ARC
8
DEFAULT_255_1_388
10
18.5668336
20
134.0011538
40
0.2791522
50
205.8001921
51
211.2545876
0
ARC
8
DEFAULT_255_1_388
10
18.5079875
20
133.9617132
40
0.2084074
50
210.3789935
51
238.4007996
0
ARC
8
DEFAULT_255_1_388
10
18.5057961
20
133.9669786
40
0.2117943
50
239.6521916
51
265.9793852
0
ARC
8
DEFAULT_255_1_388
10
18.515381
20
134.0426358
40
0.2879689
50
265.1324455
51
270.0603288
0
ARC
8
DEFAULT_255_1_388
10
18.5186187
20
134.0061418
40
0.2514919
50
269.3314378
51
287.2180039
0
ARC
8
DEFAULT_255_1_388
10
18.5341269
20
133.9495291
40
0.1928357
50
287.7957942
51
329.0808983
0
ARC
8
DEFAULT_255_1_388
10
18.4264026
20
134.0167651
40
0.319808
50
328.6635261
51
343.3325043
0
ARC
8
DEFAULT_255_1_388
10
18.1819485
20
134.0929195
40
0.5758408
50
343.0498092
51
351.9392499
0
ARC
8
DEFAULT_255_1_388
10
17.7918806
20
134.1504205
40
0.9701202
50
351.8071632
51
357.7957897
0
ARC
8
DEFAULT_255_1_388
10
17.4284283
20
134.1692724
40
1.3340376
50
357.5870923
51
359.2682493
0
LINE
8
DEFAULT_255_1_388
10
19.9686158
20
134.414269
11
19.9686158
21
134.1974135
0
LINE
8
DEFAULT_255_1_388
10
19.1382401
20
134.1748244
11
19.1382401
21
134.3980048
0
LINE
8
DEFAULT_255_1_388
10
19.8014564
20
134.1522353
11
19.8014564
21
134.4260153
0
LINE
8
DEFAULT_255_1_388
10
19.3053995
20
134.4386652
11
19.3053995
21
134.1712102
0
ARC
8
DEFAULT_255_1_388
10
18.5908492
20
134.1919118
40
1.3777776
50
353.8440855
51
0.2287917
0
ARC
8
DEFAULT_255_1_388
10
19.112751
20
134.1336414
40
0.852639
50
344.4934746
51
353.9763743
0
ARC
8
DEFAULT_255_1_388
10
19.4494317
20
134.0379191
40
0.5026273
50
329.2803599
51
344.7473406
0
ARC
8
DEFAULT_255_1_388
10
19.5609812
20
133.9767038
40
0.3754848
50
324.9361395
51
328.6153007
0
ARC
8
DEFAULT_255_1_388
10
19.6035462
20
133.9469586
40
0.3235566
50
280.5801797
51
324.9173226
0
ARC
8
DEFAULT_255_1_388
10
19.5584091
20
134.1349236
40
0.5167077
50
269.5979457
51
281.6732777
0
ARC
8
DEFAULT_255_1_388
10
19.5502994
20
134.1214113
40
0.5032026
50
256.6228565
51
270.5105488
0
ARC
8
DEFAULT_255_1_388
10
19.5050737
20
133.9472345
40
0.3233092
50
215.8618351
51
257.2787793
0
ARC
8
DEFAULT_255_1_388
10
19.6199444
20
134.0243106
40
0.4615831
50
197.9695203
51
215.2622745
0
ARC
8
DEFAULT_255_1_388
10
19.899512
20
134.1186641
40
0.7566307
50
187.8816486
51
198.2346584
0
ARC
8
DEFAULT_255_1_388
10
20.3448358
20
134.1829453
40
1.2065653
50
180.8977266
51
188.0054894
0
ARC
8
DEFAULT_255_1_388
10
20.6498572
20
134.19444
40
1.5117443
50
180.7434591
51
181.152202
0
ARC
8
DEFAULT_255_1_388
10
20.4823568
20
134.4034371
40
1.3441277
50
173.7674302
51
180.2315596
0
ARC
8
DEFAULT_255_1_388
10
19.9741437
20
134.4608779
40
0.8326847
50
164.3058537
51
173.9000553
0
ARC
8
DEFAULT_255_1_388
10
19.6465437
20
134.5552652
40
0.4917711
50
148.7922028
51
164.5682288
0
ARC
8
DEFAULT_255_1_388
10
19.5396174
20
134.6149457
40
0.3694204
50
144.5883979
51
148.1161588
0
ARC
8
DEFAULT_255_1_388
10
19.5008919
20
134.6419667
40
0.322202
50
101.6440149
51
144.5142619
0
ARC
8
DEFAULT_255_1_388
10
19.5487112
20
134.4519337
40
0.5180451
50
89.528284
51
102.5820197
0
ARC
8
DEFAULT_255_1_388
10
19.5576103
20
134.4475376
40
0.5224441
50
77.0437914
51
90.508231
0
ARC
8
DEFAULT_255_1_388
10
19.6028357
20
134.6323272
40
0.3322297
50
48.2777708
51
77.4996087
0
ARC
8
DEFAULT_255_1_388
10
19.6110097
20
134.6468557
40
0.315966
50
36.3141586
51
47.6307332
0
ARC
8
DEFAULT_255_1_388
10
19.5132819
20
134.5810159
40
0.4337313
50
18.2931065
51
35.6770203
0
ARC
8
DEFAULT_255_1_388
10
19.227166
20
134.4828107
40
0.7362203
50
8.0246996
51
18.5605636
0
ARC
8
DEFAULT_255_1_388
10
18.7588016
20
134.4136432
40
1.2096583
50
1.127539
51
8.1718423
0
ARC
8
DEFAULT_255_1_388
10
18.3939149
20
134.3993374
40
1.5747719
50
0.5432713
51
1.38669
0
ARC
8
DEFAULT_255_1_388
10
18.5996528
20
134.4300163
40
1.2018103
50
359.8092569
51
4.9408001
0
ARC
8
DEFAULT_255_1_388
10
19.0733109
20
134.47229
40
0.7262727
50
4.8364937
51
12.2906017
0
ARC
8
DEFAULT_255_1_388
10
19.3832574
20
134.5413485
40
0.4087324
50
12.0806994
51
23.8171225
0
ARC
8
DEFAULT_255_1_388
10
19.515297
20
134.5972508
40
0.2653719
50
24.2874621
51
31.3934353
0
ARC
8
DEFAULT_255_1_388
10
19.5743406
20
134.6358822
40
0.1948607
50
30.7407708
51
82.4658033
0
ARC
8
DEFAULT_255_1_388
10
19.5541067
20
134.5365017
40
0.2961198
50
81.1057101
51
90.2187368
0
ARC
8
DEFAULT_255_1_388
10
19.5500878
20
134.5655421
40
0.2670929
50
89.380395
51
105.6763916
0
ARC
8
DEFAULT_255_1_388
10
19.52946
20
134.640532
40
0.1893189
50
105.7980655
51
149.7387869
0
ARC
8
DEFAULT_255_1_388
10
19.649174
20
134.5685719
40
0.3289892
50
149.4208441
51
163.628295
0
ARC
8
DEFAULT_255_1_388
10
19.884397
20
134.4968345
40
0.5749004
50
163.3764549
51
172.141138
0
ARC
8
DEFAULT_255_1_388
10
20.2556692
20
134.4436582
40
0.9499585
50
172.0258462
51
178.0705453
0
ARC
8
DEFAULT_255_1_388
10
20.5978244
20
134.4274682
40
1.2924734
50
177.8639301
51
179.5036263
0
ARC
8
DEFAULT_255_1_388
10
20.4759263
20
134.1671151
40
1.170534
50
179.7995545
51
185.246089
0
ARC
8
DEFAULT_255_1_388
10
20.0210856
20
134.1240404
40
0.7136613
50
185.1411911
51
193.0082205
0
ARC
8
DEFAULT_255_1_388
10
19.7237117
20
134.0537441
40
0.4080987
50
192.7897338
51
205.2507384
0
ARC
8
DEFAULT_255_1_388
10
19.6059327
20
134.0011538
40
0.2791522
50
205.8001921
51
211.2545876
0
ARC
8
DEFAULT_255_1_388
10
19.5470866
20
133.9617132
40
0.2084074
50
210.3789935
51
238.4007996
0
ARC
8
DEFAULT_255_1_388
10
19.5448952
20
133.9669786
40
0.2117943
50
239.6521916
51
265.9793852
0
ARC
8
DEFAULT_255_1_388
10
19.5544801
20
134.0426358
40
0.2879689
50
265.1324455
51
270.0603288
0
ARC
8
DEFAULT_255_1_388
10
19.5577178
20
134.0061418
40
0.2514919
50
269.3314378
51
287.2180039
0
ARC
8
DEFAULT_255_1_388
10
19.573226
20
133.9495291
40
0.1928357
50
287.7957942
51
329.0808983
0
ARC
8
DEFAULT_255_1_388
10
19.4655017
20
134.0167651
40
0.319808
50
328.6635261
51
343.3325043
0
ARC
8
DEFAULT_255_1_388
10
19.2210476
20
134.0929195
40
0.5758408
50
343.0498092
51
351.9392499
0
ARC
8
DEFAULT_255_1_388
10
18.8309797
20
134.1504205
40
0.9701202
50
351.8071632
51
357.7957897
0
ARC
8
DEFAULT_255_1_388
10
18.4675274
20
134.1692724
40
1.3340376
50
357.5870923
51
359.2682493
0
LINE
8
DEFAULT_255_1_388
10
21.0077149
20
134.414269
11
21.0077149
21
134.1974135
0
LINE
8
DEFAULT_255_1_388
10
20.1773392
20
134.1748244
11
20.1773392
21
134.3980048
0
LINE
8
DEFAULT_255_1_388
10
20.8405555
20
134.1522353
11
20.8405555
21
134.4260153
0
LINE
8
DEFAULT_255_1_388
10
20.3444986
20
134.4386652
11
20.3444986
21
134.1712102
0
ARC
8
DEFAULT_255_1_388
10
19.6299483
20
134.1919118
40
1.3777776
50
353.8440855
51
0.2287917
0
ARC
8
DEFAULT_255_1_388
10
20.1518501
20
134.1336414
40
0.852639
50
344.4934746
51
353.9763743
0
ARC
8
DEFAULT_255_1_388
10
20.4885308
20
134.0379191
40
0.5026273
50
329.2803599
51
344.7473406
0
ARC
8
DEFAULT_255_1_388
10
20.6000804
20
133.9767038
40
0.3754848
50
324.9361395
51
328.6153007
0
ARC
8
DEFAULT_255_1_388
10
20.6426453
20
133.9469586
40
0.3235566
50
280.5801797
51
324.9173226
0
ARC
8
DEFAULT_255_1_388
10
20.5975082
20
134.1349236
40
0.5167077
50
269.5979457
51
281.6732777
0
ARC
8
DEFAULT_255_1_388
10
20.5893986
20
134.1214113
40
0.5032026
50
256.6228565
51
270.5105488
0
ARC
8
DEFAULT_255_1_388
10
20.5441728
20
133.9472345
40
0.3233092
50
215.8618351
51
257.2787793
0
ARC
8
DEFAULT_255_1_388
10
20.6590435
20
134.0243106
40
0.4615831
50
197.9695203
51
215.2622745
0
ARC
8
DEFAULT_255_1_388
10
20.9386111
20
134.1186641
40
0.7566307
50
187.8816486
51
198.2346584
0
ARC
8
DEFAULT_255_1_388
10
21.3839349
20
134.1829453
40
1.2065653
50
180.8977266
51
188.0054894
0
ARC
8
DEFAULT_255_1_388
10
21.6889563
20
134.19444
40
1.5117443
50
180.7434591
51
181.152202
0
ARC
8
DEFAULT_255_1_388
10
21.5214559
20
134.4034371
40
1.3441277
50
173.7674302
51
180.2315596
0
ARC
8
DEFAULT_255_1_388
10
21.0132428
20
134.4608779
40
0.8326847
50
164.3058537
51
173.9000553
0
ARC
8
DEFAULT_255_1_388
10
20.6856428
20
134.5552652
40
0.4917711
50
148.7922028
51
164.5682288
0
ARC
8
DEFAULT_255_1_388
10
20.5787165
20
134.6149457
40
0.3694204
50
144.5883979
51
148.1161588
0
ARC
8
DEFAULT_255_1_388
10
20.5399911
20
134.6419667
40
0.322202
50
101.6440149
51
144.5142619
0
ARC
8
DEFAULT_255_1_388
10
20.5878103
20
134.4519337
40
0.5180451
50
89.528284
51
102.5820197
0
ARC
8
DEFAULT_255_1_388
10
20.5967095
20
134.4475376
40
0.5224441
50
77.0437914
51
90.508231
0
ARC
8
DEFAULT_255_1_388
10
20.6419348
20
134.6323272
40
0.3322297
50
48.2777708
51
77.4996087
0
ARC
8
DEFAULT_255_1_388
10
20.6501088
20
134.6468557
40
0.315966
50
36.3141586
51
47.6307332
0
ARC
8
DEFAULT_255_1_388
10
20.5523811
20
134.5810159
40
0.4337313
50
18.2931065
51
35.6770203
0
ARC
8
DEFAULT_255_1_388
10
20.2662651
20
134.4828107
40
0.7362203
50
8.0246996
51
18.5605636
0
ARC
8
DEFAULT_255_1_388
10
19.7979007
20
134.4136432
40
1.2096583
50
1.127539
51
8.1718423
0
ARC
8
DEFAULT_255_1_388
10
19.433014
20
134.3993374
40
1.5747719
50
0.5432713
51
1.38669
0
ARC
8
DEFAULT_255_1_388
10
19.6387519
20
134.4300163
40
1.2018103
50
359.8092569
51
4.9408001
0
ARC
8
DEFAULT_255_1_388
10
20.11241
20
134.47229
40
0.7262727
50
4.8364937
51
12.2906017
0
ARC
8
DEFAULT_255_1_388
10
20.4223565
20
134.5413485
40
0.4087324
50
12.0806994
51
23.8171225
0
ARC
8
DEFAULT_255_1_388
10
20.5543961
20
134.5972508
40
0.2653719
50
24.2874621
51
31.3934353
0
ARC
8
DEFAULT_255_1_388
10
20.6134397
20
134.6358822
40
0.1948607
50
30.7407708
51
82.4658033
0
ARC
8
DEFAULT_255_1_388
10
20.5932058
20
134.5365017
40
0.2961198
50
81.1057101
51
90.2187368
0
ARC
8
DEFAULT_255_1_388
10
20.589187
20
134.5655421
40
0.2670929
50
89.380395
51
105.6763916
0
ARC
8
DEFAULT_255_1_388
10
20.5685592
20
134.640532
40
0.1893189
50
105.7980655
51
149.7387869
0
ARC
8
DEFAULT_255_1_388
10
20.6882732
20
134.5685719
40
0.3289892
50
149.4208441
51
163.628295
0
ARC
8
DEFAULT_255_1_388
10
20.9234961
20
134.4968345
40
0.5749004
50
163.3764549
51
172.141138
0
ARC
8
DEFAULT_255_1_388
10
21.2947683
20
134.4436582
40
0.9499585
50
172.0258462
51
178.0705453
0
ARC
8
DEFAULT_255_1_388
10
21.6369236
20
134.4274682
40
1.2924734
50
177.8639301
51
179.5036263
0
ARC
8
DEFAULT_255_1_388
10
21.5150254
20
134.1671151
40
1.170534
50
179.7995545
51
185.246089
0
ARC
8
DEFAULT_255_1_388
10
21.0601847
20
134.1240404
40
0.7136613
50
185.1411911
51
193.0082205
0
ARC
8
DEFAULT_255_1_388
10
20.7628108
20
134.0537441
40
0.4080987
50
192.7897338
51
205.2507384
0
ARC
8
DEFAULT_255_1_388
10
20.6450318
20
134.0011538
40
0.2791522
50
205.8001921
51
211.2545876
0
ARC
8
DEFAULT_255_1_388
10
20.5861857
20
133.9617132
40
0.2084074
50
210.3789935
51
238.4007996
0
ARC
8
DEFAULT_255_1_388
10
20.5839943
20
133.9669786
40
0.2117943
50
239.6521916
51
265.9793852
0
ARC
8
DEFAULT_255_1_388
10
20.5935792
20
134.0426358
40
0.2879689
50
265.1324455
51
270.0603288
0
ARC
8
DEFAULT_255_1_388
10
20.5968169
20
134.0061418
40
0.2514919
50
269.3314378
51
287.2180039
0
ARC
8
DEFAULT_255_1_388
10
20.6123251
20
133.9495291
40
0.1928357
50
287.7957942
51
329.0808983
0
ARC
8
DEFAULT_255_1_388
10
20.5046008
20
134.0167651
40
0.319808
50
328.6635261
51
343.3325043
0
ARC
8
DEFAULT_255_1_388
10
20.2601467
20
134.0929195
40
0.5758408
50
343.0498092
51
351.9392499
0
ARC
8
DEFAULT_255_1_388
10
19.8700789
20
134.1504205
40
0.9701202
50
351.8071632
51
357.7957897
0
ARC
8
DEFAULT_255_1_388
10
19.5066266
20
134.1692724
40
1.3340376
50
357.5870923
51
359.2682493
0
LINE
8
DEFAULT_255_2_778
10
10.7161417
20
124.2218483
11
12.0390417
21
124.2218483
0
LINE
8
DEFAULT_255_2_778
10
12.0390417
20
124.2218483
11
12.0390417
21
67.3364483
0
LINE
8
DEFAULT_255_2_778
10
12.0390417
20
62.0447483
11
12.0390417
21
5.1593483
0
LINE
8
DEFAULT_255_2_778
10
12.0390417
20
5.1593483
11
10.7161417
21
5.1593483
0
LINE
8
DEFAULT_255_2_778
10
10.7161834
20
67.3364333
11
13.3619834
21
67.3364333
0
LINE
8
DEFAULT_255_2_778
10
13.3619834
20
67.3364333
11
13.3619834
21
62.0447333
0
LINE
8
DEFAULT_255_2_778
10
13.3619834
20
62.0447333
11
10.7161834
21
62.0447333
0
LINE
8
DEFAULT_255_2_778
10
10.7161834
20
62.0447333
11
10.7161834
21
67.3364333
0
LINE
8
DEFAULT_255_2_778
10
11.5099
20
62.5739666
11
11.5099
21
66.8072666
0
LINE
8
DEFAULT_255_2_778
10
11.2453167
20
66.013575
11
11.5099167
21
66.807275
0
LINE
8
DEFAULT_255_2_778
10
11.5099167
20
66.807275
11
11.7745167
21
66.013575
0
LINE
8
DEFAULT_255_2_778
10
11.7745167
20
66.013575
11
11.2453167
21
66.013575
0
LINE
8
DEFAULT_255_2_778
10
12.5682
20
66.8072666
11
12.5682
21
62.5739666
0
LINE
8
DEFAULT_255_2_778
10
12.3036167
20
63.367675
11
12.5682167
21
62.573975
0
LINE
8
DEFAULT_255_2_778
10
12.5682167
20
62.573975
11
12.8328167
21
63.367675
0
LINE
8
DEFAULT_255_2_778
10
12.8328167
20
63.367675
11
12.3036167
21
63.367675
0
LINE
8
DEFAULT_255_1_388
10
4.8826318
20
131.7883382
11
4.8826318
21
131.6519
0
LINE
8
DEFAULT_255_1_388
10
4.8826318
20
131.6519
11
4.0206313
21
131.6519
0
LINE
8
DEFAULT_255_1_388
10
4.0206313
20
131.6519
11
4.0206313
21
131.7720741
0
LINE
8
DEFAULT_255_1_388
10
4.0206313
20
131.7720741
11
4.4760278
21
132.2780702
0
LINE
8
DEFAULT_255_1_388
10
4.1624909
20
132.5798607
11
3.9953315
21
132.5798607
0
LINE
8
DEFAULT_255_1_388
10
4.5745163
20
132.170546
11
4.2221262
21
131.7883382
0
LINE
8
DEFAULT_255_1_388
10
4.2221262
20
131.7883382
11
4.8826318
21
131.7883382
0
ARC
8
DEFAULT_255_1_388
10
2.9584337
20
133.6200983
40
2.0258655
50
318.5132526
51
320.7829045
0
ARC
8
DEFAULT_255_1_388
10
3.5532294
20
133.1359929
40
1.2589638
50
320.7372878
51
323.9739031
0
ARC
8
DEFAULT_255_1_388
10
3.9941226
20
132.8165554
40
0.7145141
50
323.8962701
51
328.64194
0
ARC
8
DEFAULT_255_1_388
10
4.2243484
20
132.6745545
40
0.4440242
50
328.8294576
51
331.7891185
0
ARC
8
DEFAULT_255_1_388
10
4.3365804
20
132.6166374
40
0.3177517
50
331.4254512
51
352.9365785
0
ARC
8
DEFAULT_255_1_388
10
4.3518804
20
132.613205
40
0.3021496
50
353.2257659
51
0.0166158
0
ARC
8
DEFAULT_255_1_388
10
4.3755564
20
132.6157894
40
0.2784847
50
359.486299
51
15.9343185
0
ARC
8
DEFAULT_255_1_388
10
4.4325831
20
132.6311269
40
0.2194403
50
16.1712913
51
43.5286088
0
ARC
8
DEFAULT_255_1_388
10
4.4412776
20
132.6398191
40
0.2071504
50
43.4417391
51
83.1661095
0
ARC
8
DEFAULT_255_1_388
10
4.4261937
20
132.5569316
40
0.2912888
50
82.160179
51
90.1505708
0
ARC
8
DEFAULT_255_1_388
10
4.4226418
20
132.4965279
40
0.3517025
50
89.5460741
51
102.5418361
0
ARC
8
DEFAULT_255_1_388
10
4.3953138
20
132.6124933
40
0.2325748
50
102.1738499
51
129.206123
0
ARC
8
DEFAULT_255_1_388
10
4.3864592
20
132.6264664
40
0.2161591
50
129.72865
51
135.753947
0
ARC
8
DEFAULT_255_1_388
10
4.4001074
20
132.6155728
40
0.2335433
50
136.1757367
51
166.3673339
0
ARC
8
DEFAULT_255_1_388
10
4.5133762
20
132.5852148
40
0.3507873
50
165.9090694
51
178.8684636
0
ARC
8
DEFAULT_255_1_388
10
4.6109534
20
132.5799263
40
0.4484624
50
178.4391136
51
180.0083808
0
ARC
8
DEFAULT_255_1_388
10
4.4530235
20
132.5843197
40
0.4577138
50
163.2878482
51
180.5581842
0
ARC
8
DEFAULT_255_1_388
10
4.3628276
20
132.6091393
40
0.3641968
50
133.4540601
51
162.947111
0
ARC
8
DEFAULT_255_1_388
10
4.3829158
20
132.5877789
40
0.3935189
50
100.7869829
51
133.4382499
0
ARC
8
DEFAULT_255_1_388
10
4.4220403
20
132.4135399
40
0.5720313
50
89.660664
51
101.3702276
0
ARC
8
DEFAULT_255_1_388
10
4.4295012
20
132.4204263
40
0.5651495
50
78.2172678
51
90.412935
0
ARC
8
DEFAULT_255_1_388
10
4.4694478
20
132.6031511
40
0.378122
50
55.9269121
51
78.4888449
0
ARC
8
DEFAULT_255_1_388
10
4.4915193
20
132.6412187
40
0.3342379
50
47.929771
51
55.4049217
0
ARC
8
DEFAULT_255_1_388
10
4.5029723
20
132.6528618
40
0.3179217
50
4.334829
51
48.0560205
0
ARC
8
DEFAULT_255_1_388
10
4.3797525
20
132.6337487
40
0.442341
50
359.9251713
51
5.5971671
0
ARC
8
DEFAULT_255_1_388
10
4.427968
20
132.6400728
40
0.3941854
50
337.8914027
51
358.9967534
0
ARC
8
DEFAULT_255_1_388
10
4.122725
20
132.7578295
40
0.7213271
50
326.9132501
51
338.3508308
0
ARC
8
DEFAULT_255_1_388
10
3.6743362
20
133.0452105
40
1.2538973
50
319.6471833
51
327.0959558
0
ARC
8
DEFAULT_255_1_388
10
3.243002
20
133.401005
40
1.8129975
50
317.2588228
51
319.9045804
0
LINE
8
DEFAULT_255_1_388
10
5.7654143
20
132.9674898
11
5.7654143
21
132.093743
0
LINE
8
DEFAULT_255_1_388
10
5.7654143
20
132.093743
11
5.9479343
21
132.093743
0
LINE
8
DEFAULT_255_1_388
10
5.9479343
20
132.093743
11
5.9479343
21
131.9573048
0
LINE
8
DEFAULT_255_1_388
10
5.9479343
20
131.9573048
11
5.7654143
21
131.9573048
0
LINE
8
DEFAULT_255_1_388
10
5.7654143
20
131.9573048
11
5.7654143
21
131.6519
0
LINE
8
DEFAULT_255_1_388
10
5.7654143
20
131.6519
11
5.5973513
21
131.6519
0
LINE
8
DEFAULT_255_1_388
10
5.5973513
20
131.6519
11
5.5973513
21
131.9573048
0
LINE
8
DEFAULT_255_1_388
10
5.5973513
20
131.9573048
11
4.998288
21
131.9573048
0
LINE
8
DEFAULT_255_1_388
10
4.998288
20
131.9573048
11
4.998288
21
132.0557933
0
LINE
8
DEFAULT_255_1_388
10
4.998288
20
132.0557933
11
5.5874121
21
132.9674898
0
LINE
8
DEFAULT_255_1_388
10
5.5874121
20
132.9674898
11
5.7654143
21
132.9674898
0
LINE
8
DEFAULT_255_1_388
10
5.5774729
20
132.7027455
11
5.1880366
21
132.093743
0
LINE
8
DEFAULT_255_1_388
10
5.1880366
20
132.093743
11
5.5973513
21
132.093743
0
LINE
8
DEFAULT_255_1_388
10
5.5973513
20
132.093743
11
5.5973513
21
132.738888
0
LINE
8
DEFAULT_255_1_388
10
5.5973513
20
132.738888
11
5.5774729
21
132.7027455
0
LINE
8
DEFAULT_255_1_388
10
6.203643
20
132.9674898
11
6.5777187
21
131.8823089
0
LINE
8
DEFAULT_255_1_388
10
6.5777187
20
131.8823089
11
6.9536015
21
132.9674898
0
LINE
8
DEFAULT_255_1_388
10
6.9536015
20
132.9674898
11
7.14335
21
132.9674898
0
LINE
8
DEFAULT_255_1_388
10
7.14335
20
132.9674898
11
6.6554252
21
131.6519
0
LINE
8
DEFAULT_255_1_388
10
6.6554252
20
131.6519
11
6.5018193
21
131.6519
0
LINE
8
DEFAULT_255_1_388
10
6.5018193
20
131.6519
11
6.014798
21
132.9674898
0
LINE
8
DEFAULT_255_1_388
10
6.014798
20
132.9674898
11
6.203643
21
132.9674898
0
LINE
8
DEFAULT_255_1_388
10
4.5033985
20
5.9738148
11
4.5033985
21
4.6519
0
LINE
8
DEFAULT_255_1_388
10
4.5033985
20
4.6519
11
4.3353355
21
4.6519
0
LINE
8
DEFAULT_255_1_388
10
4.3353355
20
4.6519
11
4.3353355
21
5.765995
0
LINE
8
DEFAULT_255_1_388
10
4.3353355
20
5.765995
11
3.998306
21
5.6422066
0
LINE
8
DEFAULT_255_1_388
10
3.998306
20
5.6422066
11
3.998306
21
5.7940055
0
LINE
8
DEFAULT_255_1_388
10
3.998306
20
5.7940055
11
4.4771951
21
5.9738148
0
LINE
8
DEFAULT_255_1_388
10
4.4771951
20
5.9738148
11
4.5033985
21
5.9738148
0
LINE
8
DEFAULT_255_1_388
10
5.6193006
20
5.9683934
11
5.6491182
21
5.9683934
0
LINE
8
DEFAULT_255_1_388
10
5.6491182
20
5.9683934
11
5.6491182
21
5.8265338
0
LINE
8
DEFAULT_255_1_388
10
5.6491182
20
5.8265338
11
5.618397
21
5.8265338
0
LINE
8
DEFAULT_255_1_388
10
5.0030696
20
5.1524747
11
5.0030696
21
5.2166278
0
LINE
8
DEFAULT_255_1_388
10
5.1711326
20
5.1949422
11
5.1711326
21
5.1334999
0
ARC
8
DEFAULT_255_1_388
10
5.6242862
20
5.2642826
40
0.562282
50
90.6001079
51
104.5146616
0
ARC
8
DEFAULT_255_1_388
10
5.5805821
20
5.42681
40
0.3939917
50
104.2855758
51
133.8630124
0
ARC
8
DEFAULT_255_1_388
10
5.5990074
20
5.4146243
40
0.4155734
50
134.5304124
51
161.6210222
0
ARC
8
DEFAULT_255_1_388
10
5.7850006
20
5.3490421
40
0.6127682
50
161.2850533
51
174.2074364
0
ARC
8
DEFAULT_255_1_388
10
5.9439573
20
5.3271437
40
0.7731446
50
173.7817938
51
174.9251711
0
ARC
8
DEFAULT_255_1_388
10
5.4313767
20
5.171627
40
0.3412588
50
95.8332067
51
138.995412
0
ARC
8
DEFAULT_255_1_388
10
5.4565047
20
5.0277695
40
0.4870358
50
89.8755506
51
97.0540979
0
ARC
8
DEFAULT_255_1_388
10
5.4618436
20
5.1217841
40
0.3930432
50
71.6407016
51
90.6240821
0
ARC
8
DEFAULT_255_1_388
10
5.4787829
20
5.1841433
40
0.3285421
50
39.6368051
51
71.0190743
0
ARC
8
DEFAULT_255_1_388
10
5.4071737
20
5.1222586
40
0.4231706
50
10.6588054
51
39.9044509
0
ARC
8
DEFAULT_255_1_388
10
5.2330283
20
5.0844223
40
0.60133
50
359.6827842
51
11.1326896
0
ARC
8
DEFAULT_255_1_388
10
5.2285618
20
5.0764715
40
0.6058047
50
347.2485908
51
0.4371098
0
ARC
8
DEFAULT_255_1_388
10
5.4161404
20
5.0313379
40
0.4128987
50
318.1408565
51
347.6118497
0
ARC
8
DEFAULT_255_1_388
10
5.4527001
20
5.0012903
40
0.3656244
50
275.6342406
51
317.824739
0
ARC
8
DEFAULT_255_1_388
10
5.4278521
20
5.1474827
40
0.513655
50
269.8872513
51
276.7916069
0
ARC
8
DEFAULT_255_1_388
10
5.4216714
20
5.0321181
40
0.398323
50
246.9139443
51
270.7436787
0
ARC
8
DEFAULT_255_1_388
10
5.422391
20
5.0161044
40
0.3839368
50
218.1665534
51
245.8780431
0
ARC
8
DEFAULT_255_1_388
10
5.5213282
20
5.0988903
40
0.5128958
50
191.4115343
51
218.6077624
0
ARC
8
DEFAULT_255_1_388
10
5.7393598
20
5.1477777
40
0.7363054
50
179.6344971
51
191.7836758
0
ARC
8
DEFAULT_255_1_388
10
6.3673473
20
5.2241495
40
1.3642984
50
171.4523743
51
180.3158856
0
ARC
8
DEFAULT_255_1_388
10
5.87292
20
5.3010895
40
0.8639311
50
157.9802296
51
171.6246761
0
ARC
8
DEFAULT_255_1_388
10
5.623855
20
5.4004038
40
0.5958004
50
141.4299236
51
157.8541251
0
ARC
8
DEFAULT_255_1_388
10
5.5516634
20
5.4514746
40
0.5075416
50
102.871586
51
140.8564533
0
ARC
8
DEFAULT_255_1_388
10
5.6245187
20
5.1769943
40
0.7914163
50
90.377773
51
103.5868422
0
ARC
8
DEFAULT_255_1_388
10
5.4289708
20
5.1089543
40
0.2667015
50
89.8751238
51
126.2072139
0
ARC
8
DEFAULT_255_1_388
10
5.4341179
20
5.0915847
40
0.2838229
50
124.9742447
51
144.8960197
0
ARC
8
DEFAULT_255_1_388
10
5.4143424
20
5.1076981
40
0.2583845
50
145.2974778
51
160.2660922
0
ARC
8
DEFAULT_255_1_388
10
5.7599912
20
5.1299151
40
0.5888695
50
179.6512124
51
190.285571
0
ARC
8
DEFAULT_255_1_388
10
5.5694392
20
5.0939968
40
0.3949683
50
190.0944895
51
207.5099647
0
ARC
8
DEFAULT_255_1_388
10
5.5057973
20
5.0637177
40
0.3245464
50
207.9585471
51
216.325377
0
ARC
8
DEFAULT_255_1_388
10
5.4675611
20
5.0322712
40
0.2751259
50
215.7661336
51
232.5457193
0
ARC
8
DEFAULT_255_1_388
10
5.4244726
20
4.9775273
40
0.2054668
50
232.8005815
51
270.6605497
0
ARC
8
DEFAULT_255_1_388
10
5.4296151
20
5.0184853
40
0.2464268
50
269.3550767
51
288.474612
0
ARC
8
DEFAULT_255_1_388
10
5.4400658
20
4.9791721
40
0.2058436
50
289.1831976
51
322.9685307
0
ARC
8
DEFAULT_255_1_388
10
5.3712759
20
5.0334279
40
0.2934408
50
322.6007085
51
346.5183319
0
ARC
8
DEFAULT_255_1_388
10
5.2410516
20
5.0666434
40
0.4278249
50
346.2584622
51
358.7739592
0
ARC
8
DEFAULT_255_1_388
10
5.1259091
20
5.0728829
40
0.5430876
50
358.3757628
51
0.0082477
0
ARC
8
DEFAULT_255_1_388
10
5.2115909
20
5.0759856
40
0.4574157
50
359.6211417
51
11.28403
0
ARC
8
DEFAULT_255_1_388
10
5.3552516
20
5.1059535
40
0.3106708
50
11.0483152
51
31.8145585
0
ARC
8
DEFAULT_255_1_388
10
5.3900221
20
5.1248045
40
0.2711963
50
32.3028554
51
38.0820598
0
ARC
8
DEFAULT_255_1_388
10
5.4373454
20
5.1676717
40
0.2075566
50
36.8249851
51
85.741667
0
ARC
8
DEFAULT_255_1_388
10
5.4297866
20
5.1113065
40
0.2643487
50
85.0150021
51
90.050843
0
LINE
8
DEFAULT_255_1_388
10
4.5033985
20
13.9113148
11
4.5033985
21
12.5894
0
LINE
8
DEFAULT_255_1_388
10
4.5033985
20
12.5894
11
4.3353355
21
12.5894
0
LINE
8
DEFAULT_255_1_388
10
4.3353355
20
12.5894
11
4.3353355
21
13.703495
0
LINE
8
DEFAULT_255_1_388
10
4.3353355
20
13.703495
11
3.998306
21
13.5797066
0
LINE
8
DEFAULT_255_1_388
10
3.998306
20
13.5797066
11
3.998306
21
13.7315055
0
LINE
8
DEFAULT_255_1_388
10
3.998306
20
13.7315055
11
4.4771951
21
13.9113148
0
LINE
8
DEFAULT_255_1_388
10
4.4771951
20
13.9113148
11
4.5033985
21
13.9113148
0
LINE
8
DEFAULT_255_1_388
10
5.2036609
20
13.2146666
11
5.0699334
21
13.2490021
0
LINE
8
DEFAULT_255_1_388
10
5.0699334
20
13.2490021
11
5.1367972
21
13.9049898
0
LINE
8
DEFAULT_255_1_388
10
5.1367972
20
13.9049898
11
5.8108563
21
13.9049898
0
LINE
8
DEFAULT_255_1_388
10
5.8108563
20
13.9049898
11
5.8108563
21
13.7504803
0
LINE
8
DEFAULT_255_1_388
10
5.8108563
20
13.7504803
11
5.2786568
21
13.7504803
0
LINE
8
DEFAULT_255_1_388
10
5.2786568
20
13.7504803
11
5.2389
21
13.3917652
0
LINE
8
DEFAULT_255_1_388
10
5.022948
20
12.9354652
11
5.1810718
21
12.9354652
0
LINE
8
DEFAULT_255_1_388
10
5.2479356
20
13.2508092
11
5.2036609
21
13.2146666
0
ARC
8
DEFAULT_255_1_388
10
5.4475613
20
13.0340241
40
0.4141476
50
93.7181681
51
120.253934
0
ARC
8
DEFAULT_255_1_388
10
5.4581665
20
12.9431284
40
0.5055616
50
89.9660471
51
94.2495185
0
ARC
8
DEFAULT_255_1_388
10
5.4627487
20
13.0094154
40
0.4392953
50
73.8045384
51
90.5585736
0
ARC
8
DEFAULT_255_1_388
10
5.4891745
20
13.105952
40
0.3392225
50
41.3071072
51
73.543002
0
ARC
8
DEFAULT_255_1_388
10
5.4423565
20
13.0656461
40
0.4009977
50
13.5075837
51
41.2174839
0
ARC
8
DEFAULT_255_1_388
10
5.2576662
20
13.0172907
40
0.5918864
50
1.1330171
51
13.8830737
0
ARC
8
DEFAULT_255_1_388
10
5.0980308
20
13.0087522
40
0.7516787
50
359.9925091
51
1.5431298
0
ARC
8
DEFAULT_255_1_388
10
5.2424923
20
13.0041027
40
0.6072343
50
347.8572712
51
0.4294349
0
ARC
8
DEFAULT_255_1_388
10
5.4394058
20
12.9594898
40
0.4053482
50
323.6727442
51
348.1674594
0
ARC
8
DEFAULT_255_1_388
10
5.4725022
20
12.9393175
40
0.3667495
50
316.8171818
51
323.1486802
0
ARC
8
DEFAULT_255_1_388
10
5.4794146
20
12.9351612
40
0.358869
50
281.839603
51
316.5458142
0
ARC
8
DEFAULT_255_1_388
10
5.4371434
20
13.1101363
40
0.5388223
50
269.5770964
51
282.4214641
0
ARC
8
DEFAULT_255_1_388
10
5.4291354
20
13.086093
40
0.5147801
50
256.2425863
51
270.4486481
0
ARC
8
DEFAULT_255_1_388
10
5.3954882
20
12.9511124
40
0.3756708
50
228.9024379
51
256.33135
0
ARC
8
DEFAULT_255_1_388
10
5.3871862
20
12.9380054
40
0.360344
50
193.7536029
51
228.5272638
0
ARC
8
DEFAULT_255_1_388
10
5.5264427
20
12.9788463
40
0.5053599
50
184.9244437
51
194.4976052
0
ARC
8
DEFAULT_255_1_388
10
5.5481068
20
12.9828722
40
0.3700839
50
187.3596909
51
198.6733728
0
ARC
8
DEFAULT_255_1_388
10
5.4300312
20
12.9419373
40
0.2451195
50
198.4453795
51
217.7945479
0
ARC
8
DEFAULT_255_1_388
10
5.3967484
20
12.9183563
40
0.2043754
50
218.2887146
51
228.5613203
0
ARC
8
DEFAULT_255_1_388
10
5.4077491
20
12.9331902
40
0.2227819
50
228.9652423
51
258.1237049
0
ARC
8
DEFAULT_255_1_388
10
5.4308929
20
13.0322964
40
0.3245374
50
257.7260585
51
270.4013717
0
ARC
8
DEFAULT_255_1_388
10
5.4359427
20
12.9822255
40
0.2744726
50
269.4204315
51
286.420998
0
ARC
8
DEFAULT_255_1_388
10
5.4526482
20
12.9215705
40
0.2115721
50
286.7250065
51
320.6004665
0
ARC
8
DEFAULT_255_1_388
10
5.4095398
20
12.9565527
40
0.2670878
50
320.6712228
51
344.5440474
0
ARC
8
DEFAULT_255_1_388
10
5.2794112
20
12.9947394
40
0.4026927
50
344.241448
51
356.735803
0
ARC
8
DEFAULT_255_1_388
10
5.1390419
20
13.0063656
40
0.5435085
50
356.3547471
51
0.0507222
0
ARC
8
DEFAULT_255_1_388
10
5.2892684
20
13.0098812
40
0.3932934
50
359.5579289
51
12.9534322
0
ARC
8
DEFAULT_255_1_388
10
5.4079524
20
13.0386586
40
0.2711827
50
12.6489751
51
41.608121
0
ARC
8
DEFAULT_255_1_388
10
5.4338684
20
13.0606946
40
0.2371737
50
41.7851122
51
85.9892156
0
ARC
8
DEFAULT_255_1_388
10
5.4199994
20
12.9691738
40
0.3295244
50
84.6965848
51
90.0672125
0
ARC
8
DEFAULT_255_1_388
10
5.4173561
20
12.8940118
40
0.4046926
50
89.6804991
51
99.161352
0
ARC
8
DEFAULT_255_1_388
10
5.3942571
20
13.0320848
40
0.2647044
50
98.9836248
51
113.8905702
0
ARC
8
DEFAULT_255_1_388
10
5.3684246
20
13.0930118
40
0.1985386
50
114.195234
51
127.3641866
0
LINE
8
DEFAULT_255_1_388
10
4.6356985
20
21.8488148
11
4.6356985
21
20.5269
0
LINE
8
DEFAULT_255_1_388
10
4.6356985
20
20.5269
11
4.4676355
21
20.5269
0
LINE
8
DEFAULT_255_1_388
10
4.4676355
20
20.5269
11
4.4676355
21
21.640995
0
LINE
8
DEFAULT_255_1_388
10
4.4676355
20
21.640995
11
4.130606
21
21.5172066
0
LINE
8
DEFAULT_255_1_388
10
4.130606
20
21.5172066
11
4.130606
21
21.6690055
0
LINE
8
DEFAULT_255_1_388
10
4.130606
20
21.6690055
11
4.6094951
21
21.8488148
0
LINE
8
DEFAULT_255_1_388
10
4.6094951
20
21.8488148
11
4.6356985
21
21.8488148
0
LINE
8
DEFAULT_255_1_388
10
5.8311143
20
21.8424898
11
5.8311143
21
20.968743
0
LINE
8
DEFAULT_255_1_388
10
5.8311143
20
20.968743
11
6.0136343
21
20.968743
0
LINE
8
DEFAULT_255_1_388
10
6.0136343
20
20.968743
11
6.0136343
21
20.8323048
0
LINE
8
DEFAULT_255_1_388
10
6.0136343
20
20.8323048
11
5.8311143
21
20.8323048
0
LINE
8
DEFAULT_255_1_388
10
5.8311143
20
20.8323048
11
5.8311143
21
20.5269
0
LINE
8
DEFAULT_255_1_388
10
5.8311143
20
20.5269
11
5.6630513
21
20.5269
0
LINE
8
DEFAULT_255_1_388
10
5.6630513
20
20.5269
11
5.6630513
21
20.8323048
0
LINE
8
DEFAULT_255_1_388
10
5.6630513
20
20.8323048
11
5.063988
21
20.8323048
0
LINE
8
DEFAULT_255_1_388
10
5.063988
20
20.8323048
11
5.063988
21
20.9307933
0
LINE
8
DEFAULT_255_1_388
10
5.063988
20
20.9307933
11
5.6531121
21
21.8424898
0
LINE
8
DEFAULT_255_1_388
10
5.6531121
20
21.8424898
11
5.8311143
21
21.8424898
0
LINE
8
DEFAULT_255_1_388
10
5.6431729
20
21.5777455
11
5.2537366
21
20.968743
0
LINE
8
DEFAULT_255_1_388
10
5.2537366
20
20.968743
11
5.6630513
21
20.968743
0
LINE
8
DEFAULT_255_1_388
10
5.6630513
20
20.968743
11
5.6630513
21
21.613888
0
LINE
8
DEFAULT_255_1_388
10
5.6630513
20
21.613888
11
5.6431729
21
21.5777455
0
LINE
8
DEFAULT_255_1_388
10
4.5033985
20
29.7863148
11
4.5033985
21
28.4644
0
LINE
8
DEFAULT_255_1_388
10
4.5033985
20
28.4644
11
4.3353355
21
28.4644
0
LINE
8
DEFAULT_255_1_388
10
4.3353355
20
28.4644
11
4.3353355
21
29.578495
0
LINE
8
DEFAULT_255_1_388
10
4.3353355
20
29.578495
11
3.998306
21
29.4547066
0
LINE
8
DEFAULT_255_1_388
10
3.998306
20
29.4547066
11
3.998306
21
29.6065055
0
LINE
8
DEFAULT_255_1_388
10
3.998306
20
29.6065055
11
4.4771951
21
29.7863148
0
LINE
8
DEFAULT_255_1_388
10
4.4771951
20
29.7863148
11
4.5033985
21
29.7863148
0
LINE
8
DEFAULT_255_1_388
10
5.2361893
20
29.0670775
11
5.2361893
21
29.2035157
0
LINE
8
DEFAULT_255_1_388
10
5.2361893
20
29.2035157
11
5.3617847
21
29.2035157
0
LINE
8
DEFAULT_255_1_388
10
5.1476399
20
29.4348282
11
4.9804805
21
29.4348282
0
LINE
8
DEFAULT_255_1_388
10
4.9687342
20
28.8113687
11
5.1367972
21
28.8113687
0
LINE
8
DEFAULT_255_1_388
10
5.3617847
20
29.0670775
11
5.2361893
21
29.0670775
0
ARC
8
DEFAULT_255_1_388
10
5.3585074
20
29.5851922
40
0.3816905
50
270.491971
51
281.8953028
0
ARC
8
DEFAULT_255_1_388
10
5.3856501
20
29.4612199
40
0.2547877
50
281.6690378
51
301.2943765
0
ARC
8
DEFAULT_255_1_388
10
5.4047952
20
29.4261926
40
0.2149197
50
301.7834992
51
311.754567
0
ARC
8
DEFAULT_255_1_388
10
5.4150993
20
29.414765
40
0.1995326
50
311.7325027
51
354.2803031
0
ARC
8
DEFAULT_255_1_388
10
5.3333409
20
29.428828
40
0.2823461
50
353.0941646
51
0.1174696
0
ARC
8
DEFAULT_255_1_388
10
5.2814967
20
29.4341874
40
0.3342238
50
359.1804452
51
15.0452323
0
ARC
8
DEFAULT_255_1_388
10
5.4329026
20
29.4783546
40
0.1765747
50
13.957816
51
77.6713812
0
ARC
8
DEFAULT_255_1_388
10
5.3894261
20
29.3225464
40
0.3381982
50
76.111571
51
90.7028736
0
ARC
8
DEFAULT_255_1_388
10
5.3827673
20
29.353325
40
0.3074046
50
89.5321574
51
103.5319393
0
ARC
8
DEFAULT_255_1_388
10
5.3602057
20
29.4432443
40
0.2147041
50
103.2930114
51
133.5619756
0
ARC
8
DEFAULT_255_1_388
10
5.3551999
20
29.4499351
40
0.2064084
50
133.8349761
51
173.5343225
0
ARC
8
DEFAULT_255_1_388
10
5.4365656
20
29.4355144
40
0.2889266
50
172.5097183
51
180.1360699
0
ARC
8
DEFAULT_255_1_388
10
5.329542
20
29.439388
40
0.3490913
50
155.3483706
51
180.7484035
0
ARC
8
DEFAULT_255_1_388
10
5.3240396
20
29.4361519
40
0.3454798
50
131.5745177
51
154.4799474
0
ARC
8
DEFAULT_255_1_388
10
5.3592678
20
29.4005422
40
0.3955058
50
96.9874487
51
131.9690874
0
ARC
8
DEFAULT_255_1_388
10
5.3839571
20
29.2604407
40
0.537622
50
89.8592909
51
97.7827481
0
ARC
8
DEFAULT_255_1_388
10
5.389368
20
29.230936
40
0.5671399
50
78.3654493
51
90.4132586
0
ARC
8
DEFAULT_255_1_388
10
5.4296321
20
29.4175918
40
0.3762034
50
56.6229818
51
78.6387103
0
ARC
8
DEFAULT_255_1_388
10
5.453815
20
29.4598846
40
0.3275964
50
47.0254604
51
56.085558
0
ARC
8
DEFAULT_255_1_388
10
5.4560401
20
29.4643189
40
0.3228382
50
10.9207523
51
46.777927
0
ARC
8
DEFAULT_255_1_388
10
5.3025995
20
29.4288401
40
0.4802559
50
359.6364235
51
11.6087615
0
ARC
8
DEFAULT_255_1_388
10
5.5090161
20
29.4271404
40
0.273833
50
332.3549969
51
359.7179765
0
ARC
8
DEFAULT_255_1_388
10
5.4358562
20
29.4618285
40
0.3547505
50
325.2332381
51
332.8746682
0
ARC
8
DEFAULT_255_1_388
10
5.4530144
20
29.4498763
40
0.3338396
50
292.9803892
51
325.2391113
0
ARC
8
DEFAULT_255_1_388
10
5.421934
20
29.5103679
40
0.4016959
50
292.542178
51
293.6931461
0
ARC
8
DEFAULT_255_1_388
10
5.4662912
20
28.7838036
40
0.372079
50
57.643292
51
72.8626085
0
ARC
8
DEFAULT_255_1_388
10
5.5061747
20
28.8484273
40
0.2961455
50
36.7246661
51
57.4701329
0
ARC
8
DEFAULT_255_1_388
10
5.5048903
20
28.849847
40
0.2963321
50
8.054535
51
36.3561529
0
ARC
8
DEFAULT_255_1_388
10
5.4078576
20
28.8324073
40
0.3948682
50
359.8316595
51
8.5873361
0
ARC
8
DEFAULT_255_1_388
10
5.365605
20
28.826997
40
0.4371398
50
343.9831631
51
0.557075
0
ARC
8
DEFAULT_255_1_388
10
5.46531
20
28.7996963
40
0.3337749
50
311.6358204
51
343.7652116
0
ARC
8
DEFAULT_255_1_388
10
5.4227353
20
28.8476955
40
0.3979351
50
279.7829743
51
311.625622
0
ARC
8
DEFAULT_255_1_388
10
5.3888489
20
29.0093642
40
0.5630417
50
269.7285092
51
280.3857694
0
ARC
8
DEFAULT_255_1_388
10
5.3818802
20
29.0047241
40
0.5584119
50
256.6827433
51
270.4412869
0
ARC
8
DEFAULT_255_1_388
10
5.3437788
20
28.8489698
40
0.3980715
50
229.4223821
51
256.8554507
0
ARC
8
DEFAULT_255_1_388
10
5.2971342
20
28.7964683
40
0.3278564
50
181.8183354
51
229.6455015
0
ARC
8
DEFAULT_255_1_388
10
5.4140951
20
28.8111825
40
0.4453611
50
179.9760419
51
183.2330638
0
ARC
8
DEFAULT_255_1_388
10
5.3947503
20
28.8088781
40
0.2579652
50
179.4467996
51
196.2871626
0
ARC
8
DEFAULT_255_1_388
10
5.3398957
20
28.7938709
40
0.2011057
50
196.5661293
51
227.7059371
0
ARC
8
DEFAULT_255_1_388
10
5.3583564
20
28.8145155
40
0.2287994
50
227.7653015
51
257.8763321
0
ARC
8
DEFAULT_255_1_388
10
5.3836647
20
28.9205961
40
0.3378385
50
257.4583525
51
270.4267406
0
ARC
8
DEFAULT_255_1_388
10
5.3887897
20
28.953223
40
0.3704652
50
269.5965319
51
280.8788143
0
ARC
8
DEFAULT_255_1_388
10
5.4146125
20
28.8242529
40
0.2389415
50
280.6347277
51
299.8594068
0
ARC
8
DEFAULT_255_1_388
10
5.4360895
20
28.7834736
40
0.19289
50
300.3575552
51
314.5515667
0
ARC
8
DEFAULT_255_1_388
10
5.426757
20
28.7903025
40
0.204312
50
315.0730962
51
345.0429362
0
ARC
8
DEFAULT_255_1_388
10
5.3229078
20
28.8205539
40
0.31246
50
344.598526
51
357.9270698
0
ARC
8
DEFAULT_255_1_388
10
5.2219383
20
28.8274705
40
0.4136265
50
357.4755098
51
0.0224936
0
ARC
8
DEFAULT_255_1_388
10
5.337226
20
28.8302099
40
0.2983498
50
359.5051035
51
13.4236939
0
ARC
8
DEFAULT_255_1_388
10
5.434735
20
28.8551637
40
0.1977186
50
12.9497905
51
48.7550905
0
ARC
8
DEFAULT_255_1_388
10
5.4142272
20
28.8271373
40
0.2323321
50
49.509109
51
72.1832965
0
ARC
8
DEFAULT_255_1_388
10
5.373974
20
28.7076632
40
0.358397
50
71.9008458
51
84.3555134
0
ARC
8
DEFAULT_255_1_388
10
5.3558135
20
28.5544712
40
0.512641
50
84.019632
51
89.3326067
0
LINE
8
DEFAULT_255_1_388
10
4.5033985
20
37.7238148
11
4.5033985
21
36.4019
0
LINE
8
DEFAULT_255_1_388
10
4.5033985
20
36.4019
11
4.3353355
21
36.4019
0
LINE
8
DEFAULT_255_1_388
10
4.3353355
20
36.4019
11
4.3353355
21
37.515995
0
LINE
8
DEFAULT_255_1_388
10
4.3353355
20
37.515995
11
3.998306
21
37.3922066
0
LINE
8
DEFAULT_255_1_388
10
3.998306
20
37.3922066
11
3.998306
21
37.5440055
0
LINE
8
DEFAULT_255_1_388
10
3.998306
20
37.5440055
11
4.4771951
21
37.7238148
0
LINE
8
DEFAULT_255_1_388
10
4.4771951
20
37.7238148
11
4.5033985
21
37.7238148
0
LINE
8
DEFAULT_255_1_388
10
5.8551309
20
36.5383382
11
5.8551309
21
36.4019
0
LINE
8
DEFAULT_255_1_388
10
5.8551309
20
36.4019
11
4.9931304
21
36.4019
0
LINE
8
DEFAULT_255_1_388
10
4.9931304
20
36.4019
11
4.9931304
21
36.5220741
0
LINE
8
DEFAULT_255_1_388
10
4.9931304
20
36.5220741
11
5.4485269
21
37.0280702
0
LINE
8
DEFAULT_255_1_388
10
5.13499
20
37.3298607
11
4.9678306
21
37.3298607
0
LINE
8
DEFAULT_255_1_388
10
5.5470154
20
36.920546
11
5.1946253
21
36.5383382
0
LINE
8
DEFAULT_255_1_388
10
5.1946253
20
36.5383382
11
5.8551309
21
36.5383382
0
ARC
8
DEFAULT_255_1_388
10
3.9309329
20
38.3700983
40
2.0258655
50
318.5132526
51
320.7829045
0
ARC
8
DEFAULT_255_1_388
10
4.5257286
20
37.8859929
40
1.2589638
50
320.7372878
51
323.9739031
0
ARC
8
DEFAULT_255_1_388
10
4.9666217
20
37.5665554
40
0.7145141
50
323.8962701
51
328.64194
0
ARC
8
DEFAULT_255_1_388
10
5.1968475
20
37.4245545
40
0.4440242
50
328.8294576
51
331.7891185
0
ARC
8
DEFAULT_255_1_388
10
5.3090795
20
37.3666374
40
0.3177517
50
331.4254512
51
352.9365785
0
ARC
8
DEFAULT_255_1_388
10
5.3243795
20
37.363205
40
0.3021496
50
353.2257659
51
0.0166158
0
ARC
8
DEFAULT_255_1_388
10
5.3480555
20
37.3657894
40
0.2784847
50
359.486299
51
15.9343185
0
ARC
8
DEFAULT_255_1_388
10
5.4050822
20
37.3811269
40
0.2194403
50
16.1712913
51
43.5286088
0
ARC
8
DEFAULT_255_1_388
10
5.4137767
20
37.3898191
40
0.2071504
50
43.4417391
51
83.1661095
0
ARC
8
DEFAULT_255_1_388
10
5.3986928
20
37.3069316
40
0.2912888
50
82.160179
51
90.1505708
0
ARC
8
DEFAULT_255_1_388
10
5.395141
20
37.2465279
40
0.3517025
50
89.5460741
51
102.5418361
0
ARC
8
DEFAULT_255_1_388
10
5.367813
20
37.3624933
40
0.2325748
50
102.1738499
51
129.206123
0
ARC
8
DEFAULT_255_1_388
10
5.3589583
20
37.3764664
40
0.2161591
50
129.72865
51
135.753947
0
ARC
8
DEFAULT_255_1_388
10
5.3726065
20
37.3655728
40
0.2335433
50
136.1757367
51
166.3673339
0
ARC
8
DEFAULT_255_1_388
10
5.4858754
20
37.3352148
40
0.3507873
50
165.9090694
51
178.8684636
0
ARC
8
DEFAULT_255_1_388
10
5.5834525
20
37.3299263
40
0.4484624
50
178.4391136
51
180.0083808
0
ARC
8
DEFAULT_255_1_388
10
5.4255227
20
37.3343197
40
0.4577138
50
163.2878482
51
180.5581842
0
ARC
8
DEFAULT_255_1_388
10
5.3353268
20
37.3591393
40
0.3641968
50
133.4540601
51
162.947111
0
ARC
8
DEFAULT_255_1_388
10
5.3554149
20
37.3377789
40
0.3935189
50
100.7869829
51
133.4382499
0
ARC
8
DEFAULT_255_1_388
10
5.3945394
20
37.1635399
40
0.5720313
50
89.660664
51
101.3702276
0
ARC
8
DEFAULT_255_1_388
10
5.4020003
20
37.1704263
40
0.5651495
50
78.2172678
51
90.412935
0
ARC
8
DEFAULT_255_1_388
10
5.4419469
20
37.3531511
40
0.378122
50
55.9269121
51
78.4888449
0
ARC
8
DEFAULT_255_1_388
10
5.4640184
20
37.3912187
40
0.3342379
50
47.929771
51
55.4049217
0
ARC
8
DEFAULT_255_1_388
10
5.4754715
20
37.4028618
40
0.3179217
50
4.334829
51
48.0560205
0
ARC
8
DEFAULT_255_1_388
10
5.3522516
20
37.3837487
40
0.442341
50
359.9251713
51
5.5971671
0
ARC
8
DEFAULT_255_1_388
10
5.4004671
20
37.3900728
40
0.3941854
50
337.8914027
51
358.9967534
0
ARC
8
DEFAULT_255_1_388
10
5.0952241
20
37.5078295
40
0.7213271
50
326.9132501
51
338.3508308
0
ARC
8
DEFAULT_255_1_388
10
4.6468353
20
37.7952105
40
1.2538973
50
319.6471833
51
327.0959558
0
ARC
8
DEFAULT_255_1_388
10
4.2155011
20
38.151005
40
1.8129975
50
317.2588228
51
319.9045804
0
LINE
8
DEFAULT_255_1_388
10
4.4959985
20
45.6613148
11
4.4959985
21
44.3394
0
LINE
8
DEFAULT_255_1_388
10
4.4959985
20
44.3394
11
4.3279355
21
44.3394
0
LINE
8
DEFAULT_255_1_388
10
4.3279355
20
44.3394
11
4.3279355
21
45.453495
0
LINE
8
DEFAULT_255_1_388
10
4.3279355
20
45.453495
11
3.990906
21
45.3297066
0
LINE
8
DEFAULT_255_1_388
10
3.990906
20
45.3297066
11
3.990906
21
45.4815055
0
LINE
8
DEFAULT_255_1_388
10
3.990906
20
45.4815055
11
4.4697951
21
45.6613148
0
LINE
8
DEFAULT_255_1_388
10
4.4697951
20
45.6613148
11
4.4959985
21
45.6613148
0
LINE
8
DEFAULT_255_1_388
10
5.5350976
20
45.6613148
11
5.5350976
21
44.3394
0
LINE
8
DEFAULT_255_1_388
10
5.5350976
20
44.3394
11
5.3670346
21
44.3394
0
LINE
8
DEFAULT_255_1_388
10
5.3670346
20
44.3394
11
5.3670346
21
45.453495
0
LINE
8
DEFAULT_255_1_388
10
5.3670346
20
45.453495
11
5.0300051
21
45.3297066
0
LINE
8
DEFAULT_255_1_388
10
5.0300051
20
45.3297066
11
5.0300051
21
45.4815055
0
LINE
8
DEFAULT_255_1_388
10
5.0300051
20
45.4815055
11
5.5088942
21
45.6613148
0
LINE
8
DEFAULT_255_1_388
10
5.5088942
20
45.6613148
11
5.5350976
21
45.6613148
0
LINE
8
DEFAULT_255_1_388
10
4.5033985
20
53.5988148
11
4.5033985
21
52.2769
0
LINE
8
DEFAULT_255_1_388
10
4.5033985
20
52.2769
11
4.3353355
21
52.2769
0
LINE
8
DEFAULT_255_1_388
10
4.3353355
20
52.2769
11
4.3353355
21
53.390995
0
LINE
8
DEFAULT_255_1_388
10
4.3353355
20
53.390995
11
3.998306
21
53.2672066
0
LINE
8
DEFAULT_255_1_388
10
3.998306
20
53.2672066
11
3.998306
21
53.4190055
0
LINE
8
DEFAULT_255_1_388
10
3.998306
20
53.4190055
11
4.4771951
21
53.5988148
0
LINE
8
DEFAULT_255_1_388
10
4.4771951
20
53.5988148
11
4.5033985
21
53.5988148
0
LINE
8
DEFAULT_255_1_388
10
5.8180848
20
53.054869
11
5.8180848
21
52.8380135
0
LINE
8
DEFAULT_255_1_388
10
4.987709
20
52.8154244
11
4.987709
21
53.0386048
0
LINE
8
DEFAULT_255_1_388
10
5.6509253
20
52.7928353
11
5.6509253
21
53.0666153
0
LINE
8
DEFAULT_255_1_388
10
5.1548685
20
53.0792652
11
5.1548685
21
52.8118102
0
ARC
8
DEFAULT_255_1_388
10
4.4403182
20
52.8325118
40
1.3777776
50
353.8440855
51
0.2287917
0
ARC
8
DEFAULT_255_1_388
10
4.9622199
20
52.7742414
40
0.852639
50
344.4934746
51
353.9763743
0
ARC
8
DEFAULT_255_1_388
10
5.2989006
20
52.6785191
40
0.5026273
50
329.2803599
51
344.7473406
0
ARC
8
DEFAULT_255_1_388
10
5.4104502
20
52.6173038
40
0.3754848
50
324.9361395
51
328.6153007
0
ARC
8
DEFAULT_255_1_388
10
5.4530152
20
52.5875586
40
0.3235566
50
280.5801797
51
324.9173226
0
ARC
8
DEFAULT_255_1_388
10
5.407878
20
52.7755236
40
0.5167077
50
269.5979457
51
281.6732777
0
ARC
8
DEFAULT_255_1_388
10
5.3997684
20
52.7620113
40
0.5032026
50
256.6228565
51
270.5105488
0
ARC
8
DEFAULT_255_1_388
10
5.3545427
20
52.5878345
40
0.3233092
50
215.8618351
51
257.2787793
0
ARC
8
DEFAULT_255_1_388
10
5.4694134
20
52.6649106
40
0.4615831
50
197.9695203
51
215.2622745
0
ARC
8
DEFAULT_255_1_388
10
5.7489809
20
52.7592641
40
0.7566307
50
187.8816486
51
198.2346584
0
ARC
8
DEFAULT_255_1_388
10
6.1943048
20
52.8235453
40
1.2065653
50
180.8977266
51
188.0054894
0
ARC
8
DEFAULT_255_1_388
10
6.4993261
20
52.83504
40
1.5117443
50
180.7434591
51
181.152202
0
ARC
8
DEFAULT_255_1_388
10
6.3318257
20
53.0440371
40
1.3441277
50
173.7674302
51
180.2315596
0
ARC
8
DEFAULT_255_1_388
10
5.8236126
20
53.1014779
40
0.8326847
50
164.3058537
51
173.9000553
0
ARC
8
DEFAULT_255_1_388
10
5.4960126
20
53.1958652
40
0.4917711
50
148.7922028
51
164.5682288
0
ARC
8
DEFAULT_255_1_388
10
5.3890864
20
53.2555457
40
0.3694204
50
144.5883979
51
148.1161588
0
ARC
8
DEFAULT_255_1_388
10
5.3503609
20
53.2825667
40
0.322202
50
101.6440149
51
144.5142619
0
ARC
8
DEFAULT_255_1_388
10
5.3981801
20
53.0925337
40
0.5180451
50
89.528284
51
102.5820197
0
ARC
8
DEFAULT_255_1_388
10
5.4070793
20
53.0881376
40
0.5224441
50
77.0437914
51
90.508231
0
ARC
8
DEFAULT_255_1_388
10
5.4523047
20
53.2729272
40
0.3322297
50
48.2777708
51
77.4996087
0
ARC
8
DEFAULT_255_1_388
10
5.4604787
20
53.2874557
40
0.315966
50
36.3141586
51
47.6307332
0
ARC
8
DEFAULT_255_1_388
10
5.3627509
20
53.2216159
40
0.4337313
50
18.2931065
51
35.6770203
0
ARC
8
DEFAULT_255_1_388
10
5.076635
20
53.1234107
40
0.7362203
50
8.0246996
51
18.5605636
0
ARC
8
DEFAULT_255_1_388
10
4.6082705
20
53.0542432
40
1.2096583
50
1.127539
51
8.1718423
0
ARC
8
DEFAULT_255_1_388
10
4.2433839
20
53.0399374
40
1.5747719
50
0.5432713
51
1.38669
0
ARC
8
DEFAULT_255_1_388
10
4.4491217
20
53.0706163
40
1.2018103
50
359.8092569
51
4.9408001
0
ARC
8
DEFAULT_255_1_388
10
4.9227799
20
53.11289
40
0.7262727
50
4.8364937
51
12.2906017
0
ARC
8
DEFAULT_255_1_388
10
5.2327263
20
53.1819485
40
0.4087324
50
12.0806994
51
23.8171225
0
ARC
8
DEFAULT_255_1_388
10
5.3647659
20
53.2378508
40
0.2653719
50
24.2874621
51
31.3934353
0
ARC
8
DEFAULT_255_1_388
10
5.4238095
20
53.2764822
40
0.1948607
50
30.7407708
51
82.4658033
0
ARC
8
DEFAULT_255_1_388
10
5.4035756
20
53.1771017
40
0.2961198
50
81.1057101
51
90.2187368
0
ARC
8
DEFAULT_255_1_388
10
5.3995568
20
53.2061421
40
0.2670929
50
89.380395
51
105.6763916
0
ARC
8
DEFAULT_255_1_388
10
5.378929
20
53.281132
40
0.1893189
50
105.7980655
51
149.7387869
0
ARC
8
DEFAULT_255_1_388
10
5.498643
20
53.2091719
40
0.3289892
50
149.4208441
51
163.628295
0
ARC
8
DEFAULT_255_1_388
10
5.733866
20
53.1374345
40
0.5749004
50
163.3764549
51
172.141138
0
ARC
8
DEFAULT_255_1_388
10
6.1051381
20
53.0842582
40
0.9499585
50
172.0258462
51
178.0705453
0
ARC
8
DEFAULT_255_1_388
10
6.4472934
20
53.0680682
40
1.2924734
50
177.8639301
51
179.5036263
0
ARC
8
DEFAULT_255_1_388
10
6.3253953
20
52.8077151
40
1.170534
50
179.7995545
51
185.246089
0
ARC
8
DEFAULT_255_1_388
10
5.8705546
20
52.7646404
40
0.7136613
50
185.1411911
51
193.0082205
0
ARC
8
DEFAULT_255_1_388
10
5.5731806
20
52.6943441
40
0.4080987
50
192.7897338
51
205.2507384
0
ARC
8
DEFAULT_255_1_388
10
5.4554016
20
52.6417538
40
0.2791522
50
205.8001921
51
211.2545876
0
ARC
8
DEFAULT_255_1_388
10
5.3965555
20
52.6023132
40
0.2084074
50
210.3789935
51
238.4007996
0
ARC
8
DEFAULT_255_1_388
10
5.3943641
20
52.6075786
40
0.2117943
50
239.6521916
51
265.9793852
0
ARC
8
DEFAULT_255_1_388
10
5.403949
20
52.6832358
40
0.2879689
50
265.1324455
51
270.0603288
0
ARC
8
DEFAULT_255_1_388
10
5.4071867
20
52.6467418
40
0.2514919
50
269.3314378
51
287.2180039
0
ARC
8
DEFAULT_255_1_388
10
5.422695
20
52.5901291
40
0.1928357
50
287.7957942
51
329.0808983
0
ARC
8
DEFAULT_255_1_388
10
5.3149707
20
52.6573651
40
0.319808
50
328.6635261
51
343.3325043
0
ARC
8
DEFAULT_255_1_388
10
5.0705165
20
52.7335195
40
0.5758408
50
343.0498092
51
351.9392499
0
ARC
8
DEFAULT_255_1_388
10
4.6804487
20
52.7910205
40
0.9701202
50
351.8071632
51
357.7957897
0
ARC
8
DEFAULT_255_1_388
10
4.3169964
20
52.8098724
40
1.3340376
50
357.5870923
51
359.2682493
0
LINE
8
DEFAULT_255_1_388
10
4.7629215
20
61.0041153
11
4.7629215
21
60.9553229
0
LINE
8
DEFAULT_255_1_388
10
4.1530155
20
60.2134964
11
4.1204872
21
60.2134964
0
LINE
8
DEFAULT_255_1_388
10
4.1204872
20
60.2134964
11
4.1204872
21
60.3544525
0
LINE
8
DEFAULT_255_1_388
10
4.1204872
20
60.3544525
11
4.1557262
21
60.3544525
0
LINE
8
DEFAULT_255_1_388
10
4.5957621
20
60.971587
11
4.5957621
21
61.0384508
0
ARC
8
DEFAULT_255_1_388
10
4.2814713
20
61.0554877
40
0.4089973
50
297.4036461
51
320.0168133
0
ARC
8
DEFAULT_255_1_388
10
4.3140893
20
60.9928072
40
0.3383378
50
270.2631886
51
297.3852322
0
ARC
8
DEFAULT_255_1_388
10
4.3102569
20
61.0465343
40
0.3920983
50
269.9969069
51
270.7871389
0
ARC
8
DEFAULT_255_1_388
10
4.3073892
20
61.0447737
40
0.3903482
50
254.5997295
51
270.4178147
0
ARC
8
DEFAULT_255_1_388
10
4.2913424
20
60.9812693
40
0.3248657
50
236.4717231
51
254.3539376
0
ARC
8
DEFAULT_255_1_388
10
4.3089155
20
61.0048999
40
0.3542746
50
208.4727261
51
236.2134628
0
ARC
8
DEFAULT_255_1_388
10
4.3807919
20
61.0488676
40
0.4384402
50
204.3450776
51
209.0455365
0
ARC
8
DEFAULT_255_1_388
10
4.4572295
20
61.08128
40
0.5214459
50
183.9375459
51
204.1275509
0
ARC
8
DEFAULT_255_1_388
10
4.5594601
20
61.0922863
40
0.6242037
50
179.9652726
51
184.3010611
0
ARC
8
DEFAULT_255_1_388
10
4.5324146
20
61.0960004
40
0.5971675
50
166.7585952
51
180.3200491
0
ARC
8
DEFAULT_255_1_388
10
4.4371954
20
61.1166979
40
0.4997418
50
154.6954866
51
166.5679151
0
ARC
8
DEFAULT_255_1_388
10
4.3412194
20
61.1650411
40
0.3923208
50
136.3325251
51
155.0871367
0
ARC
8
DEFAULT_255_1_388
10
4.3096114
20
61.1921271
40
0.3507618
50
121.2365985
51
135.9680081
0
ARC
8
DEFAULT_255_1_388
10
4.3254178
20
61.1628541
40
0.3839917
50
96.8454764
51
120.9881329
0
ARC
8
DEFAULT_255_1_388
10
4.3417984
20
61.0575942
40
0.4904679
50
89.887204
51
97.2797758
0
ARC
8
DEFAULT_255_1_388
10
4.3476957
20
61.1293652
40
0.418725
50
70.6505767
51
90.6748382
0
ARC
8
DEFAULT_255_1_388
10
4.3624654
20
61.1871091
40
0.3593866
50
36.7493297
51
69.8220487
0
ARC
8
DEFAULT_255_1_388
10
4.2501001
20
61.0995446
40
0.5018201
50
15.3958155
51
37.0841102
0
ARC
8
DEFAULT_255_1_388
10
4.0105286
20
61.0297111
40
0.7513436
50
3.9487796
51
15.6798517
0
ARC
8
DEFAULT_255_1_388
10
3.7403928
20
61.005381
40
1.0225293
50
359.9290791
51
4.266464
0
ARC
8
DEFAULT_255_1_388
10
3.2222845
20
60.9478372
40
1.5406551
50
352.8365702
51
0.2783851
0
ARC
8
DEFAULT_255_1_388
10
3.8171076
20
60.8705664
40
0.9408425
50
341.8359339
51
352.9884057
0
ARC
8
DEFAULT_255_1_388
10
4.1792063
20
60.7485144
40
0.5587481
50
322.8579243
51
342.1527461
0
ARC
8
DEFAULT_255_1_388
10
4.2763755
20
60.682235
40
0.4413099
50
319.3348471
51
322.100194
0
ARC
8
DEFAULT_255_1_388
10
4.2415687
20
60.7171814
40
0.4904992
50
285.954114
51
318.8878716
0
ARC
8
DEFAULT_255_1_388
10
4.1598124
20
60.9770865
40
0.7628991
50
272.9280841
51
286.4924389
0
ARC
8
DEFAULT_255_1_388
10
4.1384428
20
61.230524
40
1.017132
50
270.8209173
51
273.4010121
0
ARC
8
DEFAULT_255_1_388
10
4.1484451
20
61.0257073
40
0.6712943
50
270.6214576
51
281.4062333
0
ARC
8
DEFAULT_255_1_388
10
4.1968176
20
60.794425
40
0.4350167
50
281.1852583
51
299.0622058
0
ARC
8
DEFAULT_255_1_388
10
4.2388421
20
60.7133138
40
0.3437146
50
299.5068171
51
313.1200142
0
ARC
8
DEFAULT_255_1_388
10
4.2413158
20
60.7043959
40
0.3355418
50
313.8525725
51
338.5989631
0
ARC
8
DEFAULT_255_1_388
10
4.0586286
20
60.7794576
40
0.5330317
50
338.2523315
51
351.2431701
0
ARC
8
DEFAULT_255_1_388
10
3.7874037
20
60.8255494
40
0.8081235
50
350.940933
51
357.6690137
0
ARC
8
DEFAULT_255_1_388
10
4.3375917
20
61.0508048
40
0.2581236
50
269.9447107
51
306.8249644
0
ARC
8
DEFAULT_255_1_388
10
4.3109219
20
61.098406
40
0.3122948
50
305.5071046
51
327.0773808
0
ARC
8
DEFAULT_255_1_388
10
4.3242271
20
61.0877445
40
0.2953369
50
327.4106457
51
336.8396801
0
ARC
8
DEFAULT_255_1_388
10
3.9761984
20
61.0420932
40
0.6195743
50
359.663158
51
10.1176387
0
ARC
8
DEFAULT_255_1_388
10
4.1734747
20
61.0785922
40
0.4189561
50
9.9431549
51
26.7699242
0
ARC
8
DEFAULT_255_1_388
10
4.2406733
20
61.1095796
40
0.3450125
50
27.2018067
51
34.6833639
0
ARC
8
DEFAULT_255_1_388
10
4.2957346
20
61.150956
40
0.2762035
50
34.124913
51
50.30709
0
ARC
8
DEFAULT_255_1_388
10
4.3459829
20
61.2110741
40
0.1978518
50
50.3850304
51
90.6705051
0
ARC
8
DEFAULT_255_1_388
10
4.3407223
20
61.1768074
40
0.2321235
50
89.2729817
51
111.9140267
0
ARC
8
DEFAULT_255_1_388
10
4.338531
20
61.1926308
40
0.2166604
50
112.9381864
51
142.5320936
0
ARC
8
DEFAULT_255_1_388
10
4.3999799
20
61.1427392
40
0.2957902
50
142.1024021
51
166.3835244
0
ARC
8
DEFAULT_255_1_388
10
4.5328769
20
61.1084213
40
0.4330361
50
166.1100968
51
178.6653563
0
ARC
8
DEFAULT_255_1_388
10
4.6510695
20
61.1018061
40
0.5513642
50
178.2641888
51
180.010994
0
ARC
8
DEFAULT_255_1_388
10
4.5605196
20
61.0986136
40
0.4608248
50
179.6162225
51
191.8786013
0
ARC
8
DEFAULT_255_1_388
10
4.4232506
20
61.068259
40
0.3202502
50
191.6192934
51
215.2970746
0
ARC
8
DEFAULT_255_1_388
10
4.3993161
20
61.0539963
40
0.2924827
50
215.7258926
51
216.5355437
0
ARC
8
DEFAULT_255_1_388
10
4.3404782
20
61.0066919
40
0.2170661
50
215.7486606
51
239.9728403
0
ARC
8
DEFAULT_255_1_388
10
4.3325947
20
61.0009838
40
0.208217
50
241.065081
51
269.280972
0
ARC
8
DEFAULT_255_1_388
10
4.3373106
20
61.0565327
40
0.2638514
50
268.4083352
51
270.0069622
0
ARC
8
DEFAULT_255_1_388
10
4.4345818
20
69.121272
40
0.3175098
50
338.8762533
51
0.5167111
0
ARC
8
DEFAULT_255_1_388
10
4.4535412
20
69.11616
40
0.2979894
50
325.8415285
51
338.4793574
0
ARC
8
DEFAULT_255_1_388
10
4.4096046
20
69.1466242
40
0.351452
50
296.7587686
51
325.7536481
0
ARC
8
DEFAULT_255_1_388
10
4.3767673
20
69.2020363
40
0.4157374
50
296.0927901
51
297.3613472
0
ARC
8
DEFAULT_255_1_388
10
4.4061869
20
68.4637593
40
0.395855
50
47.9007294
51
67.1948823
0
ARC
8
DEFAULT_255_1_388
10
4.4282511
20
68.4914599
40
0.360516
50
35.2363914
51
47.551141
0
ARC
8
DEFAULT_255_1_388
10
4.4576915
20
68.5111093
40
0.3251343
50
359.2759765
51
35.4014143
0
ARC
8
DEFAULT_255_1_388
10
4.3738841
20
68.5028787
40
0.4089365
50
343.1293083
51
0.5775513
0
ARC
8
DEFAULT_255_1_388
10
4.4553955
20
68.4804336
40
0.3244269
50
310.8496669
51
342.7449331
0
ARC
8
DEFAULT_255_1_388
10
4.4083829
20
68.5340913
40
0.3957651
50
281.5472888
51
310.9170406
0
ARC
8
DEFAULT_255_1_388
10
4.3682704
20
68.7087814
40
0.5749654
50
269.619248
51
281.9789564
0
ARC
8
DEFAULT_255_1_388
10
4.3601482
20
68.7088776
40
0.5750649
50
257.4585678
51
270.4285689
0
ARC
8
DEFAULT_255_1_388
10
4.3173002
20
68.5284741
40
0.389671
50
228.7554326
51
257.8484789
0
ARC
8
DEFAULT_255_1_388
10
4.2824487
20
68.4865228
40
0.335154
50
184.0104975
51
228.5071184
0
ARC
8
DEFAULT_255_1_388
10
4.413288
20
68.506443
40
0.4671891
50
179.9315832
51
185.3253753
0
ARC
8
DEFAULT_255_1_388
10
4.2809392
20
68.5106592
40
0.33486
50
145.6796023
51
180.6259786
0
ARC
8
DEFAULT_255_1_388
10
4.2993158
20
68.4978271
40
0.3572723
50
115.5537685
51
145.6415986
0
ARC
8
DEFAULT_255_1_388
10
4.3376202
20
68.4292087
40
0.4357296
50
113.243307
51
116.2057839
0
ARC
8
DEFAULT_255_1_388
10
4.3204854
20
69.1489379
40
0.3549126
50
222.9549744
51
244.1370481
0
ARC
8
DEFAULT_255_1_388
10
4.3067497
20
69.1335378
40
0.3343711
50
213.3436887
51
222.6274467
0
ARC
8
DEFAULT_255_1_388
10
4.2851566
20
69.1188653
40
0.3082678
50
180.431584
51
213.271499
0
ARC
8
DEFAULT_255_1_388
10
4.3486565
20
69.1241296
40
0.3718363
50
179.9991191
51
181.1690594
0
ARC
8
DEFAULT_255_1_388
10
4.3959021
20
69.1280072
40
0.4190996
50
164.6186169
51
180.529336
0
ARC
8
DEFAULT_255_1_388
10
4.294867
20
69.155178
40
0.3144772
50
132.2455553
51
164.5090724
0
ARC
8
DEFAULT_255_1_388
10
4.3271649
20
69.118607
40
0.3632644
50
100.7053914
51
132.1386381
0
ARC
8
DEFAULT_255_1_388
10
4.361471
20
68.9636118
40
0.5219578
50
89.6730358
51
101.2451698
0
ARC
8
DEFAULT_255_1_388
10
4.3684701
20
68.9832648
40
0.5023124
50
76.287748
51
90.4586006
0
ARC
8
DEFAULT_255_1_388
10
4.4029203
20
69.1207671
40
0.3605639
50
47.8240511
51
76.4266241
0
ARC
8
DEFAULT_255_1_388
10
4.4279587
20
69.1500599
40
0.3220463
50
6.9168387
51
47.6262497
0
ARC
8
DEFAULT_255_1_388
10
4.294504
20
69.1254004
40
0.4575765
50
359.8415968
51
7.9697453
0
ARC
8
DEFAULT_255_1_388
10
4.332931
20
68.5133519
40
0.2827228
50
359.445363
51
16.9256873
0
ARC
8
DEFAULT_255_1_388
10
4.3856744
20
68.5278781
40
0.2280396
50
17.2920767
51
45.4630727
0
ARC
8
DEFAULT_255_1_388
10
4.3795879
20
68.5226324
40
0.2360485
50
45.30305
51
83.1920945
0
ARC
8
DEFAULT_255_1_388
10
4.3634624
20
68.4324473
40
0.3275527
50
82.2612665
51
90.1434275
0
ARC
8
DEFAULT_255_1_388
10
4.35999
20
68.4586869
40
0.3013237
50
89.4956434
51
104.8580688
0
ARC
8
DEFAULT_255_1_388
10
4.340109
20
68.5340455
40
0.2233867
50
104.8856641
51
135.244616
0
ARC
8
DEFAULT_255_1_388
10
4.3457079
20
68.5290352
40
0.2308906
50
135.3399546
51
172.1044062
0
ARC
8
DEFAULT_255_1_388
10
4.4364603
20
68.5116667
40
0.3232034
50
171.2645637
51
180.186429
0
ARC
8
DEFAULT_255_1_388
10
4.4174608
20
68.5080426
40
0.304213
50
179.5154935
51
193.6464289
0
ARC
8
DEFAULT_255_1_388
10
4.3256284
20
68.4846473
40
0.209456
50
193.3540274
51
225.8258581
0
ARC
8
DEFAULT_255_1_388
10
4.3302156
20
68.4926076
40
0.2183738
50
226.4180634
51
255.8552336
0
ARC
8
DEFAULT_255_1_388
10
4.3590623
20
68.5979521
40
0.3275812
50
255.4654104
51
268.7987425
0
ARC
8
DEFAULT_255_1_388
10
4.3643799
20
68.6921545
40
0.4218877
50
268.3449238
51
270.0094605
0
ARC
8
DEFAULT_255_1_388
10
4.3670032
20
68.6153094
40
0.3450519
50
269.5759586
51
282.0820163
0
ARC
8
DEFAULT_255_1_388
10
4.3923069
20
68.5034363
40
0.2303642
50
281.752014
51
306.6056188
0
ARC
8
DEFAULT_255_1_388
10
4.4033877
20
68.4852802
40
0.2091906
50
307.1346085
51
314.027845
0
ARC
8
DEFAULT_255_1_388
10
4.3993389
20
68.4882459
40
0.2141385
50
314.2552483
51
350.1694025
0
ARC
8
DEFAULT_255_1_388
10
4.3035626
20
68.5090175
40
0.312082
50
349.4140529
51
0.2933014
0
ARC
8
DEFAULT_255_1_388
10
4.3620903
20
69.0893924
40
0.2588377
50
89.477747
51
105.729729
0
ARC
8
DEFAULT_255_1_388
10
4.3467823
20
69.1462367
40
0.1999733
50
105.9233417
51
135.1660906
0
ARC
8
DEFAULT_255_1_388
10
4.3490854
20
69.1446412
40
0.2027322
50
135.3052302
51
168.9883645
0
ARC
8
DEFAULT_255_1_388
10
4.442187
20
69.1232996
40
0.2982129
50
168.3801673
51
180.3602268
0
ARC
8
DEFAULT_255_1_388
10
4.4164987
20
69.1190622
40
0.2725291
50
179.5033122
51
194.9125571
0
ARC
8
DEFAULT_255_1_388
10
4.3506394
20
69.1017427
40
0.204431
50
194.9720816
51
224.194444
0
ARC
8
DEFAULT_255_1_388
10
4.3474759
20
69.0991635
40
0.2003651
50
224.2962453
51
262.015664
0
ARC
8
DEFAULT_255_1_388
10
4.3634763
20
69.1814315
40
0.2840925
50
261.1245923
51
270.1962896
0
ARC
8
DEFAULT_255_1_388
10
4.3668244
20
69.1603859
40
0.2630559
50
269.4827276
51
285.0987215
0
ARC
8
DEFAULT_255_1_388
10
4.384168
20
69.0953175
40
0.1957162
50
285.1585357
51
315.9484501
0
ARC
8
DEFAULT_255_1_388
10
4.3741554
20
69.1045315
40
0.2093195
50
316.0413965
51
351.916092
0
ARC
8
DEFAULT_255_1_388
10
4.2916928
20
69.1204323
40
0.2932279
50
351.105835
51
0.1939062
0
ARC
8
DEFAULT_255_1_388
10
4.3212562
20
69.1238224
40
0.2636739
50
359.4789618
51
16.0678224
0
ARC
8
DEFAULT_255_1_388
10
4.3748034
20
69.1382721
40
0.2082215
50
16.3252067
51
44.7913869
0
ARC
8
DEFAULT_255_1_388
10
4.3728096
20
69.138332
40
0.2095992
50
44.3957814
51
88.2499162
0
ARC
8
DEFAULT_255_1_388
10
4.3645431
20
69.0695006
40
0.2787189
50
86.9833854
51
90.0192215
0
LINE
8
DEFAULT_255_1_388
10
4.8035819
20
77.4049898
11
4.8035819
21
77.3110191
0
LINE
8
DEFAULT_255_1_388
10
4.8035819
20
77.3110191
11
4.2587325
21
76.0894
0
LINE
8
DEFAULT_255_1_388
10
4.2587325
20
76.0894
11
4.083441
21
76.0894
0
LINE
8
DEFAULT_255_1_388
10
4.083441
20
76.0894
11
4.6264833
21
77.267648
0
LINE
8
DEFAULT_255_1_388
10
4.6264833
20
77.267648
11
3.9144745
21
77.267648
0
LINE
8
DEFAULT_255_1_388
10
3.9144745
20
77.267648
11
3.9144745
21
77.4049898
0
LINE
8
DEFAULT_255_1_388
10
3.9144745
20
77.4049898
11
4.8035819
21
77.4049898
0
LINE
8
DEFAULT_255_1_388
10
4.5804015
20
85.3433934
11
4.6102191
21
85.3433934
0
LINE
8
DEFAULT_255_1_388
10
4.6102191
20
85.3433934
11
4.6102191
21
85.2015338
0
LINE
8
DEFAULT_255_1_388
10
4.6102191
20
85.2015338
11
4.5794979
21
85.2015338
0
LINE
8
DEFAULT_255_1_388
10
3.9641705
20
84.5274747
11
3.9641705
21
84.5916278
0
LINE
8
DEFAULT_255_1_388
10
4.1322335
20
84.5699422
11
4.1322335
21
84.5084999
0
ARC
8
DEFAULT_255_1_388
10
4.5853871
20
84.6392826
40
0.562282
50
90.6001079
51
104.5146616
0
ARC
8
DEFAULT_255_1_388
10
4.541683
20
84.80181
40
0.3939917
50
104.2855758
51
133.8630124
0
ARC
8
DEFAULT_255_1_388
10
4.5601083
20
84.7896243
40
0.4155734
50
134.5304124
51
161.6210222
0
ARC
8
DEFAULT_255_1_388
10
4.7461015
20
84.7240421
40
0.6127682
50
161.2850533
51
174.2074364
0
ARC
8
DEFAULT_255_1_388
10
4.9050582
20
84.7021437
40
0.7731446
50
173.7817938
51
174.9251711
0
ARC
8
DEFAULT_255_1_388
10
4.3924775
20
84.546627
40
0.3412588
50
95.8332067
51
138.995412
0
ARC
8
DEFAULT_255_1_388
10
4.4176056
20
84.4027695
40
0.4870358
50
89.8755506
51
97.0540979
0
ARC
8
DEFAULT_255_1_388
10
4.4229445
20
84.4967841
40
0.3930432
50
71.6407016
51
90.6240821
0
ARC
8
DEFAULT_255_1_388
10
4.4398838
20
84.5591433
40
0.3285421
50
39.6368051
51
71.0190743
0
ARC
8
DEFAULT_255_1_388
10
4.3682746
20
84.4972586
40
0.4231706
50
10.6588054
51
39.9044509
0
ARC
8
DEFAULT_255_1_388
10
4.1941291
20
84.4594223
40
0.60133
50
359.6827842
51
11.1326896
0
ARC
8
DEFAULT_255_1_388
10
4.1896627
20
84.4514715
40
0.6058047
50
347.2485908
51
0.4371098
0
ARC
8
DEFAULT_255_1_388
10
4.3772413
20
84.4063379
40
0.4128987
50
318.1408565
51
347.6118497
0
ARC
8
DEFAULT_255_1_388
10
4.4138009
20
84.3762903
40
0.3656244
50
275.6342406
51
317.824739
0
ARC
8
DEFAULT_255_1_388
10
4.388953
20
84.5224827
40
0.513655
50
269.8872513
51
276.7916069
0
ARC
8
DEFAULT_255_1_388
10
4.3827723
20
84.4071181
40
0.398323
50
246.9139443
51
270.7436787
0
ARC
8
DEFAULT_255_1_388
10
4.3834919
20
84.3911044
40
0.3839368
50
218.1665534
51
245.8780431
0
ARC
8
DEFAULT_255_1_388
10
4.4824291
20
84.4738903
40
0.5128958
50
191.4115343
51
218.6077624
0
ARC
8
DEFAULT_255_1_388
10
4.7004607
20
84.5227777
40
0.7363054
50
179.6344971
51
191.7836758
0
ARC
8
DEFAULT_255_1_388
10
5.3284482
20
84.5991495
40
1.3642984
50
171.4523743
51
180.3158856
0
ARC
8
DEFAULT_255_1_388
10
4.8340209
20
84.6760895
40
0.8639311
50
157.9802296
51
171.6246761
0
ARC
8
DEFAULT_255_1_388
10
4.5849559
20
84.7754038
40
0.5958004
50
141.4299236
51
157.8541251
0
ARC
8
DEFAULT_255_1_388
10
4.5127643
20
84.8264746
40
0.5075416
50
102.871586
51
140.8564533
0
ARC
8
DEFAULT_255_1_388
10
4.5856195
20
84.5519943
40
0.7914163
50
90.377773
51
103.5868422
0
ARC
8
DEFAULT_255_1_388
10
4.3900717
20
84.4839543
40
0.2667015
50
89.8751238
51
126.2072139
0
ARC
8
DEFAULT_255_1_388
10
4.3952188
20
84.4665847
40
0.2838229
50
124.9742447
51
144.8960197
0
ARC
8
DEFAULT_255_1_388
10
4.3754433
20
84.4826981
40
0.2583845
50
145.2974778
51
160.2660922
0
ARC
8
DEFAULT_255_1_388
10
4.7210921
20
84.5049151
40
0.5888695
50
179.6512124
51
190.285571
0
ARC
8
DEFAULT_255_1_388
10
4.5305401
20
84.4689968
40
0.3949683
50
190.0944895
51
207.5099647
0
ARC
8
DEFAULT_255_1_388
10
4.4668982
20
84.4387177
40
0.3245464
50
207.9585471
51
216.325377
0
ARC
8
DEFAULT_255_1_388
10
4.4286619
20
84.4072712
40
0.2751259
50
215.7661336
51
232.5457193
0
ARC
8
DEFAULT_255_1_388
10
4.3855735
20
84.3525273
40
0.2054668
50
232.8005815
51
270.6605497
0
ARC
8
DEFAULT_255_1_388
10
4.390716
20
84.3934853
40
0.2464268
50
269.3550767
51
288.474612
0
ARC
8
DEFAULT_255_1_388
10
4.4011667
20
84.3541721
40
0.2058436
50
289.1831976
51
322.9685307
0
ARC
8
DEFAULT_255_1_388
10
4.3323768
20
84.4084279
40
0.2934408
50
322.6007085
51
346.5183319
0
ARC
8
DEFAULT_255_1_388
10
4.2021524
20
84.4416434
40
0.4278249
50
346.2584622
51
358.7739592
0
ARC
8
DEFAULT_255_1_388
10
4.08701
20
84.4478829
40
0.5430876
50
358.3757628
51
0.0082477
0
ARC
8
DEFAULT_255_1_388
10
4.1726918
20
84.4509856
40
0.4574157
50
359.6211417
51
11.28403
0
ARC
8
DEFAULT_255_1_388
10
4.3163524
20
84.4809535
40
0.3106708
50
11.0483152
51
31.8145585
0
ARC
8
DEFAULT_255_1_388
10
4.3511229
20
84.4998045
40
0.2711963
50
32.3028554
51
38.0820598
0
ARC
8
DEFAULT_255_1_388
10
4.3984462
20
84.5426717
40
0.2075566
50
36.8249851
51
85.741667
0
ARC
8
DEFAULT_255_1_388
10
4.3908875
20
84.4863065
40
0.2643487
50
85.0150021
51
90.050843
0
LINE
8
DEFAULT_255_1_388
10
4.1647618
20
92.5896666
11
4.0310343
21
92.6240021
0
LINE
8
DEFAULT_255_1_388
10
4.0310343
20
92.6240021
11
4.097898
21
93.2799898
0
LINE
8
DEFAULT_255_1_388
10
4.097898
20
93.2799898
11
4.7719571
21
93.2799898
0
LINE
8
DEFAULT_255_1_388
10
4.7719571
20
93.2799898
11
4.7719571
21
93.1254803
0
LINE
8
DEFAULT_255_1_388
10
4.7719571
20
93.1254803
11
4.2397577
21
93.1254803
0
LINE
8
DEFAULT_255_1_388
10
4.2397577
20
93.1254803
11
4.2000008
21
92.7667652
0
LINE
8
DEFAULT_255_1_388
10
3.9840489
20
92.3104652
11
4.1421727
21
92.3104652
0
LINE
8
DEFAULT_255_1_388
10
4.2090365
20
92.6258092
11
4.1647618
21
92.5896666
0
ARC
8
DEFAULT_255_1_388
10
4.4086622
20
92.4090241
40
0.4141476
50
93.7181681
51
120.253934
0
ARC
8
DEFAULT_255_1_388
10
4.4192674
20
92.3181284
40
0.5055616
50
89.9660471
51
94.2495185
0
ARC
8
DEFAULT_255_1_388
10
4.4238496
20
92.3844154
40
0.4392953
50
73.8045384
51
90.5585736
0
ARC
8
DEFAULT_255_1_388
10
4.4502754
20
92.480952
40
0.3392225
50
41.3071072
51
73.543002
0
ARC
8
DEFAULT_255_1_388
10
4.4034574
20
92.4406461
40
0.4009977
50
13.5075837
51
41.2174839
0
ARC
8
DEFAULT_255_1_388
10
4.2187671
20
92.3922907
40
0.5918864
50
1.1330171
51
13.8830737
0
ARC
8
DEFAULT_255_1_388
10
4.0591317
20
92.3837522
40
0.7516787
50
359.9925091
51
1.5431298
0
ARC
8
DEFAULT_255_1_388
10
4.2035932
20
92.3791027
40
0.6072343
50
347.8572712
51
0.4294349
0
ARC
8
DEFAULT_255_1_388
10
4.4005066
20
92.3344898
40
0.4053482
50
323.6727442
51
348.1674594
0
ARC
8
DEFAULT_255_1_388
10
4.4336031
20
92.3143175
40
0.3667495
50
316.8171818
51
323.1486802
0
ARC
8
DEFAULT_255_1_388
10
4.4405155
20
92.3101612
40
0.358869
50
281.839603
51
316.5458142
0
ARC
8
DEFAULT_255_1_388
10
4.3982442
20
92.4851363
40
0.5388223
50
269.5770964
51
282.4214641
0
ARC
8
DEFAULT_255_1_388
10
4.3902363
20
92.461093
40
0.5147801
50
256.2425863
51
270.4486481
0
ARC
8
DEFAULT_255_1_388
10
4.3565891
20
92.3261124
40
0.3756708
50
228.9024379
51
256.33135
0
ARC
8
DEFAULT_255_1_388
10
4.3482871
20
92.3130054
40
0.360344
50
193.7536029
51
228.5272638
0
ARC
8
DEFAULT_255_1_388
10
4.4875436
20
92.3538463
40
0.5053599
50
184.9244437
51
194.4976052
0
ARC
8
DEFAULT_255_1_388
10
4.5092077
20
92.3578722
40
0.3700839
50
187.3596909
51
198.6733728
0
ARC
8
DEFAULT_255_1_388
10
4.3911321
20
92.3169373
40
0.2451195
50
198.4453795
51
217.7945479
0
ARC
8
DEFAULT_255_1_388
10
4.3578493
20
92.2933563
40
0.2043754
50
218.2887146
51
228.5613203
0
ARC
8
DEFAULT_255_1_388
10
4.36885
20
92.3081902
40
0.2227819
50
228.9652423
51
258.1237049
0
ARC
8
DEFAULT_255_1_388
10
4.3919937
20
92.4072964
40
0.3245374
50
257.7260585
51
270.4013717
0
ARC
8
DEFAULT_255_1_388
10
4.3970435
20
92.3572255
40
0.2744726
50
269.4204315
51
286.420998
0
ARC
8
DEFAULT_255_1_388
10
4.4137491
20
92.2965705
40
0.2115721
50
286.7250065
51
320.6004665
0
ARC
8
DEFAULT_255_1_388
10
4.3706407
20
92.3315527
40
0.2670878
50
320.6712228
51
344.5440474
0
ARC
8
DEFAULT_255_1_388
10
4.240512
20
92.3697394
40
0.4026927
50
344.241448
51
356.735803
0
ARC
8
DEFAULT_255_1_388
10
4.1001428
20
92.3813656
40
0.5435085
50
356.3547471
51
0.0507222
0
ARC
8
DEFAULT_255_1_388
10
4.2503693
20
92.3848812
40
0.3932934
50
359.5579289
51
12.9534322
0
ARC
8
DEFAULT_255_1_388
10
4.3690533
20
92.4136586
40
0.2711827
50
12.6489751
51
41.608121
0
ARC
8
DEFAULT_255_1_388
10
4.3949693
20
92.4356946
40
0.2371737
50
41.7851122
51
85.9892156
0
ARC
8
DEFAULT_255_1_388
10
4.3811003
20
92.3441738
40
0.3295244
50
84.6965848
51
90.0672125
0
ARC
8
DEFAULT_255_1_388
10
4.378457
20
92.2690118
40
0.4046926
50
89.6804991
51
99.161352
0
ARC
8
DEFAULT_255_1_388
10
4.3553579
20
92.4070848
40
0.2647044
50
98.9836248
51
113.8905702
0
ARC
8
DEFAULT_255_1_388
10
4.3295254
20
92.4680118
40
0.1985386
50
114.195234
51
127.3641866
0
LINE
8
DEFAULT_255_1_388
10
4.9245151
20
101.2174898
11
4.9245151
21
100.343743
0
LINE
8
DEFAULT_255_1_388
10
4.9245151
20
100.343743
11
5.1070352
21
100.343743
0
LINE
8
DEFAULT_255_1_388
10
5.1070352
20
100.343743
11
5.1070352
21
100.2073048
0
LINE
8
DEFAULT_255_1_388
10
5.1070352
20
100.2073048
11
4.9245151
21
100.2073048
0
LINE
8
DEFAULT_255_1_388
10
4.9245151
20
100.2073048
11
4.9245151
21
99.9019
0
LINE
8
DEFAULT_255_1_388
10
4.9245151
20
99.9019
11
4.7564521
21
99.9019
0
LINE
8
DEFAULT_255_1_388
10
4.7564521
20
99.9019
11
4.7564521
21
100.2073048
0
LINE
8
DEFAULT_255_1_388
10
4.7564521
20
100.2073048
11
4.1573889
21
100.2073048
0
LINE
8
DEFAULT_255_1_388
10
4.1573889
20
100.2073048
11
4.1573889
21
100.3057933
0
LINE
8
DEFAULT_255_1_388
10
4.1573889
20
100.3057933
11
4.7465129
21
101.2174898
0
LINE
8
DEFAULT_255_1_388
10
4.7465129
20
101.2174898
11
4.9245151
21
101.2174898
0
LINE
8
DEFAULT_255_1_388
10
4.7365737
20
100.9527455
11
4.3471375
21
100.343743
0
LINE
8
DEFAULT_255_1_388
10
4.3471375
20
100.343743
11
4.7564521
21
100.343743
0
LINE
8
DEFAULT_255_1_388
10
4.7564521
20
100.343743
11
4.7564521
21
100.988888
0
LINE
8
DEFAULT_255_1_388
10
4.7564521
20
100.988888
11
4.7365737
21
100.9527455
0
LINE
8
DEFAULT_255_1_388
10
4.1972901
20
108.4420775
11
4.1972901
21
108.5785157
0
LINE
8
DEFAULT_255_1_388
10
4.1972901
20
108.5785157
11
4.3228856
21
108.5785157
0
LINE
8
DEFAULT_255_1_388
10
4.1087408
20
108.8098282
11
3.9415814
21
108.8098282
0
LINE
8
DEFAULT_255_1_388
10
3.9298351
20
108.1863688
11
4.097898
21
108.1863688
0
LINE
8
DEFAULT_255_1_388
10
4.3228856
20
108.4420775
11
4.1972901
21
108.4420775
0
ARC
8
DEFAULT_255_1_388
10
4.3196082
20
108.9601922
40
0.3816905
50
270.491971
51
281.8953028
0
ARC
8
DEFAULT_255_1_388
10
4.3467509
20
108.8362199
40
0.2547877
50
281.6690378
51
301.2943765
0
ARC
8
DEFAULT_255_1_388
10
4.3658961
20
108.8011926
40
0.2149197
50
301.7834992
51
311.754567
0
ARC
8
DEFAULT_255_1_388
10
4.3762002
20
108.789765
40
0.1995326
50
311.7325027
51
354.2803031
0
ARC
8
DEFAULT_255_1_388
10
4.2944418
20
108.803828
40
0.2823461
50
353.0941646
51
0.1174696
0
ARC
8
DEFAULT_255_1_388
10
4.2425976
20
108.8091874
40
0.3342238
50
359.1804452
51
15.0452323
0
ARC
8
DEFAULT_255_1_388
10
4.3940034
20
108.8533546
40
0.1765747
50
13.957816
51
77.6713812
0
ARC
8
DEFAULT_255_1_388
10
4.350527
20
108.6975464
40
0.3381982
50
76.111571
51
90.7028736
0
ARC
8
DEFAULT_255_1_388
10
4.3438682
20
108.728325
40
0.3074046
50
89.5321574
51
103.5319393
0
ARC
8
DEFAULT_255_1_388
10
4.3213066
20
108.8182443
40
0.2147041
50
103.2930114
51
133.5619756
0
ARC
8
DEFAULT_255_1_388
10
4.3163007
20
108.8249351
40
0.2064084
50
133.8349761
51
173.5343225
0
ARC
8
DEFAULT_255_1_388
10
4.3976665
20
108.8105144
40
0.2889266
50
172.5097183
51
180.1360699
0
ARC
8
DEFAULT_255_1_388
10
4.2906429
20
108.814388
40
0.3490913
50
155.3483706
51
180.7484035
0
ARC
8
DEFAULT_255_1_388
10
4.2851404
20
108.8111519
40
0.3454798
50
131.5745177
51
154.4799474
0
ARC
8
DEFAULT_255_1_388
10
4.3203687
20
108.7755422
40
0.3955058
50
96.9874487
51
131.9690874
0
ARC
8
DEFAULT_255_1_388
10
4.345058
20
108.6354407
40
0.537622
50
89.8592909
51
97.7827481
0
ARC
8
DEFAULT_255_1_388
10
4.3504689
20
108.605936
40
0.5671399
50
78.3654493
51
90.4132586
0
ARC
8
DEFAULT_255_1_388
10
4.390733
20
108.7925918
40
0.3762034
50
56.6229818
51
78.6387103
0
ARC
8
DEFAULT_255_1_388
10
4.4149159
20
108.8348846
40
0.3275964
50
47.0254604
51
56.085558
0
ARC
8
DEFAULT_255_1_388
10
4.417141
20
108.8393189
40
0.3228382
50
10.9207523
51
46.777927
0
ARC
8
DEFAULT_255_1_388
10
4.2637004
20
108.8038401
40
0.4802559
50
359.6364235
51
11.6087615
0
ARC
8
DEFAULT_255_1_388
10
4.470117
20
108.8021404
40
0.273833
50
332.3549969
51
359.7179765
0
ARC
8
DEFAULT_255_1_388
10
4.396957
20
108.8368285
40
0.3547505
50
325.2332381
51
332.8746682
0
ARC
8
DEFAULT_255_1_388
10
4.4141153
20
108.8248763
40
0.3338396
50
292.9803892
51
325.2391113
0
ARC
8
DEFAULT_255_1_388
10
4.3830349
20
108.8853679
40
0.4016959
50
292.542178
51
293.6931461
0
ARC
8
DEFAULT_255_1_388
10
4.4273921
20
108.1588036
40
0.372079
50
57.643292
51
72.8626085
0
ARC
8
DEFAULT_255_1_388
10
4.4672755
20
108.2234273
40
0.2961455
50
36.7246661
51
57.4701329
0
ARC
8
DEFAULT_255_1_388
10
4.4659912
20
108.224847
40
0.2963321
50
8.054535
51
36.3561529
0
ARC
8
DEFAULT_255_1_388
10
4.3689585
20
108.2074073
40
0.3948682
50
359.8316595
51
8.5873361
0
ARC
8
DEFAULT_255_1_388
10
4.3267059
20
108.201997
40
0.4371398
50
343.9831631
51
0.557075
0
ARC
8
DEFAULT_255_1_388
10
4.4264108
20
108.1746963
40
0.3337749
50
311.6358204
51
343.7652116
0
ARC
8
DEFAULT_255_1_388
10
4.3838362
20
108.2226955
40
0.3979351
50
279.7829743
51
311.625622
0
ARC
8
DEFAULT_255_1_388
10
4.3499497
20
108.3843642
40
0.5630417
50
269.7285092
51
280.3857694
0
ARC
8
DEFAULT_255_1_388
10
4.342981
20
108.3797241
40
0.5584119
50
256.6827433
51
270.4412869
0
ARC
8
DEFAULT_255_1_388
10
4.3048797
20
108.2239698
40
0.3980715
50
229.4223821
51
256.8554507
0
ARC
8
DEFAULT_255_1_388
10
4.258235
20
108.1714683
40
0.3278564
50
181.8183354
51
229.6455015
0
ARC
8
DEFAULT_255_1_388
10
4.375196
20
108.1861825
40
0.4453611
50
179.9760419
51
183.2330638
0
ARC
8
DEFAULT_255_1_388
10
4.3558512
20
108.1838781
40
0.2579652
50
179.4467996
51
196.2871626
0
ARC
8
DEFAULT_255_1_388
10
4.3009966
20
108.1688709
40
0.2011057
50
196.5661293
51
227.7059371
0
ARC
8
DEFAULT_255_1_388
10
4.3194573
20
108.1895155
40
0.2287994
50
227.7653015
51
257.8763321
0
ARC
8
DEFAULT_255_1_388
10
4.3447656
20
108.2955961
40
0.3378385
50
257.4583525
51
270.4267406
0
ARC
8
DEFAULT_255_1_388
10
4.3498906
20
108.328223
40
0.3704652
50
269.5965319
51
280.8788143
0
ARC
8
DEFAULT_255_1_388
10
4.3757134
20
108.1992529
40
0.2389415
50
280.6347277
51
299.8594068
0
ARC
8
DEFAULT_255_1_388
10
4.3971903
20
108.1584736
40
0.19289
50
300.3575552
51
314.5515667
0
ARC
8
DEFAULT_255_1_388
10
4.3878579
20
108.1653025
40
0.204312
50
315.0730962
51
345.0429362
0
ARC
8
DEFAULT_255_1_388
10
4.2840087
20
108.1955539
40
0.31246
50
344.598526
51
357.9270698
0
ARC
8
DEFAULT_255_1_388
10
4.1830391
20
108.2024705
40
0.4136265
50
357.4755098
51
0.0224936
0
ARC
8
DEFAULT_255_1_388
10
4.2983269
20
108.2052099
40
0.2983498
50
359.5051035
51
13.4236939
0
ARC
8
DEFAULT_255_1_388
10
4.3958359
20
108.2301637
40
0.1977186
50
12.9497905
51
48.7550905
0
ARC
8
DEFAULT_255_1_388
10
4.3753281
20
108.2021373
40
0.2323321
50
49.509109
51
72.1832965
0
ARC
8
DEFAULT_255_1_388
10
4.3350749
20
108.0826632
40
0.358397
50
71.9008458
51
84.3555134
0
ARC
8
DEFAULT_255_1_388
10
4.3169144
20
107.9294712
40
0.512641
50
84.019632
51
89.3326067
0
LINE
8
DEFAULT_255_1_388
10
4.8162318
20
115.9133382
11
4.8162318
21
115.7769
0
LINE
8
DEFAULT_255_1_388
10
4.8162318
20
115.7769
11
3.9542313
21
115.7769
0
LINE
8
DEFAULT_255_1_388
10
3.9542313
20
115.7769
11
3.9542313
21
115.8970741
0
LINE
8
DEFAULT_255_1_388
10
3.9542313
20
115.8970741
11
4.4096278
21
116.4030702
0
LINE
8
DEFAULT_255_1_388
10
4.0960909
20
116.7048607
11
3.9289315
21
116.7048607
0
LINE
8
DEFAULT_255_1_388
10
4.5081163
20
116.295546
11
4.1557262
21
115.9133382
0
LINE
8
DEFAULT_255_1_388
10
4.1557262
20
115.9133382
11
4.8162318
21
115.9133382
0
ARC
8
DEFAULT_255_1_388
10
2.8920337
20
117.7450983
40
2.0258655
50
318.5132526
51
320.7829045
0
ARC
8
DEFAULT_255_1_388
10
3.4868294
20
117.2609929
40
1.2589638
50
320.7372878
51
323.9739031
0
ARC
8
DEFAULT_255_1_388
10
3.9277226
20
116.9415554
40
0.7145141
50
323.8962701
51
328.64194
0
ARC
8
DEFAULT_255_1_388
10
4.1579484
20
116.7995545
40
0.4440242
50
328.8294576
51
331.7891185
0
ARC
8
DEFAULT_255_1_388
10
4.2701804
20
116.7416374
40
0.3177517
50
331.4254512
51
352.9365785
0
ARC
8
DEFAULT_255_1_388
10
4.2854804
20
116.738205
40
0.3021496
50
353.2257659
51
0.0166158
0
ARC
8
DEFAULT_255_1_388
10
4.3091564
20
116.7407894
40
0.2784847
50
359.486299
51
15.9343185
0
ARC
8
DEFAULT_255_1_388
10
4.3661831
20
116.7561269
40
0.2194403
50
16.1712913
51
43.5286088
0
ARC
8
DEFAULT_255_1_388
10
4.3748776
20
116.7648191
40
0.2071504
50
43.4417391
51
83.1661095
0
ARC
8
DEFAULT_255_1_388
10
4.3597937
20
116.6819316
40
0.2912888
50
82.160179
51
90.1505708
0
ARC
8
DEFAULT_255_1_388
10
4.3562418
20
116.6215279
40
0.3517025
50
89.5460741
51
102.5418361
0
ARC
8
DEFAULT_255_1_388
10
4.3289138
20
116.7374933
40
0.2325748
50
102.1738499
51
129.206123
0
ARC
8
DEFAULT_255_1_388
10
4.3200592
20
116.7514664
40
0.2161591
50
129.72865
51
135.753947
0
ARC
8
DEFAULT_255_1_388
10
4.3337074
20
116.7405728
40
0.2335433
50
136.1757367
51
166.3673339
0
ARC
8
DEFAULT_255_1_388
10
4.4469762
20
116.7102148
40
0.3507873
50
165.9090694
51
178.8684636
0
ARC
8
DEFAULT_255_1_388
10
4.5445534
20
116.7049263
40
0.4484624
50
178.4391136
51
180.0083808
0
ARC
8
DEFAULT_255_1_388
10
4.3866235
20
116.7093197
40
0.4577138
50
163.2878482
51
180.5581842
0
ARC
8
DEFAULT_255_1_388
10
4.2964276
20
116.7341393
40
0.3641968
50
133.4540601
51
162.947111
0
ARC
8
DEFAULT_255_1_388
10
4.3165158
20
116.7127789
40
0.3935189
50
100.7869829
51
133.4382499
0
ARC
8
DEFAULT_255_1_388
10
4.3556403
20
116.5385399
40
0.5720313
50
89.660664
51
101.3702276
0
ARC
8
DEFAULT_255_1_388
10
4.3631012
20
116.5454263
40
0.5651495
50
78.2172678
51
90.412935
0
ARC
8
DEFAULT_255_1_388
10
4.4030478
20
116.7281511
40
0.378122
50
55.9269121
51
78.4888449
0
ARC
8
DEFAULT_255_1_388
10
4.4251193
20
116.7662187
40
0.3342379
50
47.929771
51
55.4049217
0
ARC
8
DEFAULT_255_1_388
10
4.4365723
20
116.7778618
40
0.3179217
50
4.334829
51
48.0560205
0
ARC
8
DEFAULT_255_1_388
10
4.3133525
20
116.7587487
40
0.442341
50
359.9251713
51
5.5971671
0
ARC
8
DEFAULT_255_1_388
10
4.361568
20
116.7650728
40
0.3941854
50
337.8914027
51
358.9967534
0
ARC
8
DEFAULT_255_1_388
10
4.056325
20
116.8828295
40
0.7213271
50
326.9132501
51
338.3508308
0
ARC
8
DEFAULT_255_1_388
10
3.6079362
20
117.1702105
40
1.2538973
50
319.6471833
51
327.0959558
0
ARC
8
DEFAULT_255_1_388
10
3.176602
20
117.526005
40
1.8129975
50
317.2588228
51
319.9045804
0
LINE
8
DEFAULT_255_1_388
10
4.4952985
20
125.0363148
11
4.4952985
21
123.7144
0
LINE
8
DEFAULT_255_1_388
10
4.4952985
20
123.7144
11
4.3272355
21
123.7144
0
LINE
8
DEFAULT_255_1_388
10
4.3272355
20
123.7144
11
4.3272355
21
124.828495
0
LINE
8
DEFAULT_255_1_388
10
4.3272355
20
124.828495
11
3.990206
21
124.7047066
0
LINE
8
DEFAULT_255_1_388
10
3.990206
20
124.7047066
11
3.990206
21
124.8565055
0
LINE
8
DEFAULT_255_1_388
10
3.990206
20
124.8565055
11
4.4690951
21
125.0363148
0
LINE
8
DEFAULT_255_1_388
10
4.4690951
20
125.0363148
11
4.4952985
21
125.0363148
0
LINE
8
DEFAULT_255_1_388
10
23.1190856
20
132.429869
11
23.1190856
21
132.2130135
0
LINE
8
DEFAULT_255_1_388
10
22.2887099
20
132.1904244
11
22.2887099
21
132.4136048
0
LINE
8
DEFAULT_255_1_388
10
22.9519262
20
132.1678353
11
22.9519262
21
132.4416153
0
LINE
8
DEFAULT_255_1_388
10
22.4558693
20
132.4542652
11
22.4558693
21
132.1868102
0
ARC
8
DEFAULT_255_1_388
10
21.741319
20
132.2075118
40
1.3777776
50
353.8440855
51
0.2287917
0
ARC
8
DEFAULT_255_1_388
10
22.2632208
20
132.1492414
40
0.852639
50
344.4934746
51
353.9763743
0
ARC
8
DEFAULT_255_1_388
10
22.5999015
20
132.0535191
40
0.5026273
50
329.2803599
51
344.7473406
0
ARC
8
DEFAULT_255_1_388
10
22.7114511
20
131.9923038
40
0.3754848
50
324.9361395
51
328.6153007
0
ARC
8
DEFAULT_255_1_388
10
22.7540161
20
131.9625586
40
0.3235566
50
280.5801797
51
324.9173226
0
ARC
8
DEFAULT_255_1_388
10
22.7088789
20
132.1505236
40
0.5167077
50
269.5979457
51
281.6732777
0
ARC
8
DEFAULT_255_1_388
10
22.7007693
20
132.1370113
40
0.5032026
50
256.6228565
51
270.5105488
0
ARC
8
DEFAULT_255_1_388
10
22.6555435
20
131.9628345
40
0.3233092
50
215.8618351
51
257.2787793
0
ARC
8
DEFAULT_255_1_388
10
22.7704142
20
132.0399106
40
0.4615831
50
197.9695203
51
215.2622745
0
ARC
8
DEFAULT_255_1_388
10
23.0499818
20
132.1342641
40
0.7566307
50
187.8816486
51
198.2346584
0
ARC
8
DEFAULT_255_1_388
10
23.4953056
20
132.1985453
40
1.2065653
50
180.8977266
51
188.0054894
0
ARC
8
DEFAULT_255_1_388
10
23.800327
20
132.21004
40
1.5117443
50
180.7434591
51
181.152202
0
ARC
8
DEFAULT_255_1_388
10
23.6328266
20
132.4190371
40
1.3441277
50
173.7674302
51
180.2315596
0
ARC
8
DEFAULT_255_1_388
10
23.1246135
20
132.4764779
40
0.8326847
50
164.3058537
51
173.9000553
0
ARC
8
DEFAULT_255_1_388
10
22.7970135
20
132.5708652
40
0.4917711
50
148.7922028
51
164.5682288
0
ARC
8
DEFAULT_255_1_388
10
22.6900872
20
132.6305457
40
0.3694204
50
144.5883979
51
148.1161588
0
ARC
8
DEFAULT_255_1_388
10
22.6513618
20
132.6575667
40
0.322202
50
101.6440149
51
144.5142619
0
ARC
8
DEFAULT_255_1_388
10
22.699181
20
132.4675337
40
0.5180451
50
89.528284
51
102.5820197
0
ARC
8
DEFAULT_255_1_388
10
22.7080802
20
132.4631376
40
0.5224441
50
77.0437914
51
90.508231
0
ARC
8
DEFAULT_255_1_388
10
22.7533055
20
132.6479272
40
0.3322297
50
48.2777708
51
77.4996087
0
ARC
8
DEFAULT_255_1_388
10
22.7614795
20
132.6624557
40
0.315966
50
36.3141586
51
47.6307332
0
ARC
8
DEFAULT_255_1_388
10
22.6637518
20
132.5966159
40
0.4337313
50
18.2931065
51
35.6770203
0
ARC
8
DEFAULT_255_1_388
10
22.3776358
20
132.4984107
40
0.7362203
50
8.0246996
51
18.5605636
0
ARC
8
DEFAULT_255_1_388
10
21.9092714
20
132.4292432
40
1.2096583
50
1.127539
51
8.1718423
0
ARC
8
DEFAULT_255_1_388
10
21.5443847
20
132.4149374
40
1.5747719
50
0.5432713
51
1.38669
0
ARC
8
DEFAULT_255_1_388
10
21.7501226
20
132.4456163
40
1.2018103
50
359.8092569
51
4.9408001
0
ARC
8
DEFAULT_255_1_388
10
22.2237807
20
132.48789
40
0.7262727
50
4.8364937
51
12.2906017
0
ARC
8
DEFAULT_255_1_388
10
22.5337272
20
132.5569485
40
0.4087324
50
12.0806994
51
23.8171225
0
ARC
8
DEFAULT_255_1_388
10
22.6657668
20
132.6128508
40
0.2653719
50
24.2874621
51
31.3934353
0
ARC
8
DEFAULT_255_1_388
10
22.7248104
20
132.6514822
40
0.1948607
50
30.7407708
51
82.4658033
0
ARC
8
DEFAULT_255_1_388
10
22.7045765
20
132.5521017
40
0.2961198
50
81.1057101
51
90.2187368
0
ARC
8
DEFAULT_255_1_388
10
22.7005577
20
132.5811421
40
0.2670929
50
89.380395
51
105.6763916
0
ARC
8
DEFAULT_255_1_388
10
22.6799299
20
132.656132
40
0.1893189
50
105.7980655
51
149.7387869
0
ARC
8
DEFAULT_255_1_388
10
22.7996439
20
132.5841719
40
0.3289892
50
149.4208441
51
163.628295
0
ARC
8
DEFAULT_255_1_388
10
23.0348668
20
132.5124345
40
0.5749004
50
163.3764549
51
172.141138
0
ARC
8
DEFAULT_255_1_388
10
23.406139
20
132.4592582
40
0.9499585
50
172.0258462
51
178.0705453
0
ARC
8
DEFAULT_255_1_388
10
23.7482943
20
132.4430682
40
1.2924734
50
177.8639301
51
179.5036263
0
ARC
8
DEFAULT_255_1_388
10
23.6263961
20
132.1827151
40
1.170534
50
179.7995545
51
185.246089
0
ARC
8
DEFAULT_255_1_388
10
23.1715554
20
132.1396404
40
0.7136613
50
185.1411911
51
193.0082205
0
ARC
8
DEFAULT_255_1_388
10
22.8741815
20
132.0693441
40
0.4080987
50
192.7897338
51
205.2507384
0
ARC
8
DEFAULT_255_1_388
10
22.7564025
20
132.0167538
40
0.2791522
50
205.8001921
51
211.2545876
0
ARC
8
DEFAULT_255_1_388
10
22.6975564
20
131.9773132
40
0.2084074
50
210.3789935
51
238.4007996
0
ARC
8
DEFAULT_255_1_388
10
22.695365
20
131.9825786
40
0.2117943
50
239.6521916
51
265.9793852
0
ARC
8
DEFAULT_255_1_388
10
22.7049499
20
132.0582358
40
0.2879689
50
265.1324455
51
270.0603288
0
ARC
8
DEFAULT_255_1_388
10
22.7081876
20
132.0217418
40
0.2514919
50
269.3314378
51
287.2180039
0
ARC
8
DEFAULT_255_1_388
10
22.7236958
20
131.9651291
40
0.1928357
50
287.7957942
51
329.0808983
0
ARC
8
DEFAULT_255_1_388
10
22.6159715
20
132.0323651
40
0.319808
50
328.6635261
51
343.3325043
0
ARC
8
DEFAULT_255_1_388
10
22.3715174
20
132.1085195
40
0.5758408
50
343.0498092
51
351.9392499
0
ARC
8
DEFAULT_255_1_388
10
21.9814496
20
132.1660205
40
0.9701202
50
351.8071632
51
357.7957897
0
ARC
8
DEFAULT_255_1_388
10
21.6179973
20
132.1848724
40
1.3340376
50
357.5870923
51
359.2682493
0
LINE
8
DEFAULT_255_1_388
10
23.4380439
20
132.9674898
11
23.8121196
21
131.8823089
0
LINE
8
DEFAULT_255_1_388
10
23.8121196
20
131.8823089
11
24.1880024
21
132.9674898
0
LINE
8
DEFAULT_255_1_388
10
24.1880024
20
132.9674898
11
24.3777509
21
132.9674898
0
LINE
8
DEFAULT_255_1_388
10
24.3777509
20
132.9674898
11
23.8898261
21
131.6519
0
LINE
8
DEFAULT_255_1_388
10
23.8898261
20
131.6519
11
23.7362202
21
131.6519
0
LINE
8
DEFAULT_255_1_388
10
23.7362202
20
131.6519
11
23.2491989
21
132.9674898
0
LINE
8
DEFAULT_255_1_388
10
23.2491989
20
132.9674898
11
23.4380439
21
132.9674898
0
ENDSEC
0
EOF