0
SECTION
2
HEADER
9
$MEASUREMENT
70
1
0
ENDSEC
0
SECTION
2
TABLES
0
TABLE
2
LTYPE
0
LTYPE
72
65
70
64
2
CONTINUOUS
3
______
73
0
40
0
0
ENDTAB
0
TABLE
2
LAYER
0
LAYER
2
DEFAULT_255_2_778
70
0
62
255
6
CONTINUOUS
0
ENDTAB
0
ENDSEC
0
SECTION
2
ENTITIES
0
LINE
8
DEFAULT_255_2_778
10
3.5320815
20
97.1457
11
20.5452815
21
97.1457
0
LINE
8
DEFAULT_255_2_778
10
3.5320815
20
97.1462708
11
3.5386815
21
95.9289708
0
LINE
8
DEFAULT_255_2_778
10
3.5386815
20
95.9289708
11
3.5386815
21
93.4389708
0
LINE
8
DEFAULT_255_2_778
10
3.5386815
20
93.4389708
11
20.5386815
21
93.4389708
0
LINE
8
DEFAULT_255_2_778
10
20.5386815
20
93.4389708
11
20.5386815
21
95.9289708
0
LINE
8
DEFAULT_255_2_778
10
20.5386815
20
95.9289708
11
20.5452815
21
97.1462708
0
LINE
8
DEFAULT_255_2_778
10
12.4786625
20
51.9681375
11
12.4786625
21
51.3680375
0
LINE
8
DEFAULT_255_2_778
10
12.4786625
20
51.3680375
11
13.0787625
21
51.3680375
0
LINE
8
DEFAULT_255_2_778
10
13.0787625
20
51.3680375
11
13.0787625
21
51.9681375
0
LINE
8
DEFAULT_255_2_778
10
13.0787625
20
51.9681375
11
12.4786625
21
51.9681375
0
LINE
8
DEFAULT_255_2_778
10
12.4786625
20
48.9680375
11
12.4786625
21
48.3679375
0
LINE
8
DEFAULT_255_2_778
10
12.4786625
20
48.3679375
11
13.0787625
21
48.3679375
0
LINE
8
DEFAULT_255_2_778
10
13.0787625
20
48.3679375
11
13.0787625
21
48.9680375
0
LINE
8
DEFAULT_255_2_778
10
13.0787625
20
48.9680375
11
12.4786625
21
48.9680375
0
LINE
8
DEFAULT_255_2_778
10
12.4786625
20
45.9681375
11
12.4786625
21
45.3680375
0
LINE
8
DEFAULT_255_2_778
10
12.4786625
20
45.3680375
11
13.0787625
21
45.3680375
0
LINE
8
DEFAULT_255_2_778
10
13.0787625
20
45.3680375
11
13.0787625
21
45.9681375
0
LINE
8
DEFAULT_255_2_778
10
13.0787625
20
45.9681375
11
12.4786625
21
45.9681375
0
LINE
8
DEFAULT_255_2_778
10
11.5285761
20
50.4180239
11
14.0285761
21
50.4180239
0
LINE
8
DEFAULT_255_2_778
10
14.0285761
20
50.4180239
11
14.0285761
21
52.4179239
0
LINE
8
DEFAULT_255_2_778
10
14.0285761
20
52.4179239
11
13.5285761
21
52.9180239
0
LINE
8
DEFAULT_255_2_778
10
13.5285761
20
52.9180239
11
11.5285761
21
52.9180239
0
LINE
8
DEFAULT_255_2_778
10
11.5285761
20
52.9180239
11
11.5285761
21
50.4180239
0
LINE
8
DEFAULT_255_2_778
10
13.5285761
20
47.4181239
11
14.0285761
21
47.9181239
0
LINE
8
DEFAULT_255_2_778
10
14.0285761
20
47.9181239
11
14.0285761
21
49.9181239
0
LINE
8
DEFAULT_255_2_778
10
14.0285761
20
49.9181239
11
11.5285761
21
49.9181239
0
LINE
8
DEFAULT_255_2_778
10
11.5285761
20
49.9181239
11
11.5285761
21
47.4181239
0
LINE
8
DEFAULT_255_2_778
10
11.5285761
20
47.4181239
11
13.5285761
21
47.4181239
0
LINE
8
DEFAULT_255_2_778
10
14.0285761
20
44.4180239
11
14.0285761
21
46.4179239
0
LINE
8
DEFAULT_255_2_778
10
14.0285761
20
46.4179239
11
13.5285761
21
46.9180239
0
LINE
8
DEFAULT_255_2_778
10
13.5285761
20
46.9180239
11
11.5285761
21
46.9180239
0
LINE
8
DEFAULT_255_2_778
10
11.5285761
20
46.9180239
11
11.5285761
21
44.4180239
0
LINE
8
DEFAULT_255_2_778
10
11.5285761
20
44.4180239
11
14.0285761
21
44.4180239
0
LINE
8
DEFAULT_255_2_778
10
15.4785757
20
54.3678375
11
16.0785757
21
54.3678375
0
LINE
8
DEFAULT_255_2_778
10
16.0785757
20
54.3678375
11
16.0785757
21
54.9679375
0
LINE
8
DEFAULT_255_2_778
10
16.0785757
20
54.9679375
11
15.4785757
21
54.9679375
0
LINE
8
DEFAULT_255_2_778
10
15.4785757
20
54.9679375
11
15.4785757
21
54.3678375
0
LINE
8
DEFAULT_255_2_778
10
15.4785625
20
51.9681375
11
15.4785625
21
51.3680375
0
LINE
8
DEFAULT_255_2_778
10
15.4785625
20
51.3680375
11
16.0786625
21
51.3680375
0
LINE
8
DEFAULT_255_2_778
10
16.0786625
20
51.3680375
11
16.0786625
21
51.9681375
0
LINE
8
DEFAULT_255_2_778
10
16.0786625
20
51.9681375
11
15.4785625
21
51.9681375
0
LINE
8
DEFAULT_255_2_778
10
16.0785757
20
48.9680375
11
15.4785757
21
48.9680375
0
LINE
8
DEFAULT_255_2_778
10
15.4785757
20
48.9680375
11
15.4785757
21
48.3679375
0
LINE
8
DEFAULT_255_2_778
10
15.4785757
20
48.3679375
11
16.0785757
21
48.3679375
0
LINE
8
DEFAULT_255_2_778
10
16.0785757
20
48.3679375
11
16.0785757
21
48.9680375
0
LINE
8
DEFAULT_255_2_778
10
17.0286761
20
53.4181239
11
17.0286761
21
55.4180239
0
LINE
8
DEFAULT_255_2_778
10
17.0286761
20
55.4180239
11
16.5286761
21
55.9181239
0
LINE
8
DEFAULT_255_2_778
10
16.5286761
20
55.9181239
11
14.5286761
21
55.9181239
0
LINE
8
DEFAULT_255_2_778
10
14.5286761
20
55.9181239
11
14.5286761
21
53.4181239
0
LINE
8
DEFAULT_255_2_778
10
14.5286761
20
53.4181239
11
17.0286761
21
53.4181239
0
LINE
8
DEFAULT_255_2_778
10
17.0286761
20
52.4179239
11
16.5286761
21
52.9180239
0
LINE
8
DEFAULT_255_2_778
10
16.5286761
20
52.9180239
11
14.5286761
21
52.9180239
0
LINE
8
DEFAULT_255_2_778
10
14.5286761
20
52.9180239
11
14.5286761
21
50.4180239
0
LINE
8
DEFAULT_255_2_778
10
14.5286761
20
50.4180239
11
17.0286761
21
50.4180239
0
LINE
8
DEFAULT_255_2_778
10
17.0286761
20
50.4180239
11
17.0286761
21
52.4179239
0
LINE
8
DEFAULT_255_2_778
10
16.5286761
20
47.4181239
11
17.0286761
21
47.9181239
0
LINE
8
DEFAULT_255_2_778
10
17.0286761
20
47.9181239
11
17.0286761
21
49.9181239
0
LINE
8
DEFAULT_255_2_778
10
17.0286761
20
49.9181239
11
14.5286761
21
49.9181239
0
LINE
8
DEFAULT_255_2_778
10
14.5286761
20
49.9181239
11
14.5286761
21
47.4181239
0
LINE
8
DEFAULT_255_2_778
10
14.5286761
20
47.4181239
11
16.5286761
21
47.4181239
0
LINE
8
DEFAULT_255_2_778
10
12.4786625
20
54.9679375
11
12.4786625
21
54.3678375
0
LINE
8
DEFAULT_255_2_778
10
12.4786625
20
54.3678375
11
13.0787625
21
54.3678375
0
LINE
8
DEFAULT_255_2_778
10
13.0787625
20
54.3678375
11
13.0787625
21
54.9679375
0
LINE
8
DEFAULT_255_2_778
10
13.0787625
20
54.9679375
11
12.4786625
21
54.9679375
0
LINE
8
DEFAULT_255_2_778
10
14.0285761
20
55.4180239
11
13.5285761
21
55.9181239
0
LINE
8
DEFAULT_255_2_778
10
13.5285761
20
55.9181239
11
11.5285761
21
55.9181239
0
LINE
8
DEFAULT_255_2_778
10
11.5285761
20
55.9181239
11
11.5285761
21
53.4181239
0
LINE
8
DEFAULT_255_2_778
10
11.5285761
20
53.4181239
11
14.0285761
21
53.4181239
0
LINE
8
DEFAULT_255_2_778
10
14.0285761
20
53.4181239
11
14.0285761
21
55.4180239
0
LINE
8
DEFAULT_255_2_778
10
12.4786625
20
33.9680375
11
12.4786625
21
33.3679375
0
LINE
8
DEFAULT_255_2_778
10
12.4786625
20
33.3679375
11
13.0787625
21
33.3679375
0
LINE
8
DEFAULT_255_2_778
10
13.0787625
20
33.3679375
11
13.0787625
21
33.9680375
0
LINE
8
DEFAULT_255_2_778
10
13.0787625
20
33.9680375
11
12.4786625
21
33.9680375
0
LINE
8
DEFAULT_255_2_778
10
13.0787761
20
30.9681749
11
12.4786761
21
30.9681749
0
LINE
8
DEFAULT_255_2_778
10
12.4786761
20
30.9681749
11
12.4786761
21
30.3681749
0
LINE
8
DEFAULT_255_2_778
10
12.4786761
20
30.3681749
11
13.0787761
21
30.3681749
0
LINE
8
DEFAULT_255_2_778
10
13.0787761
20
30.3681749
11
13.0787761
21
30.9681749
0
LINE
8
DEFAULT_255_2_778
10
14.0285761
20
37.9182749
11
11.5285761
21
37.9182749
0
LINE
8
DEFAULT_255_2_778
10
11.5285761
20
37.9182749
11
11.5285761
21
35.4182749
0
LINE
8
DEFAULT_255_2_778
10
11.5285761
20
35.4182749
11
13.5285761
21
35.4182749
0
LINE
8
DEFAULT_255_2_778
10
13.5285761
20
35.4182749
11
14.0285761
21
35.9182749
0
LINE
8
DEFAULT_255_2_778
10
14.0285761
20
35.9182749
11
14.0285761
21
37.9182749
0
LINE
8
DEFAULT_255_2_778
10
13.5285761
20
32.4181239
11
14.0285761
21
32.9181239
0
LINE
8
DEFAULT_255_2_778
10
14.0285761
20
32.9181239
11
14.0285761
21
34.9181239
0
LINE
8
DEFAULT_255_2_778
10
14.0285761
20
34.9181239
11
11.5285761
21
34.9181239
0
LINE
8
DEFAULT_255_2_778
10
11.5285761
20
34.9181239
11
11.5285761
21
32.4181239
0
LINE
8
DEFAULT_255_2_778
10
11.5285761
20
32.4181239
11
13.5285761
21
32.4181239
0
LINE
8
DEFAULT_255_2_778
10
13.5285761
20
31.9180239
11
11.5285761
21
31.9180239
0
LINE
8
DEFAULT_255_2_778
10
11.5285761
20
31.9180239
11
11.5285761
21
29.4180239
0
LINE
8
DEFAULT_255_2_778
10
11.5285761
20
29.4180239
11
14.0285761
21
29.4180239
0
LINE
8
DEFAULT_255_2_778
10
14.0285761
20
29.4180239
11
14.0285761
21
31.4179239
0
LINE
8
DEFAULT_255_2_778
10
14.0285761
20
31.4179239
11
13.5285761
21
31.9180239
0
LINE
8
DEFAULT_255_2_778
10
15.4785625
20
30.9681375
11
15.4785625
21
30.3680375
0
LINE
8
DEFAULT_255_2_778
10
15.4785625
20
30.3680375
11
16.0786625
21
30.3680375
0
LINE
8
DEFAULT_255_2_778
10
16.0786625
20
30.3680375
11
16.0786625
21
30.9681375
0
LINE
8
DEFAULT_255_2_778
10
16.0786625
20
30.9681375
11
15.4785625
21
30.9681375
0
LINE
8
DEFAULT_255_2_778
10
16.0785757
20
36.3680375
11
16.0785757
21
36.9681375
0
LINE
8
DEFAULT_255_2_778
10
16.0785757
20
36.9681375
11
15.4785757
21
36.9681375
0
LINE
8
DEFAULT_255_2_778
10
15.4785757
20
36.9681375
11
15.4785757
21
36.3680375
0
LINE
8
DEFAULT_255_2_778
10
15.4785757
20
36.3680375
11
16.0785757
21
36.3680375
0
LINE
8
DEFAULT_255_2_778
10
15.4785625
20
33.9680375
11
15.4785625
21
33.3679375
0
LINE
8
DEFAULT_255_2_778
10
15.4785625
20
33.3679375
11
16.0786625
21
33.3679375
0
LINE
8
DEFAULT_255_2_778
10
16.0786625
20
33.3679375
11
16.0786625
21
33.9680375
0
LINE
8
DEFAULT_255_2_778
10
16.0786625
20
33.9680375
11
15.4785625
21
33.9680375
0
LINE
8
DEFAULT_255_2_778
10
14.5286761
20
37.9182239
11
17.0286761
21
37.9182239
0
LINE
8
DEFAULT_255_2_778
10
17.0286761
20
37.9182239
11
17.0286761
21
35.9182239
0
LINE
8
DEFAULT_255_2_778
10
17.0286761
20
35.9182239
11
16.5286761
21
35.4182239
0
LINE
8
DEFAULT_255_2_778
10
16.5286761
20
35.4182239
11
14.5286761
21
35.4182239
0
LINE
8
DEFAULT_255_2_778
10
14.5286761
20
35.4182239
11
14.5286761
21
37.9182239
0
LINE
8
DEFAULT_255_2_778
10
16.5286761
20
32.4181239
11
17.0286761
21
32.9181239
0
LINE
8
DEFAULT_255_2_778
10
17.0286761
20
32.9181239
11
17.0286761
21
34.9181239
0
LINE
8
DEFAULT_255_2_778
10
17.0286761
20
34.9181239
11
14.5286761
21
34.9181239
0
LINE
8
DEFAULT_255_2_778
10
14.5286761
20
34.9181239
11
14.5286761
21
32.4181239
0
LINE
8
DEFAULT_255_2_778
10
14.5286761
20
32.4181239
11
16.5286761
21
32.4181239
0
LINE
8
DEFAULT_255_2_778
10
17.0286761
20
29.4180239
11
17.0286761
21
31.4179239
0
LINE
8
DEFAULT_255_2_778
10
17.0286761
20
31.4179239
11
16.5286761
21
31.9180239
0
LINE
8
DEFAULT_255_2_778
10
16.5286761
20
31.9180239
11
14.5286761
21
31.9180239
0
LINE
8
DEFAULT_255_2_778
10
14.5286761
20
31.9180239
11
14.5286761
21
29.4180239
0
LINE
8
DEFAULT_255_2_778
10
14.5286761
20
29.4180239
11
17.0286761
21
29.4180239
0
LINE
8
DEFAULT_255_2_778
10
15.4785757
20
27.3679375
11
16.0785757
21
27.3679375
0
LINE
8
DEFAULT_255_2_778
10
16.0785757
20
27.3679375
11
16.0785757
21
27.9680375
0
LINE
8
DEFAULT_255_2_778
10
16.0785757
20
27.9680375
11
15.4785757
21
27.9680375
0
LINE
8
DEFAULT_255_2_778
10
15.4785757
20
27.9680375
11
15.4785757
21
27.3679375
0
LINE
8
DEFAULT_255_2_778
10
15.4785625
20
24.9682375
11
15.4785625
21
24.3681375
0
LINE
8
DEFAULT_255_2_778
10
15.4785625
20
24.3681375
11
16.0786625
21
24.3681375
0
LINE
8
DEFAULT_255_2_778
10
16.0786625
20
24.3681375
11
16.0786625
21
24.9682375
0
LINE
8
DEFAULT_255_2_778
10
16.0786625
20
24.9682375
11
15.4785625
21
24.9682375
0
LINE
8
DEFAULT_255_2_778
10
17.0286761
20
26.9181239
11
17.0286761
21
28.9181239
0
LINE
8
DEFAULT_255_2_778
10
17.0286761
20
28.9181239
11
14.5286761
21
28.9181239
0
LINE
8
DEFAULT_255_2_778
10
14.5286761
20
28.9181239
11
14.5286761
21
26.4181239
0
LINE
8
DEFAULT_255_2_778
10
14.5286761
20
26.4181239
11
16.5286761
21
26.4181239
0
LINE
8
DEFAULT_255_2_778
10
16.5286761
20
26.4181239
11
17.0286761
21
26.9181239
0
LINE
8
DEFAULT_255_2_778
10
17.0286761
20
25.4179239
11
17.0286761
21
23.4180239
0
LINE
8
DEFAULT_255_2_778
10
17.0286761
20
23.4180239
11
14.5286761
21
23.4180239
0
LINE
8
DEFAULT_255_2_778
10
14.5286761
20
23.4180239
11
14.5286761
21
25.9180239
0
LINE
8
DEFAULT_255_2_778
10
14.5286761
20
25.9180239
11
16.5286761
21
25.9180239
0
LINE
8
DEFAULT_255_2_778
10
16.5286761
20
25.9180239
11
17.0286761
21
25.4179239
0
LINE
8
DEFAULT_255_2_778
10
17.0286761
20
22.4181239
11
17.0286761
21
20.4182239
0
LINE
8
DEFAULT_255_2_778
10
17.0286761
20
20.4182239
11
14.5286761
21
20.4182239
0
LINE
8
DEFAULT_255_2_778
10
14.5286761
20
20.4182239
11
14.5286761
21
22.9182239
0
LINE
8
DEFAULT_255_2_778
10
14.5286761
20
22.9182239
11
16.5286761
21
22.9182239
0
LINE
8
DEFAULT_255_2_778
10
16.5286761
20
22.9182239
11
17.0286761
21
22.4181239
0
LINE
8
DEFAULT_255_2_778
10
12.4786625
20
24.9682375
11
12.4786625
21
24.3681375
0
LINE
8
DEFAULT_255_2_778
10
12.4786625
20
24.3681375
11
13.0787625
21
24.3681375
0
LINE
8
DEFAULT_255_2_778
10
13.0787625
20
24.3681375
11
13.0787625
21
24.9682375
0
LINE
8
DEFAULT_255_2_778
10
13.0787625
20
24.9682375
11
12.4786625
21
24.9682375
0
LINE
8
DEFAULT_255_2_778
10
12.4786625
20
27.9680375
11
12.4786625
21
27.3679375
0
LINE
8
DEFAULT_255_2_778
10
12.4786625
20
27.3679375
11
13.0787625
21
27.3679375
0
LINE
8
DEFAULT_255_2_778
10
13.0787625
20
27.3679375
11
13.0787625
21
27.9680375
0
LINE
8
DEFAULT_255_2_778
10
13.0787625
20
27.9680375
11
12.4786625
21
27.9680375
0
LINE
8
DEFAULT_255_2_778
10
14.0285761
20
26.9181239
11
14.0285761
21
28.9181239
0
LINE
8
DEFAULT_255_2_778
10
14.0285761
20
28.9181239
11
11.5285761
21
28.9181239
0
LINE
8
DEFAULT_255_2_778
10
11.5285761
20
28.9181239
11
11.5285761
21
26.4181239
0
LINE
8
DEFAULT_255_2_778
10
11.5285761
20
26.4181239
11
13.5285761
21
26.4181239
0
LINE
8
DEFAULT_255_2_778
10
13.5285761
20
26.4181239
11
14.0285761
21
26.9181239
0
LINE
8
DEFAULT_255_2_778
10
14.0285761
20
25.4179239
11
14.0285761
21
23.4180239
0
LINE
8
DEFAULT_255_2_778
10
14.0285761
20
23.4180239
11
11.5285761
21
23.4180239
0
LINE
8
DEFAULT_255_2_778
10
11.5285761
20
23.4180239
11
11.5285761
21
25.9180239
0
LINE
8
DEFAULT_255_2_778
10
11.5285761
20
25.9180239
11
13.5285761
21
25.9180239
0
LINE
8
DEFAULT_255_2_778
10
13.5285761
20
25.9180239
11
14.0285761
21
25.4179239
0
LINE
8
DEFAULT_255_2_778
10
14.0285761
20
22.4181239
11
14.0285761
21
20.4182239
0
LINE
8
DEFAULT_255_2_778
10
14.0285761
20
20.4182239
11
11.5285761
21
20.4182239
0
LINE
8
DEFAULT_255_2_778
10
11.5285761
20
20.4182239
11
11.5285761
21
22.9182239
0
LINE
8
DEFAULT_255_2_778
10
11.5285761
20
22.9182239
11
13.5285761
21
22.9182239
0
LINE
8
DEFAULT_255_2_778
10
13.5285761
20
22.9182239
11
14.0285761
21
22.4181239
0
LINE
8
DEFAULT_255_2_778
10
13.0787625
20
39.3678375
11
13.0787625
21
39.9679375
0
LINE
8
DEFAULT_255_2_778
10
13.0787625
20
39.9679375
11
12.4786625
21
39.9679375
0
LINE
8
DEFAULT_255_2_778
10
12.4786625
20
39.9679375
11
12.4786625
21
39.3678375
0
LINE
8
DEFAULT_255_2_778
10
12.4786625
20
39.3678375
11
13.0787625
21
39.3678375
0
LINE
8
DEFAULT_255_2_778
10
12.4786625
20
36.9681375
11
12.4786625
21
36.3680375
0
LINE
8
DEFAULT_255_2_778
10
12.4786625
20
36.3680375
11
13.0787625
21
36.3680375
0
LINE
8
DEFAULT_255_2_778
10
13.0787625
20
36.3680375
11
13.0787625
21
36.9681375
0
LINE
8
DEFAULT_255_2_778
10
13.0787625
20
36.9681375
11
12.4786625
21
36.9681375
0
LINE
8
DEFAULT_255_2_778
10
13.0787625
20
42.3679375
11
13.0787625
21
42.9680375
0
LINE
8
DEFAULT_255_2_778
10
13.0787625
20
42.9680375
11
12.4786625
21
42.9680375
0
LINE
8
DEFAULT_255_2_778
10
12.4786625
20
42.9680375
11
12.4786625
21
42.3679375
0
LINE
8
DEFAULT_255_2_778
10
12.4786625
20
42.3679375
11
13.0787625
21
42.3679375
0
LINE
8
DEFAULT_255_2_778
10
11.5285761
20
43.9182239
11
14.0285761
21
43.9182239
0
LINE
8
DEFAULT_255_2_778
10
14.0285761
20
43.9182239
11
14.0285761
21
41.9182239
0
LINE
8
DEFAULT_255_2_778
10
14.0285761
20
41.9182239
11
13.5285761
21
41.4182239
0
LINE
8
DEFAULT_255_2_778
10
13.5285761
20
41.4182239
11
11.5285761
21
41.4182239
0
LINE
8
DEFAULT_255_2_778
10
11.5285761
20
41.4182239
11
11.5285761
21
43.9182239
0
LINE
8
DEFAULT_255_2_778
10
13.5285761
20
38.4181239
11
14.0285761
21
38.9181239
0
LINE
8
DEFAULT_255_2_778
10
14.0285761
20
38.9181239
11
14.0285761
21
40.9181239
0
LINE
8
DEFAULT_255_2_778
10
14.0285761
20
40.9181239
11
11.5285761
21
40.9181239
0
LINE
8
DEFAULT_255_2_778
10
11.5285761
20
40.9181239
11
11.5285761
21
38.4181239
0
LINE
8
DEFAULT_255_2_778
10
11.5285761
20
38.4181239
11
13.5285761
21
38.4181239
0
LINE
8
DEFAULT_255_2_778
10
16.0785757
20
42.3679375
11
16.0785757
21
42.9680375
0
LINE
8
DEFAULT_255_2_778
10
16.0785757
20
42.9680375
11
15.4785757
21
42.9680375
0
LINE
8
DEFAULT_255_2_778
10
15.4785757
20
42.9680375
11
15.4785757
21
42.3679375
0
LINE
8
DEFAULT_255_2_778
10
15.4785757
20
42.3679375
11
16.0785757
21
42.3679375
0
LINE
8
DEFAULT_255_2_778
10
15.4785757
20
39.3678375
11
16.0785757
21
39.3678375
0
LINE
8
DEFAULT_255_2_778
10
16.0785757
20
39.3678375
11
16.0785757
21
39.9679375
0
LINE
8
DEFAULT_255_2_778
10
16.0785757
20
39.9679375
11
15.4785757
21
39.9679375
0
LINE
8
DEFAULT_255_2_778
10
15.4785757
20
39.9679375
11
15.4785757
21
39.3678375
0
LINE
8
DEFAULT_255_2_778
10
15.4785625
20
45.9681375
11
15.4785625
21
45.3680375
0
LINE
8
DEFAULT_255_2_778
10
15.4785625
20
45.3680375
11
16.0786625
21
45.3680375
0
LINE
8
DEFAULT_255_2_778
10
16.0786625
20
45.3680375
11
16.0786625
21
45.9681375
0
LINE
8
DEFAULT_255_2_778
10
16.0786625
20
45.9681375
11
15.4785625
21
45.9681375
0
LINE
8
DEFAULT_255_2_778
10
17.0286761
20
46.9180239
11
17.0286761
21
44.9180239
0
LINE
8
DEFAULT_255_2_778
10
17.0286761
20
44.9180239
11
16.5286761
21
44.4180239
0
LINE
8
DEFAULT_255_2_778
10
16.5286761
20
44.4180239
11
14.5286761
21
44.4180239
0
LINE
8
DEFAULT_255_2_778
10
14.5286761
20
44.4180239
11
14.5286761
21
46.9180239
0
LINE
8
DEFAULT_255_2_778
10
14.5286761
20
46.9180239
11
17.0286761
21
46.9180239
0
LINE
8
DEFAULT_255_2_778
10
16.5286761
20
38.4181239
11
17.0286761
21
38.9181239
0
LINE
8
DEFAULT_255_2_778
10
17.0286761
20
38.9181239
11
17.0286761
21
40.9181239
0
LINE
8
DEFAULT_255_2_778
10
17.0286761
20
40.9181239
11
14.5286761
21
40.9181239
0
LINE
8
DEFAULT_255_2_778
10
14.5286761
20
40.9181239
11
14.5286761
21
38.4181239
0
LINE
8
DEFAULT_255_2_778
10
14.5286761
20
38.4181239
11
16.5286761
21
38.4181239
0
LINE
8
DEFAULT_255_2_778
10
17.0286761
20
43.4181239
11
16.5286761
21
43.9182239
0
LINE
8
DEFAULT_255_2_778
10
16.5286761
20
43.9182239
11
14.5286761
21
43.9182239
0
LINE
8
DEFAULT_255_2_778
10
14.5286761
20
43.9182239
11
14.5286761
21
41.4182239
0
LINE
8
DEFAULT_255_2_778
10
14.5286761
20
41.4182239
11
17.0286761
21
41.4182239
0
LINE
8
DEFAULT_255_2_778
10
17.0286761
20
41.4182239
11
17.0286761
21
43.4181239
0
LINE
8
DEFAULT_255_2_778
10
12.4786625
20
21.9681375
11
12.4786625
21
21.3680375
0
LINE
8
DEFAULT_255_2_778
10
12.4786625
20
21.3680375
11
13.0787625
21
21.3680375
0
LINE
8
DEFAULT_255_2_778
10
13.0787625
20
21.3680375
11
13.0787625
21
21.9681375
0
LINE
8
DEFAULT_255_2_778
10
13.0787625
20
21.9681375
11
12.4786625
21
21.9681375
0
LINE
8
DEFAULT_255_2_778
10
15.4785625
20
21.9681375
11
15.4785625
21
21.3680375
0
LINE
8
DEFAULT_255_2_778
10
15.4785625
20
21.3680375
11
16.0786625
21
21.3680375
0
LINE
8
DEFAULT_255_2_778
10
16.0786625
20
21.3680375
11
16.0786625
21
21.9681375
0
LINE
8
DEFAULT_255_2_778
10
16.0786625
20
21.9681375
11
15.4785625
21
21.9681375
0
LINE
8
DEFAULT_255_2_778
10
13.1785688
20
19.4291557
11
15.3785688
21
19.4291557
0
LINE
8
DEFAULT_255_2_778
10
11.5285688
20
19.8680557
11
11.5285688
21
19.9180557
0
LINE
8
DEFAULT_255_2_778
10
11.5285688
20
19.9180557
11
17.0284688
21
19.9180557
0
LINE
8
DEFAULT_255_2_778
10
17.0284688
20
19.9180557
11
17.0284688
21
19.8680557
0
LINE
8
DEFAULT_255_2_778
10
15.3785688
20
19.1680557
11
14.8684688
21
19.1680557
0
LINE
8
DEFAULT_255_2_778
10
14.8684688
20
19.1680557
11
14.8684688
21
18.6679557
0
LINE
8
DEFAULT_255_2_778
10
14.8684688
20
18.6679557
11
15.3785688
21
18.6679557
0
LINE
8
DEFAULT_255_2_778
10
13.1785688
20
18.6679557
11
13.6886688
21
18.6679557
0
LINE
8
DEFAULT_255_2_778
10
13.6886688
20
18.6679557
11
13.6886688
21
19.1680557
0
LINE
8
DEFAULT_255_2_778
10
13.6886688
20
19.1680557
11
13.1785688
21
19.1680557
0
LINE
8
DEFAULT_255_2_778
10
13.6886688
20
19.1680557
11
14.8686688
21
19.1680557
0
LINE
8
DEFAULT_255_2_778
10
14.8686688
20
18.6679557
11
13.6886688
21
18.6679557
0
LINE
8
DEFAULT_255_2_778
10
15.3785688
20
57.6680557
11
14.8684688
21
57.6680557
0
LINE
8
DEFAULT_255_2_778
10
14.8684688
20
57.6680557
11
14.8684688
21
57.1679557
0
LINE
8
DEFAULT_255_2_778
10
14.8684688
20
57.1679557
11
15.3785688
21
57.1679557
0
LINE
8
DEFAULT_255_2_778
10
13.1785688
20
57.1679557
11
13.6886688
21
57.1679557
0
LINE
8
DEFAULT_255_2_778
10
13.6886688
20
57.1679557
11
13.6886688
21
57.6680557
0
LINE
8
DEFAULT_255_2_778
10
13.6886688
20
57.6680557
11
13.1785688
21
57.6680557
0
LINE
8
DEFAULT_255_2_778
10
14.8684688
20
57.1679557
11
13.6883688
21
57.1679557
0
LINE
8
DEFAULT_255_2_778
10
14.8684688
20
57.6680557
11
13.6883688
21
57.6680557
0
LINE
8
DEFAULT_255_2_778
10
13.1782688
20
56.4181557
11
13.1782688
21
57.6680557
0
LINE
8
DEFAULT_255_2_778
10
13.1782688
20
57.6680557
11
11.5283688
21
57.6680557
0
LINE
8
DEFAULT_255_2_778
10
17.0281688
20
57.6680557
11
15.3782688
21
57.6680557
0
LINE
8
DEFAULT_255_2_778
10
15.3782688
20
57.6680557
11
15.3782688
21
56.4181557
0
LINE
8
DEFAULT_255_2_778
10
17.7031688
20
19.8680557
11
17.7031688
21
56.4681557
0
LINE
8
DEFAULT_255_2_778
10
17.7031688
20
56.4681557
11
17.0281688
21
56.4681557
0
LINE
8
DEFAULT_255_2_778
10
17.0281688
20
56.4681557
11
17.0281688
21
56.4181557
0
LINE
8
DEFAULT_255_2_778
10
17.0281688
20
56.4181557
11
11.5285688
21
56.4181557
0
LINE
8
DEFAULT_255_2_778
10
11.5285688
20
56.4181557
11
11.5285688
21
56.4681557
0
LINE
8
DEFAULT_255_2_778
10
11.5285688
20
56.4681557
11
10.8536688
21
56.4681557
0
LINE
8
DEFAULT_255_2_778
10
10.8536688
20
56.4681557
11
10.8536688
21
19.8680557
0
LINE
8
DEFAULT_255_2_778
10
15.3785688
20
19.9180557
11
15.3785688
21
18.6682557
0
LINE
8
DEFAULT_255_2_778
10
15.3785688
20
18.6682557
11
17.0284688
21
18.6682557
0
LINE
8
DEFAULT_255_2_778
10
17.0284688
20
18.6682557
11
17.0284688
21
19.8680557
0
LINE
8
DEFAULT_255_2_778
10
17.0284688
20
19.8680557
11
17.7034688
21
19.8680557
0
LINE
8
DEFAULT_255_2_778
10
17.7034688
20
19.8680557
11
17.7034688
21
18.6682557
0
LINE
8
DEFAULT_255_2_778
10
17.7034688
20
18.6682557
11
17.0284688
21
18.6682557
0
LINE
8
DEFAULT_255_2_778
10
13.1785688
20
19.9180557
11
13.1785688
21
18.6682557
0
LINE
8
DEFAULT_255_2_778
10
13.1785688
20
18.6682557
11
10.8536688
21
18.6682557
0
LINE
8
DEFAULT_255_2_778
10
10.8536688
20
18.6682557
11
10.8536688
21
19.8680557
0
LINE
8
DEFAULT_255_2_778
10
10.8536688
20
19.8680557
11
11.5285688
21
19.8680557
0
LINE
8
DEFAULT_255_2_778
10
11.5285688
20
19.8680557
11
11.5285688
21
18.6682557
0
LINE
8
DEFAULT_255_2_778
10
17.0284688
20
56.4681557
11
17.0284688
21
57.6680557
0
LINE
8
DEFAULT_255_2_778
10
17.0284688
20
57.6680557
11
17.7034688
21
57.6680557
0
LINE
8
DEFAULT_255_2_778
10
17.7034688
20
57.6680557
11
17.7034688
21
56.4681557
0
LINE
8
DEFAULT_255_2_778
10
10.8533688
20
56.4681557
11
10.8533688
21
57.6680557
0
LINE
8
DEFAULT_255_2_778
10
10.8533688
20
57.6680557
11
11.5283688
21
57.6680557
0
LINE
8
DEFAULT_255_2_778
10
11.5283688
20
57.6680557
11
11.5283688
21
56.4681557
0
LINE
8
DEFAULT_255_2_778
10
20.5386961
20
92.8791039
11
3.5386961
21
92.8791039
0
LINE
8
DEFAULT_255_2_778
10
3.5386961
20
92.8791039
11
3.5386961
21
75.8791039
0
LINE
8
DEFAULT_255_2_778
10
3.5386961
20
75.8791039
11
20.5386961
21
75.8791039
0
LINE
8
DEFAULT_255_2_778
10
20.5386961
20
75.8791039
11
20.5386961
21
92.8791039
0
ARC
8
DEFAULT_255_2_778
10
3.8655052
20
76.2038246
40
0.1990041
50
224.8320469
51
270.0492386
0
ARC
8
DEFAULT_255_2_778
10
3.8649278
20
76.2047525
40
0.1992515
50
179.9804103
51
225.1383376
0
ARC
8
DEFAULT_255_2_778
10
20.2136474
20
76.2030243
40
0.1990038
50
269.9507379
51
315.1680014
0
ARC
8
DEFAULT_255_2_778
10
20.2144722
20
76.2038496
40
0.1990041
50
314.8320528
51
0.0492223
0
ARC
8
DEFAULT_255_2_778
10
20.1809187
20
92.5550296
40
0.232359
50
359.8005196
51
359.9846511
0
ARC
8
DEFAULT_255_2_778
10
20.2149606
20
92.5548748
40
0.1983171
50
0.0267408
51
45.1696006
0
ARC
8
DEFAULT_255_2_778
10
20.2134732
20
92.5547985
40
0.1994223
50
44.8819872
51
89.9991302
0
ARC
8
DEFAULT_255_2_778
10
3.8614183
20
92.5577744
40
0.196155
50
89.4572832
51
89.9998318
0
ARC
8
DEFAULT_255_2_778
10
3.8615364
20
92.5558397
40
0.1980897
50
90.0340128
51
135.0366651
0
ARC
8
DEFAULT_255_2_778
10
3.8617553
20
92.5554999
40
0.1984847
50
135.011908
51
180.0230189
0
ARC
8
DEFAULT_255_2_778
10
3.8641612
20
92.5554205
40
0.2008906
50
180.0001082
51
180.4277961
0
LINE
8
DEFAULT_255_2_778
10
3.8635763
20
76.0040206
11
20.2134763
21
76.0040206
0
LINE
8
DEFAULT_255_2_778
10
20.4134763
20
76.2040206
11
20.4132763
21
92.5542206
0
LINE
8
DEFAULT_255_2_778
10
20.2134763
20
92.7542206
11
3.8632763
21
92.7539206
0
LINE
8
DEFAULT_255_2_778
10
3.6632763
20
92.5539206
11
3.6632763
21
76.2037206
0
ARC
8
DEFAULT_255_2_778
10
6.9938559
20
95.441342
40
0.6882221
50
70.6313466
51
91.0764067
0
ARC
8
DEFAULT_255_2_778
10
7.0677445
20
95.6672619
40
0.4506138
50
48.2112649
51
69.9678105
0
ARC
8
DEFAULT_255_2_778
10
7.0802941
20
95.6864279
40
0.4279741
50
357.7120779
51
47.7540932
0
ARC
8
DEFAULT_255_2_778
10
7.0271754
20
95.6556997
40
0.4809452
50
332.6635747
51
1.6255259
0
ARC
8
DEFAULT_255_2_778
10
7.1296469
20
95.6130133
40
0.3704279
50
310.6438742
51
331.2501854
0
ARC
8
DEFAULT_255_2_778
10
7.062048
20
95.7075271
40
0.4862817
50
278.6477666
51
309.433738
0
ARC
8
DEFAULT_255_2_778
10
6.9845749
20
96.0891254
40
0.8754016
50
269.623801
51
279.9055348
0
ARC
8
DEFAULT_255_2_778
10
6.9936662
20
95.8067178
40
0.4304636
50
268.3041425
51
292.79055
0
ARC
8
DEFAULT_255_2_778
10
7.0540511
20
95.6457823
40
0.2587879
50
294.2674687
51
311.2927777
0
ARC
8
DEFAULT_255_2_778
10
7.0414689
20
95.6467825
40
0.2679869
50
313.1731939
51
1.6766211
0
ARC
8
DEFAULT_255_2_778
10
6.8518172
20
95.667678
40
0.45771
50
358.3656163
51
0.0081
0
ARC
8
DEFAULT_255_2_778
10
7.0275836
20
95.6806661
40
0.2822395
50
357.3755744
51
45.665074
0
ARC
8
DEFAULT_255_2_778
10
7.0085534
20
95.641966
40
0.3234987
50
48.0450853
51
89.2456293
0
ARC
8
DEFAULT_255_2_778
10
6.9817092
20
95.4356372
40
0.5307117
50
86.640144
51
88.8536123
0
LINE
8
DEFAULT_255_2_778
10
6.9788271
20
95.2139427
11
6.6242271
21
95.2139427
0
LINE
8
DEFAULT_255_2_778
10
6.6242271
20
95.2139427
11
6.6242271
21
94.6247427
0
LINE
8
DEFAULT_255_2_778
10
6.6242271
20
94.6247427
11
6.4258271
21
94.6247427
0
LINE
8
DEFAULT_255_2_778
10
6.4258271
20
94.6247427
11
6.4258271
21
96.1294427
0
LINE
8
DEFAULT_255_2_778
10
6.4258271
20
96.1294427
11
6.9809271
21
96.1294427
0
LINE
8
DEFAULT_255_2_778
10
6.9788271
20
95.2137427
11
6.9788271
21
95.2139427
0
LINE
8
DEFAULT_255_2_778
10
6.6242271
20
95.9664427
11
6.6242271
21
95.3764427
0
LINE
8
DEFAULT_255_2_778
10
6.6242271
20
95.3764427
11
6.9809271
21
95.3764427
0
LINE
8
DEFAULT_255_2_778
10
6.9923271
20
95.9662427
11
6.6242271
21
95.9662427
0
LINE
8
DEFAULT_255_2_778
10
6.6242271
20
95.9662427
11
6.6242271
21
95.9664427
0
ARC
8
DEFAULT_255_2_778
10
6.8693858
20
96.5609929
40
1.8292162
50
318.1706035
51
323.5099663
0
ARC
8
DEFAULT_255_2_778
10
7.7697684
20
95.8963747
40
0.7101082
50
323.4199637
51
331.2261412
0
ARC
8
DEFAULT_255_2_778
10
8.0788729
20
95.7261393
40
0.3572266
50
331.2946586
51
359.7790074
0
ARC
8
DEFAULT_255_2_778
10
8.1668064
20
95.7349398
40
0.2694828
50
357.8354195
51
42.7489932
0
ARC
8
DEFAULT_255_2_778
10
8.185543
20
95.7435464
40
0.2499637
50
44.2157001
51
92.555724
0
ARC
8
DEFAULT_255_2_778
10
8.1603713
20
95.6810864
40
0.3124899
50
87.4275177
51
125.1733766
0
ARC
8
DEFAULT_255_2_778
10
8.1293453
20
95.7401331
40
0.2465036
50
127.1850162
51
135.7757917
0
ARC
8
DEFAULT_255_2_778
10
8.1738715
20
95.7096785
40
0.2997951
50
137.5403279
51
180.2665324
0
ARC
8
DEFAULT_255_2_778
10
8.3766516
20
95.6862531
40
0.5030545
50
177.4899888
51
180.0218302
0
ARC
8
DEFAULT_255_2_778
10
8.1260906
20
95.7038847
40
0.4441515
50
134.2444288
51
182.2998303
0
ARC
8
DEFAULT_255_2_778
10
8.1390011
20
95.6734032
40
0.4751475
50
92.3239131
51
132.7949647
0
ARC
8
DEFAULT_255_2_778
10
8.1737308
20
95.4209491
40
0.7292127
50
89.9476648
51
94.2464994
0
ARC
8
DEFAULT_255_2_778
10
8.1876871
20
95.5962745
40
0.5540463
50
66.7301469
51
91.3745215
0
ARC
8
DEFAULT_255_2_778
10
8.2456364
20
95.7505812
40
0.3894747
50
48.0097004
51
65.5935925
0
ARC
8
DEFAULT_255_2_778
10
8.2533944
20
95.762905
40
0.375133
50
357.5947027
51
47.6311366
0
ARC
8
DEFAULT_255_2_778
10
8.1437531
20
95.760158
40
0.4846181
50
333.65666
51
358.4632472
0
ARC
8
DEFAULT_255_2_778
10
7.6392509
20
95.9942614
40
1.0407068
50
322.2954777
51
334.4318791
0
ARC
8
DEFAULT_255_2_778
10
6.9852401
20
96.4813399
40
1.8560935
50
317.1085583
51
322.7468394
0
LINE
8
DEFAULT_255_2_778
10
8.6974969
20
94.7809614
11
8.6974969
21
94.6248614
0
LINE
8
DEFAULT_255_2_778
10
8.6974969
20
94.6248614
11
7.7113969
21
94.6248614
0
LINE
8
DEFAULT_255_2_778
10
7.7113969
20
94.6248614
11
7.7113969
21
94.7624614
0
LINE
8
DEFAULT_255_2_778
10
7.7113969
20
94.7624614
11
8.2323969
21
95.3410614
0
LINE
8
DEFAULT_255_2_778
10
7.8735969
20
95.6860614
11
7.6822969
21
95.6860614
0
LINE
8
DEFAULT_255_2_778
10
8.3450969
20
95.2180614
11
7.9420969
21
94.7809614
0
LINE
8
DEFAULT_255_2_778
10
7.9420969
20
94.7809614
11
8.6974969
21
94.7809614
0
LINE
8
DEFAULT_255_2_778
10
8.6974969
20
94.7809614
11
8.6974969
21
94.7809614
0
ARC
8
DEFAULT_255_2_778
10
11.3846729
20
95.4058739
40
0.5627359
50
89.6787299
51
116.7499198
0
ARC
8
DEFAULT_255_2_778
10
11.3352192
20
95.523753
40
0.4353042
50
117.9209065
51
134.1104813
0
ARC
8
DEFAULT_255_2_778
10
11.3915217
20
95.4788668
40
0.5068048
50
135.1486299
51
170.1140317
0
ARC
8
DEFAULT_255_2_778
10
11.6787739
20
95.4063429
40
0.8025483
50
168.5339739
51
175.042182
0
ARC
8
DEFAULT_255_2_778
10
11.183705
20
95.2054037
40
0.4071446
50
87.6053597
51
138.4031387
0
ARC
8
DEFAULT_255_2_778
10
11.2038875
20
94.9991222
40
0.6130787
50
89.9961946
51
90.2963641
0
ARC
8
DEFAULT_255_2_778
10
11.2191277
20
95.2215353
40
0.3909613
50
40.2032135
51
92.2280612
0
ARC
8
DEFAULT_255_2_778
10
11.1211825
20
95.149534
40
0.5123109
50
2.2542747
51
39.2825287
0
ARC
8
DEFAULT_255_2_778
10
10.8675478
20
95.1166999
40
0.7673806
50
359.9552818
51
3.9592608
0
ARC
8
DEFAULT_255_2_778
10
11.0256335
20
95.1028055
40
0.6094398
50
336.7061244
51
1.2500643
0
ARC
8
DEFAULT_255_2_778
10
11.1738481
20
95.0477607
40
0.4516108
50
317.7480241
51
335.6843724
0
ARC
8
DEFAULT_255_2_778
10
11.1880784
20
95.0404608
40
0.4361892
50
267.4574165
51
317.200928
0
ARC
8
DEFAULT_255_2_778
10
11.1576491
20
95.0340889
40
0.4295308
50
217.838064
51
271.4780215
0
ARC
8
DEFAULT_255_2_778
10
11.3029952
20
95.1510997
40
0.6161042
50
184.4559014
51
218.1402207
0
ARC
8
DEFAULT_255_2_778
10
11.6036477
20
95.1963489
40
0.9196208
50
179.9032974
51
185.8113973
0
ARC
8
DEFAULT_255_2_778
10
12.1688693
20
95.283781
40
1.4848943
50
169.257911
51
180.4854144
0
ARC
8
DEFAULT_255_2_778
10
11.5463443
20
95.4072884
40
0.8502746
50
149.895162
51
169.6158388
0
ARC
8
DEFAULT_255_2_778
10
11.3571527
20
95.5068749
40
0.6367121
50
141.1584422
51
149.1084504
0
ARC
8
DEFAULT_255_2_778
10
11.3208626
20
95.5279082
40
0.5952892
50
98.3778866
51
140.5445985
0
ARC
8
DEFAULT_255_2_778
10
11.3991997
20
95.1720704
40
0.9590867
50
90.6196053
51
99.9107066
0
ARC
8
DEFAULT_255_2_778
10
11.1713276
20
95.1474081
40
0.3052935
50
89.887271
51
126.2212321
0
ARC
8
DEFAULT_255_2_778
10
11.1658041
20
95.1394584
40
0.3085788
50
124.5213943
51
159.8413672
0
ARC
8
DEFAULT_255_2_778
10
11.4441185
20
95.1623355
40
0.5681405
50
178.6822509
51
201.5362532
0
ARC
8
DEFAULT_255_2_778
10
11.2682377
20
95.1010987
40
0.3821351
50
202.6762157
51
216.1640533
0
ARC
8
DEFAULT_255_2_778
10
11.1696356
20
95.0125049
40
0.2506068
50
213.1128356
51
269.723966
0
ARC
8
DEFAULT_255_2_778
10
11.1784548
20
95.0054281
40
0.2437334
50
267.6423224
51
322.4254194
0
ARC
8
DEFAULT_255_2_778
10
11.0662281
20
95.0804243
40
0.378519
50
323.7872706
51
359.3735076
0
ARC
8
DEFAULT_255_2_778
10
10.8373856
20
95.1055338
40
0.6080427
50
357.2428783
51
0.0251798
0
ARC
8
DEFAULT_255_2_778
10
11.0190915
20
95.119129
40
0.426545
50
358.2094258
51
27.3576777
0
ARC
8
DEFAULT_255_2_778
10
11.1250897
20
95.1642544
40
0.3117844
50
28.9442504
51
38.0450293
0
ARC
8
DEFAULT_255_2_778
10
11.1787913
20
95.2117422
40
0.2402656
50
37.0189172
51
91.7084316
0
ARC
8
DEFAULT_255_2_778
10
13.7295803
20
95.44474
40
0.6848931
50
60.8176109
51
91.1254253
0
ARC
8
DEFAULT_255_2_778
10
13.77064
20
95.5329105
40
0.587937
50
26.5385939
51
60.1214904
0
ARC
8
DEFAULT_255_2_778
10
13.5850764
20
95.4421013
40
0.7945238
50
359.8879916
51
26.4182339
0
ARC
8
DEFAULT_255_2_778
10
13.3327977
20
95.4236115
40
1.0469379
50
0.2183326
51
0.926927
0
ARC
8
DEFAULT_255_2_778
10
13.5424543
20
95.3177321
40
0.8373871
50
338.4187151
51
0.9421376
0
ARC
8
DEFAULT_255_2_778
10
13.6962519
20
95.267262
40
0.6758759
50
332.8076663
51
337.6016544
0
ARC
8
DEFAULT_255_2_778
10
13.7785077
20
95.2185254
40
0.580468
50
299.3169351
51
333.3763168
0
ARC
8
DEFAULT_255_2_778
10
13.7175675
20
95.3478909
40
0.7231758
50
270.2123586
51
298.5082078
0
ARC
8
DEFAULT_255_2_778
10
13.6971576
20
95.5906807
40
0.9662366
50
270.6208964
51
271.3693317
0
ARC
8
DEFAULT_255_2_778
10
13.7123544
20
95.3018754
40
0.5150573
50
268.4729001
51
296.9382406
0
ARC
8
DEFAULT_255_2_778
10
13.7548173
20
95.1978715
40
0.4032078
50
298.2544041
51
318.2915706
0
ARC
8
DEFAULT_255_2_778
10
13.6755767
20
95.2550077
40
0.5004804
50
319.4441823
51
351.5030831
0
ARC
8
DEFAULT_255_2_778
10
13.3050748
20
95.330344
40
0.8782696
50
350.2135292
51
0.349476
0
ARC
8
DEFAULT_255_2_778
10
13.406178
20
95.4363821
40
0.7772553
50
359.0577917
51
16.7724393
0
ARC
8
DEFAULT_255_2_778
10
13.7044171
20
95.5235486
40
0.4665572
50
17.092341
51
39.7687584
0
ARC
8
DEFAULT_255_2_778
10
13.7492217
20
95.5489319
40
0.4159823
50
41.0292327
51
88.6940272
0
ARC
8
DEFAULT_255_2_778
10
13.715554
20
95.3105627
40
0.6556648
50
86.2267036
51
89.4866688
0
LINE
8
DEFAULT_255_2_778
10
9.3174282
20
95.342101
11
9.3174282
21
95.186001
0
LINE
8
DEFAULT_255_2_778
10
9.3174282
20
95.186001
11
8.8131282
21
95.186001
0
LINE
8
DEFAULT_255_2_778
10
8.8131282
20
95.186001
11
8.8131282
21
95.342101
0
LINE
8
DEFAULT_255_2_778
10
8.8131282
20
95.342101
11
9.3174282
21
95.342101
0
LINE
8
DEFAULT_255_2_778
10
9.3174282
20
95.342101
11
9.3174282
21
95.342101
0
LINE
8
DEFAULT_255_2_778
10
10.1125282
20
96.136901
11
10.1125282
21
94.624801
0
LINE
8
DEFAULT_255_2_778
10
10.1125282
20
94.624801
11
9.9201282
21
94.624801
0
LINE
8
DEFAULT_255_2_778
10
9.9201282
20
94.624801
11
9.9201282
21
95.899001
0
LINE
8
DEFAULT_255_2_778
10
9.9201282
20
95.899001
11
9.5346282
21
95.757501
0
LINE
8
DEFAULT_255_2_778
10
9.5346282
20
95.757501
11
9.5346282
21
95.931101
0
LINE
8
DEFAULT_255_2_778
10
9.5346282
20
95.931101
11
10.0823282
21
96.136601
0
LINE
8
DEFAULT_255_2_778
10
10.0823282
20
96.136601
11
10.1122282
21
96.136601
0
LINE
8
DEFAULT_255_2_778
10
10.1122282
20
96.136601
11
10.1125282
21
96.136901
0
LINE
8
DEFAULT_255_2_778
10
11.3888282
20
96.130801
11
11.4229282
21
96.130801
0
LINE
8
DEFAULT_255_2_778
10
11.4229282
20
96.130801
11
11.4229282
21
95.968601
0
LINE
8
DEFAULT_255_2_778
10
11.4229282
20
95.968601
11
11.3878282
21
95.968601
0
LINE
8
DEFAULT_255_2_778
10
10.6840282
20
95.197901
11
10.6840282
21
95.271201
0
LINE
8
DEFAULT_255_2_778
10
11.3888282
20
96.131101
11
11.3888282
21
96.130801
0
LINE
8
DEFAULT_255_2_778
10
10.8761282
20
95.245801
11
10.8761282
21
95.175401
0
LINE
8
DEFAULT_255_2_778
10
11.1716282
20
95.451901
11
11.1719282
21
95.452701
0
LINE
8
DEFAULT_255_2_778
10
12.8853282
20
94.624801
11
12.7416282
21
95.017401
0
LINE
8
DEFAULT_255_2_778
10
12.7416282
20
95.017401
11
12.1111282
21
95.017401
0
LINE
8
DEFAULT_255_2_778
10
12.1111282
20
95.017401
11
11.9696282
21
94.624801
0
LINE
8
DEFAULT_255_2_778
10
11.9696282
20
94.624801
11
11.7651282
21
94.624801
0
LINE
8
DEFAULT_255_2_778
10
11.7651282
20
94.624801
11
12.3397282
21
96.129501
0
LINE
8
DEFAULT_255_2_778
10
12.3397282
20
96.129501
11
12.5133282
21
96.129501
0
LINE
8
DEFAULT_255_2_778
10
12.5133282
20
96.129501
11
13.0890282
21
94.624501
0
LINE
8
DEFAULT_255_2_778
10
13.0890282
20
94.624501
11
12.8853282
21
94.624501
0
LINE
8
DEFAULT_255_2_778
10
12.8853282
20
94.624501
11
12.8853282
21
94.624801
0
LINE
8
DEFAULT_255_2_778
10
12.4265282
20
95.884801
11
12.1712282
21
95.181001
0
LINE
8
DEFAULT_255_2_778
10
12.1712282
20
95.181001
11
12.6829282
21
95.181001
0
LINE
8
DEFAULT_255_2_778
10
12.6829282
20
95.181001
11
12.4265282
21
95.884801
0
LINE
8
DEFAULT_255_2_778
10
12.4265282
20
95.884801
11
12.4265282
21
95.884801
0
LINE
8
DEFAULT_255_2_778
10
13.7079282
20
94.624801
11
13.2914282
21
94.624801
0
LINE
8
DEFAULT_255_2_778
10
13.2914282
20
94.624801
11
13.2914282
21
96.129501
0
LINE
8
DEFAULT_255_2_778
10
13.2914282
20
96.129501
11
13.7161282
21
96.129501
0
LINE
8
DEFAULT_255_2_778
10
14.3797282
20
95.427601
11
14.3797282
21
95.331501
0
LINE
8
DEFAULT_255_2_778
10
13.7076282
20
94.624501
11
13.7079282
21
94.624801
0
LINE
8
DEFAULT_255_2_778
10
13.7214282
20
95.966201
11
13.4899282
21
95.966201
0
LINE
8
DEFAULT_255_2_778
10
13.4899282
20
95.966201
11
13.4899282
21
94.787001
0
LINE
8
DEFAULT_255_2_778
10
13.4899282
20
94.787001
11
13.6986282
21
94.787001
0
LINE
8
DEFAULT_255_2_778
10
14.1833282
20
95.335701
11
14.1833282
21
95.423601
0
LINE
8
DEFAULT_255_2_778
10
13.7214282
20
95.966201
11
13.7214282
21
95.966201
0
LINE
8
DEFAULT_255_2_778
10
14.8789282
20
96.129801
11
14.8789282
21
94.787301
0
LINE
8
DEFAULT_255_2_778
10
14.8789282
20
94.787301
11
15.5920282
21
94.787301
0
LINE
8
DEFAULT_255_2_778
10
15.5920282
20
94.787301
11
15.5920282
21
94.625101
0
LINE
8
DEFAULT_255_2_778
10
15.5920282
20
94.625101
11
14.6794282
21
94.625101
0
LINE
8
DEFAULT_255_2_778
10
14.6794282
20
94.625101
11
14.6794282
21
96.129801
0
LINE
8
DEFAULT_255_2_778
10
14.6794282
20
96.129801
11
14.8789282
21
96.129801
0
LINE
8
DEFAULT_255_2_778
10
14.8789282
20
96.129801
11
14.8789282
21
96.129801
0
LINE
8
DEFAULT_255_2_778
10
16.1862282
20
95.342101
11
16.1862282
21
95.186001
0
LINE
8
DEFAULT_255_2_778
10
16.1862282
20
95.186001
11
15.6819282
21
95.186001
0
LINE
8
DEFAULT_255_2_778
10
15.6819282
20
95.186001
11
15.6819282
21
95.342101
0
LINE
8
DEFAULT_255_2_778
10
15.6819282
20
95.342101
11
16.1862282
21
95.342101
0
LINE
8
DEFAULT_255_2_778
10
16.1862282
20
95.342101
11
16.1862282
21
95.342101
0
ARC
8
DEFAULT_255_2_778
10
15.5106858
20
96.5609929
40
1.8292162
50
318.1706035
51
323.5099663
0
ARC
8
DEFAULT_255_2_778
10
16.4110684
20
95.8963747
40
0.7101082
50
323.4199637
51
331.2261412
0
ARC
8
DEFAULT_255_2_778
10
16.7201729
20
95.7261393
40
0.3572266
50
331.2946586
51
359.7790074
0
ARC
8
DEFAULT_255_2_778
10
16.8081064
20
95.7349398
40
0.2694828
50
357.8354195
51
42.7489932
0
ARC
8
DEFAULT_255_2_778
10
16.826843
20
95.7435464
40
0.2499637
50
44.2157001
51
92.555724
0
ARC
8
DEFAULT_255_2_778
10
16.8016713
20
95.6810864
40
0.3124899
50
87.4275177
51
125.1733766
0
ARC
8
DEFAULT_255_2_778
10
16.7706453
20
95.7401331
40
0.2465036
50
127.1850162
51
135.7757917
0
ARC
8
DEFAULT_255_2_778
10
16.8151715
20
95.7096785
40
0.2997951
50
137.5403279
51
180.2665324
0
ARC
8
DEFAULT_255_2_778
10
17.0179516
20
95.6862531
40
0.5030545
50
177.4899888
51
180.0218302
0
ARC
8
DEFAULT_255_2_778
10
16.7673906
20
95.7038847
40
0.4441515
50
134.2444288
51
182.2998303
0
ARC
8
DEFAULT_255_2_778
10
16.7803011
20
95.6734032
40
0.4751475
50
92.3239131
51
132.7949647
0
ARC
8
DEFAULT_255_2_778
10
16.8150308
20
95.4209491
40
0.7292127
50
89.9476648
51
94.2464994
0
ARC
8
DEFAULT_255_2_778
10
16.8289871
20
95.5962745
40
0.5540463
50
66.7301469
51
91.3745215
0
ARC
8
DEFAULT_255_2_778
10
16.8869364
20
95.7505812
40
0.3894747
50
48.0097004
51
65.5935925
0
ARC
8
DEFAULT_255_2_778
10
16.8946944
20
95.762905
40
0.375133
50
357.5947027
51
47.6311366
0
ARC
8
DEFAULT_255_2_778
10
16.7850531
20
95.760158
40
0.4846181
50
333.65666
51
358.4632472
0
ARC
8
DEFAULT_255_2_778
10
16.2805509
20
95.9942614
40
1.0407068
50
322.2954777
51
334.4318791
0
ARC
8
DEFAULT_255_2_778
10
15.6265401
20
96.4813399
40
1.8560935
50
317.1085583
51
322.7468394
0
LINE
8
DEFAULT_255_2_778
10
17.3387969
20
94.7809614
11
17.3387969
21
94.6248614
0
LINE
8
DEFAULT_255_2_778
10
17.3387969
20
94.6248614
11
16.3526969
21
94.6248614
0
LINE
8
DEFAULT_255_2_778
10
16.3526969
20
94.6248614
11
16.3526969
21
94.7624614
0
LINE
8
DEFAULT_255_2_778
10
16.3526969
20
94.7624614
11
16.8736969
21
95.3410614
0
LINE
8
DEFAULT_255_2_778
10
16.5148969
20
95.6860614
11
16.3235969
21
95.6860614
0
LINE
8
DEFAULT_255_2_778
10
16.9863969
20
95.2180614
11
16.5833969
21
94.7809614
0
LINE
8
DEFAULT_255_2_778
10
16.5833969
20
94.7809614
11
17.3387969
21
94.7809614
0
LINE
8
DEFAULT_255_2_778
10
17.3387969
20
94.7809614
11
17.3387969
21
94.7809614
0
ARC
8
DEFAULT_255_2_778
10
2.1119576
20
101.0018276
40
0.9974717
50
89.9986756
51
168.1536477
0
ARC
8
DEFAULT_255_2_778
10
2.1120643
20
101.0131647
40
0.9861345
50
89.8683404
51
90.0048649
0
ARC
8
DEFAULT_255_2_778
10
0.9388803
20
98.4996604
40
0.7067501
50
179.984762
51
180.0457149
0
ARC
8
DEFAULT_255_2_778
10
1.7270948
20
98.4997698
40
1.4949646
50
134.8411299
51
179.9969912
0
ARC
8
DEFAULT_255_2_778
10
1.7345354
20
98.502367
40
1.4983866
50
106.4120187
51
135.1129014
0
ARC
8
DEFAULT_255_2_778
10
1.7327883
20
98.5052533
40
1.4951247
50
100.5932833
51
106.3790458
0
ARC
8
DEFAULT_255_2_778
10
18.0379086
20
105.1823088
40
1.7573182
50
270.0010366
51
310.9230332
0
ARC
8
DEFAULT_255_2_778
10
18.037941
20
105.1807138
40
1.7557232
50
265.070993
51
269.999978
0
ARC
8
DEFAULT_255_2_778
10
18.0381956
20
105.1832251
40
1.7582471
50
258.545652
51
265.069761
0
ARC
8
DEFAULT_255_2_778
10
16.4397647
20
105.1832307
40
1.7582528
50
274.9342409
51
281.4543266
0
ARC
8
DEFAULT_255_2_778
10
16.4400201
20
105.1807473
40
1.7557566
50
270.000043
51
274.9329085
0
ARC
8
DEFAULT_255_2_778
10
16.4400026
20
105.1819077
40
1.7569171
50
229.0720844
51
270.0006142
0
ARC
8
DEFAULT_255_2_778
10
7.6377582
20
105.1819077
40
1.7569171
50
269.9993858
51
310.9279156
0
ARC
8
DEFAULT_255_2_778
10
7.6377407
20
105.1807473
40
1.7557567
50
265.0670915
51
269.999957
0
ARC
8
DEFAULT_255_2_778
10
7.637996
20
105.1832307
40
1.7582528
50
258.5456734
51
265.0657591
0
ARC
8
DEFAULT_255_2_778
10
6.0395647
20
105.1832307
40
1.7582528
50
274.9342409
51
281.4543266
0
ARC
8
DEFAULT_255_2_778
10
6.0398201
20
105.1807473
40
1.7557566
50
270.000043
51
274.9329085
0
ARC
8
DEFAULT_255_2_778
10
6.0398026
20
105.1819077
40
1.7569171
50
229.0720844
51
270.0006142
0
ARC
8
DEFAULT_255_2_778
10
3.7082547
20
101.1934619
40
1.3249035
50
137.1386752
51
174.9322051
0
ARC
8
DEFAULT_255_2_778
10
3.7102388
20
101.19442
40
1.3257077
50
94.9809242
51
137.2273619
0
ARC
8
DEFAULT_255_2_778
10
3.7121619
20
101.1762667
40
1.3439595
50
93.2260333
51
94.9954048
0
ARC
8
DEFAULT_255_2_778
10
12.0386028
20
42.0426026
40
61.0563688
50
89.9999741
51
97.9096707
0
ARC
8
DEFAULT_255_2_778
10
12.038658
20
42.0426026
40
61.0563688
50
82.0903293
51
90.0000259
0
ARC
8
DEFAULT_255_2_778
10
20.3673397
20
101.1956274
40
1.324504
50
49.0193715
51
86.8236175
0
ARC
8
DEFAULT_255_2_778
10
20.3678621
20
101.193124
40
1.3260529
50
6.8711847
51
49.1073447
0
ARC
8
DEFAULT_255_2_778
10
20.349434
20
101.1905374
40
1.3446581
50
5.1182508
51
6.8866671
0
ARC
8
DEFAULT_255_2_778
10
3.7099037
20
100.9645329
40
1.3245973
50
93.1754084
51
130.9761322
0
ARC
8
DEFAULT_255_2_778
10
3.7092094
20
100.9622584
40
1.3258608
50
130.8890254
51
173.1293171
0
ARC
8
DEFAULT_255_2_778
10
3.7277286
20
100.959647
40
1.3445594
50
173.1132405
51
174.881781
0
ARC
8
DEFAULT_255_2_778
10
20.3690813
20
100.9625789
40
1.3246278
50
5.0681145
51
42.8687837
0
ARC
8
DEFAULT_255_2_778
10
20.3667257
20
100.9631794
40
1.3259473
50
42.780514
51
85.0201355
0
ARC
8
DEFAULT_255_2_778
10
20.3647407
20
100.9443599
40
1.3448681
50
85.0054869
51
86.773668
0
ARC
8
DEFAULT_255_2_778
10
12.038386
20
41.8120083
40
61.0559632
50
82.0903029
51
90.000017
0
LINE
8
DEFAULT_255_2_778
10
12.0383679
20
102.8679715
11
12.0331209
21
102.8679712
0
ARC
8
DEFAULT_255_2_778
10
12.0383877
20
41.8103783
40
61.0575931
50
90.0049423
51
97.9095915
0
ARC
8
DEFAULT_255_2_778
10
20.7714967
20
102.1874716
40
1.1702508
50
49.0466892
51
90.0061835
0
ARC
8
DEFAULT_255_2_778
10
20.7713714
20
102.1873203
40
1.1704021
50
90.0000474
51
94.93969
0
ARC
8
DEFAULT_255_2_778
10
20.7715512
20
102.1855067
40
1.1722245
50
94.9408148
51
101.4759046
0
ARC
8
DEFAULT_255_2_778
10
3.3054609
20
102.1860859
40
1.1716465
50
78.5209237
51
85.0386007
0
ARC
8
DEFAULT_255_2_778
10
3.3056641
20
102.1881249
40
1.1695976
50
85.0398787
51
89.9999774
0
ARC
8
DEFAULT_255_2_778
10
3.3057203
20
102.1870532
40
1.1706692
50
90.0027258
51
130.945663
0
ARC
8
DEFAULT_255_2_778
10
1.9075702
20
101.0015588
40
0.9974415
50
89.9952461
51
168.1375068
0
ARC
8
DEFAULT_255_2_778
10
1.9075756
20
100.9274603
40
1.0715399
50
89.8473525
51
89.9958605
0
ARC
8
DEFAULT_255_2_778
10
21.9654847
20
100.927755
40
1.0712453
50
90.004149
51
90.1526665
0
ARC
8
DEFAULT_255_2_778
10
21.9653573
20
101.0013947
40
0.9976056
50
11.8701448
51
89.9971363
0
ARC
8
DEFAULT_255_2_778
10
22.1691847
20
100.9277546
40
1.0712457
50
90.004149
51
90.1526665
0
ARC
8
DEFAULT_255_2_778
10
22.1691241
20
101.001477
40
0.9975233
50
11.8663086
51
90.0009716
0
ARC
8
DEFAULT_255_2_778
10
1.8271427
20
1.5133398
40
1.5937132
50
179.9404396
51
208.3547826
0
ARC
8
DEFAULT_255_2_778
10
1.8347116
20
1.5167621
40
1.6019996
50
208.3339323
51
261.233694
0
ARC
8
DEFAULT_255_2_778
10
1.833868
20
1.529176
40
1.6141424
50
261.3304449
51
269.4946125
0
ARC
8
DEFAULT_255_2_778
10
2.9126018
20
100.372708
40
0.7473382
50
134.5274319
51
178.7894632
0
ARC
8
DEFAULT_255_2_778
10
8.0324467
20
102.4688282
40
1.4923184
50
132.7881513
51
138.3805418
0
ARC
8
DEFAULT_255_2_778
10
16.0279969
20
102.4528406
40
1.5151357
50
41.661599
51
47.169705
0
ARC
8
DEFAULT_255_2_778
10
8.0391729
20
102.4615891
40
1.5025076
50
90.0283156
51
111.0323534
0
ARC
8
DEFAULT_255_2_778
10
16.0376618
20
102.4625257
40
1.5015709
50
68.9610156
51
89.9744888
0
ARC
8
DEFAULT_255_2_778
10
8.0380556
20
102.4642606
40
1.4996848
50
111.0362715
51
132.835282
0
ARC
8
DEFAULT_255_2_778
10
16.0384052
20
102.4642606
40
1.4996848
50
47.164718
51
68.9637285
0
ARC
8
DEFAULT_255_2_778
10
22.5110998
20
101.6845737
40
0.6275876
50
149.9020181
51
179.9917259
0
ARC
8
DEFAULT_255_2_778
10
22.5100173
20
101.6846627
40
0.6265053
50
179.9998528
51
184.1222391
0
ARC
8
DEFAULT_255_2_778
10
22.5104703
20
101.6846945
40
0.6269594
50
184.1221623
51
187.4689751
0
ARC
8
DEFAULT_255_2_778
10
1.5638804
20
101.6839226
40
0.630043
50
352.6385712
51
356.8343016
0
ARC
8
DEFAULT_255_2_778
10
1.5634595
20
101.683948
40
0.6304647
50
356.8341107
51
0.0004706
0
ARC
8
DEFAULT_255_2_778
10
1.5646578
20
101.6841643
40
0.6292665
50
359.980775
51
30.0524626
0
ARC
8
DEFAULT_255_2_778
10
21.1646589
20
100.372908
40
0.7473382
50
1.2105368
51
45.4725681
0
ARC
8
DEFAULT_255_2_778
10
22.6551396
20
100.5197171
40
0.7439544
50
67.3505567
51
89.9737549
0
LINE
8
DEFAULT_255_2_778
10
22.6554804
20
101.2636715
11
22.6551003
21
101.2636716
0
ARC
8
DEFAULT_255_2_778
10
22.6550357
20
100.5200463
40
0.7436252
50
89.9950198
51
112.594457
0
ARC
8
DEFAULT_255_2_778
10
21.9110327
20
101.1403654
40
0.4630586
50
8.2231939
51
89.9720502
0
ARC
8
DEFAULT_255_2_778
10
21.9112731
20
101.134124
40
0.4692999
50
90.0017695
51
92.7165863
0
ARC
8
DEFAULT_255_2_778
10
1.4221078
20
100.5202818
40
0.7433897
50
89.9949865
51
112.6581405
0
LINE
8
DEFAULT_255_2_778
10
1.4221729
20
101.2636716
11
1.422426
21
101.2636715
0
ARC
8
DEFAULT_255_2_778
10
1.4222296
20
100.5200673
40
0.7436043
50
67.4052468
51
89.9848693
0
ARC
8
DEFAULT_255_2_778
10
2.166228
20
101.1403654
40
0.4630586
50
90.0279498
51
171.7768061
0
ARC
8
DEFAULT_255_2_778
10
2.1659876
20
101.134124
40
0.4692999
50
87.2834137
51
89.9982305
0
ARC
8
DEFAULT_255_2_778
10
22.3448981
20
98.5073273
40
1.4927561
50
47.6326653
51
79.4180499
0
ARC
8
DEFAULT_255_2_778
10
22.3149515
20
98.4709989
40
1.5397791
50
44.9847063
51
47.7203078
0
ARC
8
DEFAULT_255_2_778
10
22.3504565
20
98.4997153
40
1.4943741
50
359.9936149
51
45.1682869
0
ARC
8
DEFAULT_255_2_778
10
23.1372551
20
98.4993607
40
0.7075755
50
359.9543094
51
0.0152299
0
ARC
8
DEFAULT_255_2_778
10
22.2450038
20
1.5089163
40
1.5938675
50
270.4431175
51
298.8531936
0
ARC
8
DEFAULT_255_2_778
10
22.2416715
20
1.5162778
40
1.6019233
50
298.8305232
51
351.8511541
0
ARC
8
DEFAULT_255_2_778
10
22.2293494
20
1.515273
40
1.6139809
50
351.9484663
51
359.9901834
0
ARC
8
DEFAULT_255_2_778
10
-23.1271508
20
0.7153146
40
45.3915312
50
359.999977
51
1.009835
0
ARC
8
DEFAULT_255_2_778
10
-23.1297373
20
0.7153011
40
45.3941176
50
358.9901938
51
359.9999942
0
LINE
8
DEFAULT_255_2_778
10
9.6367304
20
43.5678965
11
10.0333304
21
43.1677965
0
LINE
8
DEFAULT_255_2_778
10
10.0333304
20
43.1677965
11
10.0333304
21
43.1677965
0
LINE
8
DEFAULT_255_2_778
10
10.0333304
20
43.1677965
11
8.0333304
21
43.1677965
0
LINE
8
DEFAULT_255_2_778
10
9.5536304
20
37.4681965
11
9.5536304
21
38.8680965
0
LINE
8
DEFAULT_255_2_778
10
9.5536304
20
38.8680965
11
10.8535304
21
38.8680965
0
LINE
8
DEFAULT_255_2_778
10
11.2885304
20
104.1963965
11
11.2885304
21
104.3513965
0
LINE
8
DEFAULT_255_2_778
10
11.2885304
20
104.3513965
11
8.7885304
21
104.3513965
0
LINE
8
DEFAULT_255_2_778
10
8.7885304
20
104.3513965
11
8.7885304
21
104.1963965
0
LINE
8
DEFAULT_255_2_778
10
15.2885304
20
104.1963965
11
15.2885304
21
104.3513965
0
LINE
8
DEFAULT_255_2_778
10
15.2885304
20
104.3513965
11
12.7884304
21
104.3513965
0
LINE
8
DEFAULT_255_2_778
10
12.7884304
20
104.3513965
11
12.7884304
21
104.1963965
0
LINE
8
DEFAULT_255_2_778
10
0.5541304
20
99.4258965
11
0.9319304
21
101.2065965
0
LINE
8
DEFAULT_255_2_778
10
0.9319304
20
101.2065965
11
1.1357304
21
101.2065965
0
LINE
8
DEFAULT_255_2_778
10
12.7813304
20
103.5639965
11
12.0674304
21
103.5639965
0
LINE
8
DEFAULT_255_2_778
10
12.0098304
20
103.5639965
11
11.2959304
21
103.5639965
0
LINE
8
DEFAULT_255_2_778
10
12.7887304
20
103.9637965
11
11.2888304
21
103.9637965
0
LINE
8
DEFAULT_255_2_778
10
12.7887304
20
103.8637965
11
11.2888304
21
103.8637965
0
LINE
8
DEFAULT_255_2_778
10
11.9135304
20
103.3967965
11
12.0389304
21
103.6136965
0
LINE
8
DEFAULT_255_2_778
10
12.0389304
20
103.6136965
11
12.1643304
21
103.3967965
0
LINE
8
DEFAULT_255_2_778
10
21.6890304
20
101.9986965
11
21.6890304
21
104.1963965
0
LINE
8
DEFAULT_255_2_778
10
21.6890304
20
104.1963965
11
19.1890304
21
104.1963965
0
LINE
8
DEFAULT_255_2_778
10
19.1890304
20
104.1963965
11
19.1890304
21
103.8544965
0
LINE
8
DEFAULT_255_2_778
10
17.6890304
20
103.4599965
11
16.7889304
21
103.4599965
0
LINE
8
DEFAULT_255_2_778
10
15.2890304
20
103.8544965
11
15.2890304
21
104.1963965
0
LINE
8
DEFAULT_255_2_778
10
15.2890304
20
104.1963965
11
12.7890304
21
104.1963965
0
LINE
8
DEFAULT_255_2_778
10
12.7890304
20
104.1963965
11
12.7890304
21
103.5912965
0
LINE
8
DEFAULT_255_2_778
10
12.7890304
20
103.5912965
11
12.7318304
21
103.5157965
0
LINE
8
DEFAULT_255_2_778
10
12.7318304
20
103.5157965
11
12.5694304
21
103.4517965
0
LINE
8
DEFAULT_255_2_778
10
12.5694304
20
103.4517965
11
12.3259304
21
103.4089965
0
LINE
8
DEFAULT_255_2_778
10
12.3259304
20
103.4089965
11
12.0389304
21
103.3938965
0
LINE
8
DEFAULT_255_2_778
10
12.0389304
20
103.3938965
11
11.7518304
21
103.4089965
0
LINE
8
DEFAULT_255_2_778
10
11.7518304
20
103.4089965
11
11.5084304
21
103.4517965
0
LINE
8
DEFAULT_255_2_778
10
11.5084304
20
103.4517965
11
11.3459304
21
103.5157965
0
LINE
8
DEFAULT_255_2_778
10
11.3459304
20
103.5157965
11
11.2888304
21
103.5912965
0
LINE
8
DEFAULT_255_2_778
10
11.2888304
20
103.5912965
11
11.2888304
21
104.1963965
0
LINE
8
DEFAULT_255_2_778
10
11.2888304
20
104.1963965
11
8.7887304
21
104.1963965
0
LINE
8
DEFAULT_255_2_778
10
8.7887304
20
104.1963965
11
8.7887304
21
103.8544965
0
LINE
8
DEFAULT_255_2_778
10
7.2888304
20
103.4599965
11
6.3887304
21
103.4599965
0
LINE
8
DEFAULT_255_2_778
10
4.8888304
20
103.8544965
11
4.8888304
21
104.1963965
0
LINE
8
DEFAULT_255_2_778
10
4.8888304
20
104.1963965
11
2.3885304
21
104.1963965
0
LINE
8
DEFAULT_255_2_778
10
2.3885304
20
104.1963965
11
2.3885304
21
101.9989965
0
LINE
8
DEFAULT_255_2_778
10
21.6885304
20
100.2648965
11
2.3885304
21
100.2648965
0
LINE
8
DEFAULT_255_2_778
10
2.3885304
20
101.0795965
11
2.3885304
21
101.3104965
0
LINE
8
DEFAULT_255_2_778
10
21.6887304
20
101.3104965
11
21.6887304
21
101.0795965
0
LINE
8
DEFAULT_255_2_778
10
2.3885304
20
101.0795965
11
2.3885304
21
100.6455965
0
LINE
8
DEFAULT_255_2_778
10
2.3885304
20
100.6455965
11
21.6885304
21
100.6455965
0
LINE
8
DEFAULT_255_2_778
10
21.6885304
20
100.6455965
11
21.6885304
21
101.0795965
0
LINE
8
DEFAULT_255_2_778
10
3.6362304
20
102.2870965
11
3.6365304
21
102.2870965
0
LINE
8
DEFAULT_255_2_778
10
21.5385304
20
101.9989965
11
21.5385304
21
103.0712965
0
LINE
8
DEFAULT_255_2_778
10
20.5383304
20
103.3342965
11
3.5386304
21
103.3342965
0
LINE
8
DEFAULT_255_2_778
10
2.5385304
20
103.0712965
11
2.5385304
21
101.9989965
0
LINE
8
DEFAULT_255_2_778
10
1.9104304
20
101.9989965
11
2.1088304
21
101.9989965
0
LINE
8
DEFAULT_255_2_778
10
21.4202304
20
101.9989965
11
22.1663304
21
101.9989965
0
LINE
8
DEFAULT_255_2_778
10
23.5932304
20
72.9990965
11
23.5932304
21
73.4990965
0
LINE
8
DEFAULT_255_2_778
10
23.5932304
20
73.2490965
11
18.2055304
21
73.2490965
0
LINE
8
DEFAULT_255_2_778
10
1.8196304
20
-0.0849035
11
18.3367304
21
-0.2291035
0
LINE
8
DEFAULT_255_2_778
10
18.3367304
20
-0.2291035
11
18.3367304
21
-0.2291035
0
LINE
8
DEFAULT_255_2_778
10
18.3367304
20
-0.2291035
11
18.3357304
21
-0.1066035
0
LINE
8
DEFAULT_255_2_778
10
18.3357304
20
-0.1066035
11
18.3354304
21
0.2404965
0
LINE
8
DEFAULT_255_2_778
10
18.3354304
20
0.2404965
11
18.3357304
21
0.7590965
0
LINE
8
DEFAULT_255_2_778
10
18.3357304
20
0.7590965
11
18.3367304
21
1.3707965
0
LINE
8
DEFAULT_255_2_778
10
18.3367304
20
1.3707965
11
1.8196304
21
1.5149965
0
LINE
8
DEFAULT_255_2_778
10
1.8196304
20
1.5149965
11
1.8196304
21
-0.0849035
0
LINE
8
DEFAULT_255_2_778
10
2.1654304
20
100.3884965
11
2.1284304
21
99.9333965
0
LINE
8
DEFAULT_255_2_778
10
8.7885304
20
103.9640965
11
8.0384304
21
103.9640965
0
LINE
8
DEFAULT_255_2_778
10
16.0383304
20
103.9640965
11
15.2882304
21
103.9640965
0
LINE
8
DEFAULT_255_2_778
10
8.7882304
20
103.8639965
11
7.4997304
21
103.8639965
0
LINE
8
DEFAULT_255_2_778
10
7.0184304
20
103.5639965
11
8.3032304
21
103.5639965
0
LINE
8
DEFAULT_255_2_778
10
15.7732304
20
103.5639965
11
17.0580304
21
103.5639965
0
LINE
8
DEFAULT_255_2_778
10
16.5767304
20
103.8639965
11
15.2882304
21
103.8639965
0
LINE
8
DEFAULT_255_2_778
10
2.3885304
20
99.9288965
11
2.3885304
21
100.6455965
0
LINE
8
DEFAULT_255_2_778
10
21.6885304
20
100.6455965
11
21.6885304
21
99.9288965
0
LINE
8
DEFAULT_255_2_778
10
23.5228304
20
99.4258965
11
23.1450304
21
101.2065965
0
LINE
8
DEFAULT_255_2_778
10
23.1450304
20
101.2065965
11
22.9413304
21
101.2065965
0
LINE
8
DEFAULT_255_2_778
10
21.8888304
20
101.6031965
11
21.6287304
21
101.6031965
0
LINE
8
DEFAULT_255_2_778
10
2.4488304
20
101.6031965
11
2.1887304
21
101.6031965
0
LINE
8
DEFAULT_255_2_778
10
2.1093304
20
101.9992965
11
2.6483304
21
101.9992965
0
LINE
8
DEFAULT_255_2_778
10
21.9118304
20
100.3886965
11
21.9488304
21
99.9336965
0
LINE
8
DEFAULT_255_2_778
10
23.2511304
20
99.6933965
11
22.9416304
21
101.2062965
0
LINE
8
DEFAULT_255_2_778
10
0.8261304
20
99.6933965
11
1.1357304
21
101.2062965
0
LINE
8
DEFAULT_255_2_778
10
1.7079304
20
101.2065965
11
1.4410304
21
99.8888965
0
LINE
8
DEFAULT_255_2_778
10
1.4410304
20
99.8888965
11
1.7992304
21
99.9330965
0
LINE
8
DEFAULT_255_2_778
10
1.7992304
20
99.9330965
11
1.8035304
21
99.9288965
0
LINE
8
DEFAULT_255_2_778
10
1.8035304
20
99.9288965
11
22.6278304
21
99.9288965
0
LINE
8
DEFAULT_255_2_778
10
22.6278304
20
99.9288965
11
22.3687304
21
101.2065965
0
LINE
8
DEFAULT_255_2_778
10
21.6885304
20
104.1963965
11
21.6885304
21
104.3513965
0
LINE
8
DEFAULT_255_2_778
10
21.6885304
20
104.3513965
11
19.1884304
21
104.3513965
0
LINE
8
DEFAULT_255_2_778
10
19.1884304
20
104.3513965
11
19.1884304
21
104.1963965
0
LINE
8
DEFAULT_255_2_778
10
4.8885304
20
104.1963965
11
4.8885304
21
104.3513965
0
LINE
8
DEFAULT_255_2_778
10
4.8885304
20
104.3513965
11
2.3885304
21
104.3513965
0
LINE
8
DEFAULT_255_2_778
10
2.3885304
20
104.3513965
11
2.3885304
21
104.1963965
0
LINE
8
DEFAULT_255_2_778
10
18.2034304
20
18.4556965
11
10.0331304
21
18.4533965
0
LINE
8
DEFAULT_255_2_778
10
18.2034304
20
58.8025965
11
18.2034304
21
17.5325965
0
LINE
8
DEFAULT_255_2_778
10
9.5383304
20
35.7425965
11
9.5383304
21
37.3231965
0
LINE
8
DEFAULT_255_2_778
10
9.5383304
20
37.3231965
11
9.5473304
21
37.4175965
0
LINE
8
DEFAULT_255_2_778
10
9.5473304
20
37.4175965
11
9.5597304
21
37.4678965
0
LINE
8
DEFAULT_255_2_778
10
10.8533304
20
39.0775965
11
7.0329304
21
39.0442965
0
LINE
8
DEFAULT_255_2_778
10
0.2332304
20
66.6376965
11
0.2332304
21
66.1375965
0
LINE
8
DEFAULT_255_2_778
10
0.4832304
20
66.6376965
11
0.4832304
21
66.3876965
0
LINE
8
DEFAULT_255_2_778
10
18.7328304
20
0.1671965
11
18.3362304
21
-0.2294035
0
LINE
8
DEFAULT_255_2_778
10
18.3362304
20
-0.2294035
11
18.7328304
21
0.1671965
0
LINE
8
DEFAULT_255_2_778
10
18.7328304
20
0.1671965
11
18.7328304
21
0.2595965
0
LINE
8
DEFAULT_255_2_778
10
18.7328304
20
0.2595965
11
18.7328304
21
0.5203965
0
LINE
8
DEFAULT_255_2_778
10
18.7328304
20
0.5203965
11
18.7328304
21
0.9106965
0
LINE
8
DEFAULT_255_2_778
10
18.7328304
20
0.9106965
11
18.7328304
21
1.3707965
0
LINE
8
DEFAULT_255_2_778
10
18.7328304
20
1.3707965
11
18.3362304
21
1.3707965
0
LINE
8
DEFAULT_255_2_778
10
18.3362304
20
1.3707965
11
18.3362304
21
17.1325965
0
LINE
8
DEFAULT_255_2_778
10
18.3362304
20
17.1325965
11
18.7328304
21
17.5325965
0
LINE
8
DEFAULT_255_2_778
10
18.7328304
20
17.5325965
11
18.7328304
21
1.3707965
0
LINE
8
DEFAULT_255_2_778
10
8.0331304
20
35.7427965
11
10.0331304
21
35.7427965
0
LINE
8
DEFAULT_255_2_778
10
10.0331304
20
35.7427965
11
10.0331304
21
17.5328965
0
LINE
8
DEFAULT_255_2_778
10
0.4835304
20
66.1378965
11
0.4835304
21
66.3878965
0
LINE
8
DEFAULT_255_2_778
10
0.4835304
20
66.3878965
11
1.8217304
21
66.3878965
0
LINE
8
DEFAULT_255_2_778
10
1.8217304
20
66.1378965
11
1.8217304
21
66.3878965
0
LINE
8
DEFAULT_255_2_778
10
1.8217304
20
66.3878965
11
7.1332304
21
66.3878965
0
LINE
8
DEFAULT_255_2_778
10
7.1332304
20
66.3878965
11
7.1332304
21
73.2479965
0
LINE
8
DEFAULT_255_2_778
10
7.1332304
20
73.2479965
11
18.5847304
21
73.2479965
0
LINE
8
DEFAULT_255_2_778
10
18.5847304
20
73.2479965
11
18.5847304
21
72.9979965
0
LINE
8
DEFAULT_255_2_778
10
18.5847304
20
72.9979965
11
18.3367304
21
72.9979965
0
LINE
8
DEFAULT_255_2_778
10
6.6366304
20
35.3427965
11
7.0332304
21
35.7427965
0
LINE
8
DEFAULT_255_2_778
10
7.0332304
20
35.7427965
11
8.0333304
21
35.7427965
0
LINE
8
DEFAULT_255_2_778
10
8.0333304
20
35.7427965
11
8.0333304
21
35.7393965
0
LINE
8
DEFAULT_255_2_778
10
8.0333304
20
35.7393965
11
7.6333304
21
35.3427965
0
LINE
8
DEFAULT_255_2_778
10
7.0332304
20
35.7427965
11
7.0332304
21
40.5928965
0
LINE
8
DEFAULT_255_2_778
10
7.0332304
20
40.5928965
11
6.6366304
21
40.9929965
0
LINE
8
DEFAULT_255_2_778
10
7.6330304
20
40.9929965
11
8.0331304
21
40.5962965
0
LINE
8
DEFAULT_255_2_778
10
8.0331304
20
40.5962965
11
8.0331304
21
40.5928965
0
LINE
8
DEFAULT_255_2_778
10
8.0331304
20
40.5928965
11
7.0329304
21
40.5928965
0
LINE
8
DEFAULT_255_2_778
10
8.0331304
20
35.7393965
11
8.0331304
21
33.1644965
0
LINE
8
DEFAULT_255_2_778
10
8.0331304
20
33.1644965
11
7.6330304
21
32.7678965
0
LINE
8
DEFAULT_255_2_778
10
8.0331304
20
33.1678965
11
10.0331304
21
33.1678965
0
LINE
8
DEFAULT_255_2_778
10
10.0331304
20
33.1678965
11
10.0331304
21
33.1678965
0
LINE
8
DEFAULT_255_2_778
10
10.0331304
20
33.1678965
11
9.6364304
21
32.7678965
0
LINE
8
DEFAULT_255_2_778
10
8.0331304
20
40.5962965
11
8.0331304
21
43.1712965
0
LINE
8
DEFAULT_255_2_778
10
8.0331304
20
43.1712965
11
7.6330304
21
43.5678965
0
LINE
8
DEFAULT_255_2_778
10
9.6364304
20
17.1327965
11
10.0331304
21
17.5328965
0
LINE
8
DEFAULT_255_2_778
10
10.0331304
20
17.5328965
11
18.7331304
21
17.5328965
0
LINE
8
DEFAULT_255_2_778
10
18.7331304
20
17.5328965
11
18.7331304
21
17.5328965
0
LINE
8
DEFAULT_255_2_778
10
9.6367304
20
59.2028965
11
10.0333304
21
58.8028965
0
LINE
8
DEFAULT_255_2_778
10
10.0333304
20
58.8028965
11
10.0333304
21
43.1677965
0
LINE
8
DEFAULT_255_2_778
10
10.0333304
20
43.1677965
11
10.0333304
21
40.5928965
0
LINE
8
DEFAULT_255_2_778
10
10.0333304
20
40.5928965
11
8.0333304
21
40.5928965
0
LINE
8
DEFAULT_255_2_778
10
18.7334304
20
58.8028965
11
10.0333304
21
58.8028965
0
LINE
8
DEFAULT_255_2_778
10
18.7334304
20
73.2479965
11
18.7334304
21
58.8028965
0
LINE
8
DEFAULT_255_2_778
10
18.7334304
20
58.8028965
11
18.3367304
21
59.2028965
0
LINE
8
DEFAULT_255_2_778
10
1.8196304
20
66.1378965
11
0.2334304
21
66.1378965
0
LINE
8
DEFAULT_255_2_778
10
0.2334304
20
66.1378965
11
0.2334304
21
1.5149965
0
LINE
8
DEFAULT_255_2_778
10
0.2334304
20
1.5149965
11
1.8196304
21
1.5149965
0
LINE
8
DEFAULT_255_2_778
10
1.8196304
20
1.5149965
11
1.8196304
21
66.1378965
0
LINE
8
DEFAULT_255_2_778
10
1.8196304
20
66.1378965
11
7.3833304
21
66.1378965
0
LINE
8
DEFAULT_255_2_778
10
7.3833304
20
66.1378965
11
7.3833304
21
72.9979965
0
LINE
8
DEFAULT_255_2_778
10
7.3833304
20
72.9979965
11
18.3367304
21
72.9979965
0
LINE
8
DEFAULT_255_2_778
10
18.3367304
20
72.9979965
11
18.3367304
21
59.2028965
0
LINE
8
DEFAULT_255_2_778
10
18.3367304
20
59.2028965
11
9.6367304
21
59.2028965
0
LINE
8
DEFAULT_255_2_778
10
9.6367304
20
59.2028965
11
9.6367304
21
43.5678965
0
LINE
8
DEFAULT_255_2_778
10
9.6367304
20
43.5678965
11
7.6333304
21
43.5678965
0
LINE
8
DEFAULT_255_2_778
10
7.6333304
20
43.5678965
11
7.6333304
21
40.9929965
0
LINE
8
DEFAULT_255_2_778
10
7.6333304
20
40.9929965
11
6.6366304
21
40.9929965
0
LINE
8
DEFAULT_255_2_778
10
6.6366304
20
40.9929965
11
6.6366304
21
35.3429965
0
LINE
8
DEFAULT_255_2_778
10
6.6366304
20
35.3429965
11
7.6333304
21
35.3429965
0
LINE
8
DEFAULT_255_2_778
10
7.6333304
20
35.3429965
11
7.6333304
21
32.7680965
0
LINE
8
DEFAULT_255_2_778
10
7.6333304
20
32.7680965
11
9.6367304
21
32.7680965
0
LINE
8
DEFAULT_255_2_778
10
9.6367304
20
32.7680965
11
9.6367304
21
17.1330965
0
LINE
8
DEFAULT_255_2_778
10
9.6367304
20
17.1330965
11
18.3367304
21
17.1330965
0
LINE
8
DEFAULT_255_2_778
10
0.2334304
20
98.4990965
11
0.2334304
21
66.6379965
0
LINE
8
DEFAULT_255_2_778
10
0.2334304
20
66.6379965
11
1.8252304
21
66.6379965
0
LINE
8
DEFAULT_255_2_778
10
1.8252304
20
66.6379965
11
1.8252304
21
95.9291965
0
LINE
8
DEFAULT_255_2_778
10
1.8252304
20
95.9291965
11
1.8035304
21
99.9291965
0
LINE
8
DEFAULT_255_2_778
10
1.8252304
20
66.6381965
11
6.9882304
21
66.6381965
0
LINE
8
DEFAULT_255_2_778
10
6.9882304
20
66.6381965
11
6.9882304
21
73.4993965
0
LINE
8
DEFAULT_255_2_778
10
6.9882304
20
73.4993965
11
22.2518304
21
73.4993965
0
LINE
8
DEFAULT_255_2_778
10
23.8435304
20
95.9293965
11
20.5386304
21
95.9293965
0
LINE
8
DEFAULT_255_2_778
10
3.5386304
20
95.9293965
11
0.2334304
21
95.9293965
0
LINE
8
DEFAULT_255_2_778
10
23.8435304
20
73.4993965
11
22.2518304
21
73.4993965
0
LINE
8
DEFAULT_255_2_778
10
22.2518304
20
73.4993965
11
22.2518304
21
95.9288965
0
LINE
8
DEFAULT_255_2_778
10
22.2518304
20
95.9288965
11
22.2735304
21
99.9288965
0
LINE
8
DEFAULT_255_2_778
10
12.8435304
20
58.8028965
11
12.8435304
21
57.6680965
0
LINE
8
DEFAULT_255_2_778
10
23.8435304
20
72.9990965
11
23.8435304
21
98.4990965
0
LINE
8
DEFAULT_255_2_778
10
18.7331304
20
0.3833965
11
18.7614304
21
0.3838965
0
LINE
8
DEFAULT_255_2_778
10
18.7614304
20
0.3838965
11
18.8074304
21
0.3846965
0
LINE
8
DEFAULT_255_2_778
10
18.8074304
20
0.3846965
11
18.8434304
21
0.3851965
0
LINE
8
DEFAULT_255_2_778
10
19.0935304
20
72.9990965
11
19.0935304
21
73.2490965
0
LINE
8
DEFAULT_255_2_778
10
19.0935304
20
73.2490965
11
19.0935304
21
72.9990965
0
LINE
8
DEFAULT_255_2_778
10
19.0935304
20
72.9990965
11
19.3435304
21
72.9990965
0
LINE
8
DEFAULT_255_2_778
10
22.2576304
20
72.9990965
11
23.8435304
21
72.9990965
0
LINE
8
DEFAULT_255_2_778
10
23.8435304
20
72.9990965
11
23.8435304
21
1.5152965
0
LINE
8
DEFAULT_255_2_778
10
23.8435304
20
1.5152965
11
22.2576304
21
1.5152965
0
LINE
8
DEFAULT_255_2_778
10
22.2576304
20
1.5152965
11
22.2576304
21
72.9990965
0
LINE
8
DEFAULT_255_2_778
10
22.2576304
20
72.9990965
11
19.3435304
21
72.9990965
0
LINE
8
DEFAULT_255_2_778
10
19.3435304
20
72.9990965
11
19.3435304
21
1.4898965
0
LINE
8
DEFAULT_255_2_778
10
19.3435304
20
1.4898965
11
22.2573304
21
1.5152965
0
LINE
8
DEFAULT_255_2_778
10
22.2573304
20
-0.0847035
11
18.4473304
21
-0.1180035
0
LINE
8
DEFAULT_255_2_778
10
18.8432304
20
73.2490965
11
18.8432304
21
1.4898965
0
LINE
8
DEFAULT_255_2_778
10
18.8432304
20
1.4898965
11
19.3432304
21
1.4898965
0
LINE
8
DEFAULT_255_2_778
10
19.3432304
20
1.4898965
11
19.3440304
21
1.1651965
0
LINE
8
DEFAULT_255_2_778
10
19.3440304
20
1.1651965
11
19.3445304
21
0.8616965
0
LINE
8
DEFAULT_255_2_778
10
19.3445304
20
0.8616965
11
19.3451304
21
0.3584965
0
LINE
8
DEFAULT_255_2_778
10
19.3451304
20
0.3584965
11
19.3445304
21
0.0182965
0
LINE
8
DEFAULT_255_2_778
10
19.3445304
20
0.0182965
11
19.3440304
21
-0.0770035
0
LINE
8
DEFAULT_255_2_778
10
19.3440304
20
-0.0770035
11
19.3432304
21
-0.1103035
0
LINE
8
DEFAULT_255_2_778
10
19.3432304
20
-0.1103035
11
18.8432304
21
0.3851965
0
LINE
8
DEFAULT_255_2_778
10
18.8432304
20
0.3851965
11
18.8432304
21
0.4693965
0
LINE
8
DEFAULT_255_2_778
10
18.8432304
20
0.4693965
11
18.8432304
21
1.4895965
0
ENDSEC
0
EOF