0
SECTION
2
HEADER
9
$MEASUREMENT
70
1
0
ENDSEC
0
SECTION
2
TABLES
0
TABLE
2
LTYPE
0
LTYPE
72
65
70
64
2
CONTINUOUS
3
______
73
0
40
0
0
ENDTAB
0
TABLE
2
LAYER
0
LAYER
2
DEFAULT_255_2_778
70
0
62
255
6
CONTINUOUS
0
ENDTAB
0
ENDSEC
0
SECTION
2
ENTITIES
0
ARC
8
DEFAULT_255_2_778
10
4.0217984
20
75.8807256
40
0.1994217
50
224.8820297
51
269.9993194
0
ARC
8
DEFAULT_255_2_778
10
4.0212183
20
75.8813068
40
0.1994223
50
180.000826
51
225.1179684
0
ARC
8
DEFAULT_255_2_778
10
4.0212179
20
92.231501
40
0.1994219
50
134.8819417
51
179.9991457
0
ARC
8
DEFAULT_255_2_778
10
4.0213105
20
92.2325792
40
0.1987251
50
89.9686547
51
135.1202254
0
LINE
8
DEFAULT_255_2_778
10
4.0214192
20
92.4313043
11
4.0217961
21
92.4313039
0
LINE
8
DEFAULT_255_2_778
10
20.3719961
20
92.4313039
11
20.3723729
21
92.4313043
0
ARC
8
DEFAULT_255_2_778
10
20.3724816
20
92.2325792
40
0.1987251
50
44.8797746
51
90.0313453
0
ARC
8
DEFAULT_255_2_778
10
20.3725736
20
92.2315009
40
0.1994226
50
0.0008817
51
45.1179579
0
ARC
8
DEFAULT_255_2_778
10
20.3396335
20
75.8804949
40
0.2323639
50
0.0153489
51
0.1994804
0
ARC
8
DEFAULT_255_2_778
10
20.3733618
20
75.8806826
40
0.1986357
50
314.9093517
51
359.9638269
0
ARC
8
DEFAULT_255_2_778
10
20.3722189
20
75.8809033
40
0.1996
50
270.3881615
51
315.0969883
0
ARC
8
DEFAULT_255_2_778
10
20.3722961
20
75.8845439
40
0.2032399
50
270.0000017
51
270.3594445
0
LINE
8
DEFAULT_255_2_778
10
3.6968961
20
92.5564039
11
3.6968961
21
75.5564039
0
LINE
8
DEFAULT_255_2_778
10
3.6968961
20
75.5564039
11
20.6968961
21
75.5564039
0
LINE
8
DEFAULT_255_2_778
10
20.6968961
20
75.5564039
11
20.6968961
21
92.5564039
0
LINE
8
DEFAULT_255_2_778
10
20.6968961
20
92.5564039
11
3.6968961
21
92.5564039
0
LINE
8
DEFAULT_255_2_778
10
3.8217961
20
75.8813039
11
3.8217961
21
92.2315039
0
LINE
8
DEFAULT_255_2_778
10
4.0217961
20
92.4313039
11
20.3719961
21
92.4313039
0
LINE
8
DEFAULT_255_2_778
10
20.5719961
20
92.2315039
11
20.5719961
21
75.8813039
0
LINE
8
DEFAULT_255_2_778
10
4.0220961
20
75.6815039
11
20.3719961
21
75.6815039
0
LINE
8
DEFAULT_255_2_778
10
13.0118
20
69.5281447
11
13.0118
21
66.2544447
0
LINE
8
DEFAULT_255_2_778
10
13.0118
20
19.9981447
11
13.0118
21
16.7244447
0
LINE
8
DEFAULT_255_2_778
10
13.0118
20
16.1881447
11
13.0118
21
12.9144447
0
LINE
8
DEFAULT_255_2_778
10
13.0118
20
27.6181447
11
13.0118
21
24.3444447
0
LINE
8
DEFAULT_255_2_778
10
13.0118
20
23.8081447
11
13.0118
21
20.5344447
0
LINE
8
DEFAULT_255_2_778
10
13.0118
20
35.2381447
11
13.0118
21
31.9644447
0
LINE
8
DEFAULT_255_2_778
10
13.0118
20
31.4281447
11
13.0118
21
28.1544447
0
LINE
8
DEFAULT_255_2_778
10
13.0118
20
42.8581447
11
13.0118
21
39.5844447
0
LINE
8
DEFAULT_255_2_778
10
13.0118
20
39.0481447
11
13.0118
21
35.7744447
0
LINE
8
DEFAULT_255_2_778
10
13.0118
20
50.4781447
11
13.0118
21
47.2044447
0
LINE
8
DEFAULT_255_2_778
10
13.0118
20
46.6681447
11
13.0118
21
43.3944447
0
LINE
8
DEFAULT_255_2_778
10
13.0118
20
58.0981447
11
13.0118
21
54.8244447
0
LINE
8
DEFAULT_255_2_778
10
13.0118
20
54.2881447
11
13.0118
21
51.0144447
0
LINE
8
DEFAULT_255_2_778
10
13.0118
20
65.7181447
11
13.0118
21
62.4444447
0
LINE
8
DEFAULT_255_2_778
10
13.0118
20
61.9081447
11
13.0118
21
58.6344447
0
LINE
8
DEFAULT_255_2_778
10
13.0118
20
12.3781447
11
13.0118
21
9.1044447
0
LINE
8
DEFAULT_255_2_778
10
13.0118
20
8.5681447
11
13.0118
21
5.2944447
0
ARC
8
DEFAULT_255_2_778
10
12.5958575
20
69.7961902
40
0.5514778
50
328.4038498
51
0.0119424
0
ARC
8
DEFAULT_255_2_778
10
12.5958572
20
69.79642
40
0.5514783
50
359.9880728
51
31.596145
0
ARC
8
DEFAULT_255_2_778
10
13.1470342
20
69.7965726
40
0.3000487
50
105.7506564
51
180.0224269
0
ARC
8
DEFAULT_255_2_778
10
13.1473875
20
69.7966049
40
0.300402
50
180.0285599
51
254.1983173
0
ARC
8
DEFAULT_255_2_778
10
9.2227829
20
71.016811
40
0.3705592
50
217.241949
51
270.0009231
0
ARC
8
DEFAULT_255_2_778
10
9.222833
20
71.0003953
40
0.3541436
50
269.9928542
51
270.2511718
0
ARC
8
DEFAULT_255_2_778
10
12.1450634
20
70.7949269
40
0.1640392
50
294.998518
51
359.1715532
0
ARC
8
DEFAULT_255_2_778
10
12.5993367
20
71.1279866
40
0.1956995
50
120.6449377
51
173.5251068
0
ARC
8
DEFAULT_255_2_778
10
12.5993369
20
68.4649238
40
0.1956997
50
186.4748879
51
239.3550213
0
ARC
8
DEFAULT_255_2_778
10
9.0642238
20
68.1813658
40
0.5022739
50
140.0842404
51
148.6267469
0
ARC
8
DEFAULT_255_2_778
10
9.065341
20
71.411815
40
0.5033686
50
211.3333413
51
219.8665123
0
ARC
8
DEFAULT_255_2_778
10
12.1449514
20
68.7976107
40
0.1641523
50
0.8532508
51
64.9767689
0
ARC
8
DEFAULT_255_2_778
10
9.2230406
20
68.5362156
40
0.4101417
50
89.8121196
51
89.991023
0
ARC
8
DEFAULT_255_2_778
10
9.2228643
20
68.5760915
40
0.370266
50
89.9627728
51
142.8386156
0
LINE
8
DEFAULT_255_2_778
10
13.0655855
20
69.5075552
11
13.0655855
21
69.5072552
0
LINE
8
DEFAULT_255_2_778
10
12.8461855
20
71.2963552
11
12.8461855
21
68.2962552
0
LINE
8
DEFAULT_255_2_778
10
12.8461855
20
68.2962552
11
8.5620855
21
68.2962552
0
LINE
8
DEFAULT_255_2_778
10
8.5620855
20
68.2962552
11
8.5620855
21
71.2963552
0
LINE
8
DEFAULT_255_2_778
10
8.5620855
20
71.2963552
11
12.8461855
21
71.2963552
0
LINE
8
DEFAULT_255_2_778
10
12.1228855
20
68.9463552
11
12.1228855
21
70.6462552
0
LINE
8
DEFAULT_255_2_778
10
9.3952855
20
68.9463552
11
9.3952855
21
70.6462552
0
LINE
8
DEFAULT_255_2_778
10
9.2243855
20
70.6462552
11
12.2143855
21
70.6462552
0
LINE
8
DEFAULT_255_2_778
10
9.4777855
20
70.6462552
11
9.4777855
21
68.9463552
0
LINE
8
DEFAULT_255_2_778
10
8.5620855
20
68.2965552
11
8.6353855
21
68.4428552
0
LINE
8
DEFAULT_255_2_778
10
8.6353855
20
68.4428552
11
12.4048855
21
68.4428552
0
LINE
8
DEFAULT_255_2_778
10
12.4048855
20
68.4428552
11
12.3090855
21
68.8000552
0
LINE
8
DEFAULT_255_2_778
10
12.3090855
20
68.8000552
11
8.9277855
21
68.8000552
0
LINE
8
DEFAULT_255_2_778
10
8.9277855
20
68.8000552
11
8.6789855
21
68.5036552
0
LINE
8
DEFAULT_255_2_778
10
8.6789855
20
68.5036552
11
8.6789855
21
71.0891552
0
LINE
8
DEFAULT_255_2_778
10
8.6353855
20
71.1500552
11
12.4048855
21
71.1500552
0
LINE
8
DEFAULT_255_2_778
10
12.4048855
20
71.1500552
11
12.3090855
21
70.7928552
0
LINE
8
DEFAULT_255_2_778
10
12.3090855
20
70.7928552
11
8.9277855
21
70.7928552
0
LINE
8
DEFAULT_255_2_778
10
8.9277855
20
70.7928552
11
8.6789855
21
71.0891552
0
LINE
8
DEFAULT_255_2_778
10
8.5620855
20
71.2963552
11
8.6353855
21
71.1500552
0
LINE
8
DEFAULT_255_2_778
10
12.2143855
20
68.9463552
11
9.2243855
21
68.9463552
0
ARC
8
DEFAULT_255_2_778
10
12.5958575
20
65.9861902
40
0.5514778
50
328.4038498
51
0.0119424
0
ARC
8
DEFAULT_255_2_778
10
12.5958572
20
65.98642
40
0.5514783
50
359.9880728
51
31.596145
0
ARC
8
DEFAULT_255_2_778
10
13.1470342
20
65.9865726
40
0.3000487
50
105.7506564
51
180.0224269
0
ARC
8
DEFAULT_255_2_778
10
13.1473875
20
65.9866049
40
0.300402
50
180.0285599
51
254.1983173
0
ARC
8
DEFAULT_255_2_778
10
9.2227829
20
67.206811
40
0.3705592
50
217.241949
51
270.0009231
0
ARC
8
DEFAULT_255_2_778
10
9.222833
20
67.1903953
40
0.3541436
50
269.9928542
51
270.2511718
0
ARC
8
DEFAULT_255_2_778
10
12.1450634
20
66.9849269
40
0.1640392
50
294.998518
51
359.1715532
0
ARC
8
DEFAULT_255_2_778
10
12.5993367
20
67.3179866
40
0.1956995
50
120.6449377
51
173.5251068
0
ARC
8
DEFAULT_255_2_778
10
12.5993369
20
64.6549238
40
0.1956997
50
186.4748879
51
239.3550213
0
ARC
8
DEFAULT_255_2_778
10
9.0642238
20
64.3713658
40
0.5022739
50
140.0842404
51
148.6267469
0
ARC
8
DEFAULT_255_2_778
10
9.065341
20
67.601815
40
0.5033686
50
211.3333413
51
219.8665123
0
ARC
8
DEFAULT_255_2_778
10
12.1449514
20
64.9876107
40
0.1641523
50
0.8532508
51
64.9767689
0
ARC
8
DEFAULT_255_2_778
10
9.2230406
20
64.7262156
40
0.4101417
50
89.8121196
51
89.991023
0
ARC
8
DEFAULT_255_2_778
10
9.2228643
20
64.7660915
40
0.370266
50
89.9627728
51
142.8386156
0
LINE
8
DEFAULT_255_2_778
10
13.0655855
20
65.6975552
11
13.0655855
21
65.6972552
0
LINE
8
DEFAULT_255_2_778
10
12.8461855
20
67.4863552
11
12.8461855
21
64.4862552
0
LINE
8
DEFAULT_255_2_778
10
12.8461855
20
64.4862552
11
8.5620855
21
64.4862552
0
LINE
8
DEFAULT_255_2_778
10
8.5620855
20
64.4862552
11
8.5620855
21
67.4863552
0
LINE
8
DEFAULT_255_2_778
10
8.5620855
20
67.4863552
11
12.8461855
21
67.4863552
0
LINE
8
DEFAULT_255_2_778
10
12.1228855
20
65.1363552
11
12.1228855
21
66.8362552
0
LINE
8
DEFAULT_255_2_778
10
9.3952855
20
65.1363552
11
9.3952855
21
66.8362552
0
LINE
8
DEFAULT_255_2_778
10
9.2243855
20
66.8362552
11
12.2143855
21
66.8362552
0
LINE
8
DEFAULT_255_2_778
10
9.4777855
20
66.8362552
11
9.4777855
21
65.1363552
0
LINE
8
DEFAULT_255_2_778
10
8.5620855
20
64.4865552
11
8.6353855
21
64.6328552
0
LINE
8
DEFAULT_255_2_778
10
8.6353855
20
64.6328552
11
12.4048855
21
64.6328552
0
LINE
8
DEFAULT_255_2_778
10
12.4048855
20
64.6328552
11
12.3090855
21
64.9900552
0
LINE
8
DEFAULT_255_2_778
10
12.3090855
20
64.9900552
11
8.9277855
21
64.9900552
0
LINE
8
DEFAULT_255_2_778
10
8.9277855
20
64.9900552
11
8.6789855
21
64.6936552
0
LINE
8
DEFAULT_255_2_778
10
8.6789855
20
64.6936552
11
8.6789855
21
67.2791552
0
LINE
8
DEFAULT_255_2_778
10
8.6353855
20
67.3400552
11
12.4048855
21
67.3400552
0
LINE
8
DEFAULT_255_2_778
10
12.4048855
20
67.3400552
11
12.3090855
21
66.9828552
0
LINE
8
DEFAULT_255_2_778
10
12.3090855
20
66.9828552
11
8.9277855
21
66.9828552
0
LINE
8
DEFAULT_255_2_778
10
8.9277855
20
66.9828552
11
8.6789855
21
67.2791552
0
LINE
8
DEFAULT_255_2_778
10
8.5620855
20
67.4863552
11
8.6353855
21
67.3400552
0
LINE
8
DEFAULT_255_2_778
10
12.2143855
20
65.1363552
11
9.2243855
21
65.1363552
0
ARC
8
DEFAULT_255_2_778
10
12.5958575
20
62.1761902
40
0.5514778
50
328.4038498
51
0.0119424
0
ARC
8
DEFAULT_255_2_778
10
12.5958572
20
62.17642
40
0.5514783
50
359.9880728
51
31.596145
0
ARC
8
DEFAULT_255_2_778
10
13.1470342
20
62.1765726
40
0.3000487
50
105.7506564
51
180.0224269
0
ARC
8
DEFAULT_255_2_778
10
13.1473875
20
62.1766049
40
0.300402
50
180.0285599
51
254.1983173
0
ARC
8
DEFAULT_255_2_778
10
9.2227829
20
63.396811
40
0.3705592
50
217.241949
51
270.0009231
0
ARC
8
DEFAULT_255_2_778
10
9.222833
20
63.3803953
40
0.3541436
50
269.9928542
51
270.2511718
0
ARC
8
DEFAULT_255_2_778
10
12.1450634
20
63.1749269
40
0.1640392
50
294.998518
51
359.1715532
0
ARC
8
DEFAULT_255_2_778
10
12.5993367
20
63.5079866
40
0.1956995
50
120.6449377
51
173.5251068
0
ARC
8
DEFAULT_255_2_778
10
12.5993369
20
60.8449238
40
0.1956997
50
186.4748879
51
239.3550213
0
ARC
8
DEFAULT_255_2_778
10
9.0642238
20
60.5613658
40
0.5022739
50
140.0842404
51
148.6267469
0
ARC
8
DEFAULT_255_2_778
10
9.065341
20
63.791815
40
0.5033686
50
211.3333413
51
219.8665123
0
ARC
8
DEFAULT_255_2_778
10
12.1449514
20
61.1776107
40
0.1641523
50
0.8532508
51
64.9767689
0
ARC
8
DEFAULT_255_2_778
10
9.2230406
20
60.9162156
40
0.4101417
50
89.8121196
51
89.991023
0
ARC
8
DEFAULT_255_2_778
10
9.2228643
20
60.9560915
40
0.370266
50
89.9627728
51
142.8386156
0
LINE
8
DEFAULT_255_2_778
10
13.0655855
20
61.8875552
11
13.0655855
21
61.8872552
0
LINE
8
DEFAULT_255_2_778
10
12.8461855
20
63.6763552
11
12.8461855
21
60.6762552
0
LINE
8
DEFAULT_255_2_778
10
12.8461855
20
60.6762552
11
8.5620855
21
60.6762552
0
LINE
8
DEFAULT_255_2_778
10
8.5620855
20
60.6762552
11
8.5620855
21
63.6763552
0
LINE
8
DEFAULT_255_2_778
10
8.5620855
20
63.6763552
11
12.8461855
21
63.6763552
0
LINE
8
DEFAULT_255_2_778
10
12.1228855
20
61.3263552
11
12.1228855
21
63.0262552
0
LINE
8
DEFAULT_255_2_778
10
9.3952855
20
61.3263552
11
9.3952855
21
63.0262552
0
LINE
8
DEFAULT_255_2_778
10
9.2243855
20
63.0262552
11
12.2143855
21
63.0262552
0
LINE
8
DEFAULT_255_2_778
10
9.4777855
20
63.0262552
11
9.4777855
21
61.3263552
0
LINE
8
DEFAULT_255_2_778
10
8.5620855
20
60.6765552
11
8.6353855
21
60.8228552
0
LINE
8
DEFAULT_255_2_778
10
8.6353855
20
60.8228552
11
12.4048855
21
60.8228552
0
LINE
8
DEFAULT_255_2_778
10
12.4048855
20
60.8228552
11
12.3090855
21
61.1800552
0
LINE
8
DEFAULT_255_2_778
10
12.3090855
20
61.1800552
11
8.9277855
21
61.1800552
0
LINE
8
DEFAULT_255_2_778
10
8.9277855
20
61.1800552
11
8.6789855
21
60.8836552
0
LINE
8
DEFAULT_255_2_778
10
8.6789855
20
60.8836552
11
8.6789855
21
63.4691552
0
LINE
8
DEFAULT_255_2_778
10
8.6353855
20
63.5300552
11
12.4048855
21
63.5300552
0
LINE
8
DEFAULT_255_2_778
10
12.4048855
20
63.5300552
11
12.3090855
21
63.1728552
0
LINE
8
DEFAULT_255_2_778
10
12.3090855
20
63.1728552
11
8.9277855
21
63.1728552
0
LINE
8
DEFAULT_255_2_778
10
8.9277855
20
63.1728552
11
8.6789855
21
63.4691552
0
LINE
8
DEFAULT_255_2_778
10
8.5620855
20
63.6763552
11
8.6353855
21
63.5300552
0
LINE
8
DEFAULT_255_2_778
10
12.2143855
20
61.3263552
11
9.2243855
21
61.3263552
0
ARC
8
DEFAULT_255_2_778
10
12.5957249
20
58.3661579
40
0.5514782
50
328.403855
51
0.0119272
0
ARC
8
DEFAULT_255_2_778
10
12.5957252
20
58.3663876
40
0.551478
50
359.9880576
51
31.5961502
0
ARC
8
DEFAULT_255_2_778
10
13.1470299
20
58.3665472
40
0.3000767
50
105.7745541
51
180.023771
0
ARC
8
DEFAULT_255_2_778
10
13.1472652
20
58.3664761
40
0.300312
50
180.0102015
51
254.1914805
0
ARC
8
DEFAULT_255_2_778
10
9.2227213
20
59.5869209
40
0.3707017
50
217.2528531
51
269.9902023
0
ARC
8
DEFAULT_255_2_778
10
9.222702
20
59.5697954
40
0.3535762
50
269.9928486
51
270.2513605
0
ARC
8
DEFAULT_255_2_778
10
12.1450313
20
59.3648944
40
0.1640391
50
294.998445
51
359.1715576
0
ARC
8
DEFAULT_255_2_778
10
12.5993047
20
59.6979539
40
0.1956998
50
120.6449921
51
173.5250749
0
ARC
8
DEFAULT_255_2_778
10
12.5993048
20
57.0348915
40
0.1956999
50
186.4749481
51
239.3549997
0
ARC
8
DEFAULT_255_2_778
10
9.0641916
20
56.7513333
40
0.5022739
50
140.0842404
51
148.6267469
0
ARC
8
DEFAULT_255_2_778
10
9.0653087
20
59.9817825
40
0.5033686
50
211.3333413
51
219.8665123
0
ARC
8
DEFAULT_255_2_778
10
12.1449187
20
57.3675779
40
0.1641527
50
0.8533356
51
64.9766753
0
ARC
8
DEFAULT_255_2_778
10
9.2229096
20
57.1069946
40
0.4093302
50
89.8119351
51
89.9910399
0
ARC
8
DEFAULT_255_2_778
10
9.2228738
20
57.1457732
40
0.3705517
50
89.9845613
51
142.8166504
0
ARC
8
DEFAULT_255_2_778
10
9.0641916
20
52.9413333
40
0.5022739
50
140.0842404
51
148.6267469
0
ARC
8
DEFAULT_255_2_778
10
9.0653087
20
56.1717825
40
0.5033686
50
211.3333413
51
219.8665123
0
ARC
8
DEFAULT_255_2_778
10
12.5960149
20
54.5563758
40
0.5511882
50
328.395328
51
0.0165644
0
LINE
8
DEFAULT_255_2_778
10
13.1472032
20
54.5565352
11
13.1472031
21
54.5568595
0
ARC
8
DEFAULT_255_2_778
10
12.59563
20
54.5566605
40
0.5515731
50
0.0206755
51
31.5933707
0
ARC
8
DEFAULT_255_2_778
10
13.1470596
20
54.5568247
40
0.3001064
50
105.7788345
51
180.0385707
0
ARC
8
DEFAULT_255_2_778
10
13.1472651
20
54.556676
40
0.3003119
50
180.010185
51
254.1914868
0
ARC
8
DEFAULT_255_2_778
10
9.2224307
20
55.7770853
40
0.370366
50
217.2077034
51
270.0040011
0
ARC
8
DEFAULT_255_2_778
10
9.2225007
20
55.7608628
40
0.3541436
50
269.9928542
51
270.2511718
0
ARC
8
DEFAULT_255_2_778
10
12.1445855
20
55.5554871
40
0.1641847
50
295.0308831
51
359.174851
0
ARC
8
DEFAULT_255_2_778
10
12.5990043
20
55.8884541
40
0.1956994
50
120.6449074
51
173.5251176
0
ARC
8
DEFAULT_255_2_778
10
12.5990048
20
53.2253915
40
0.1956999
50
186.4749481
51
239.3549997
0
ARC
8
DEFAULT_255_2_778
10
12.1447313
20
53.5581508
40
0.164039
50
0.8284865
51
65.001578
0
ARC
8
DEFAULT_255_2_778
10
9.2229096
20
53.2974946
40
0.4093302
50
89.8119351
51
89.9910399
0
ARC
8
DEFAULT_255_2_778
10
9.2228738
20
53.3362732
40
0.3705517
50
89.9845613
51
142.8166504
0
ARC
8
DEFAULT_255_2_778
10
9.0641916
20
49.1313333
40
0.5022739
50
140.0842404
51
148.6267469
0
ARC
8
DEFAULT_255_2_778
10
9.0653087
20
52.3617825
40
0.5033686
50
211.3333413
51
219.8665123
0
ARC
8
DEFAULT_255_2_778
10
12.5960149
20
50.7463758
40
0.5511882
50
328.395328
51
0.0165644
0
LINE
8
DEFAULT_255_2_778
10
13.1472032
20
50.7465352
11
13.1472031
21
50.7468595
0
ARC
8
DEFAULT_255_2_778
10
12.59563
20
50.7466605
40
0.5515731
50
0.0206755
51
31.5933707
0
ARC
8
DEFAULT_255_2_778
10
13.1470596
20
50.7468247
40
0.3001064
50
105.7788345
51
180.0385707
0
ARC
8
DEFAULT_255_2_778
10
13.147265
20
50.746676
40
0.3003118
50
180.0101851
51
254.191505
0
ARC
8
DEFAULT_255_2_778
10
9.2227014
20
51.9672275
40
0.3705083
50
217.2186096
51
269.9932783
0
ARC
8
DEFAULT_255_2_778
10
9.222702
20
51.9502954
40
0.3535762
50
269.9928486
51
270.2513605
0
ARC
8
DEFAULT_255_2_778
10
12.1448851
20
51.7454874
40
0.1641852
50
295.0309938
51
359.1747448
0
ARC
8
DEFAULT_255_2_778
10
12.5993046
20
52.0784539
40
0.1956997
50
120.644951
51
173.5250696
0
ARC
8
DEFAULT_255_2_778
10
12.5993044
20
49.4153913
40
0.1956995
50
186.4748932
51
239.3550623
0
ARC
8
DEFAULT_255_2_778
10
12.1450308
20
49.7481505
40
0.1640396
50
0.828574
51
65.0014441
0
ARC
8
DEFAULT_255_2_778
10
9.2227036
20
49.5439525
40
0.3528735
50
89.748387
51
90.0071583
0
ARC
8
DEFAULT_255_2_778
10
9.2227355
20
49.5265547
40
0.3702714
50
90.0117608
51
142.8384197
0
ARC
8
DEFAULT_255_2_778
10
12.5957249
20
46.9361579
40
0.5514782
50
328.403855
51
0.0119272
0
ARC
8
DEFAULT_255_2_778
10
12.5957252
20
46.9363876
40
0.551478
50
359.9880576
51
31.5961502
0
ARC
8
DEFAULT_255_2_778
10
13.14703
20
46.9365471
40
0.3000768
50
105.7745755
51
180.0237628
0
ARC
8
DEFAULT_255_2_778
10
13.1472651
20
46.936476
40
0.3003119
50
180.010185
51
254.1914868
0
ARC
8
DEFAULT_255_2_778
10
9.2224506
20
48.1567785
40
0.3705592
50
217.241949
51
270.0009231
0
ARC
8
DEFAULT_255_2_778
10
9.2225007
20
48.1403628
40
0.3541436
50
269.9928542
51
270.2511718
0
ARC
8
DEFAULT_255_2_778
10
12.1447314
20
47.9348943
40
0.1640389
50
294.9984288
51
359.1716015
0
ARC
8
DEFAULT_255_2_778
10
12.5990039
20
48.2679543
40
0.1956991
50
120.6448499
51
173.5251583
0
ARC
8
DEFAULT_255_2_778
10
12.5990039
20
45.604891
40
0.195699
50
186.4748417
51
239.3551501
0
ARC
8
DEFAULT_255_2_778
10
12.1447311
20
45.9376507
40
0.1640393
50
0.8285029
51
65.0015006
0
ARC
8
DEFAULT_255_2_778
10
9.2229096
20
45.6769946
40
0.4093302
50
89.8119351
51
89.9910399
0
ARC
8
DEFAULT_255_2_778
10
9.2228738
20
45.7157732
40
0.3705517
50
89.9845613
51
142.8166504
0
ARC
8
DEFAULT_255_2_778
10
9.0653087
20
45.3207628
40
0.5033686
50
140.1334877
51
148.6666587
0
ARC
8
DEFAULT_255_2_778
10
9.0641916
20
48.551212
40
0.5022739
50
211.3732531
51
219.9157596
0
ARC
8
DEFAULT_255_2_778
10
9.0641916
20
41.5113333
40
0.5022739
50
140.0842404
51
148.6267469
0
ARC
8
DEFAULT_255_2_778
10
9.0717976
20
44.7464281
40
0.5113273
50
211.399874
51
219.7999887
0
ARC
8
DEFAULT_255_2_778
10
12.5960149
20
43.1263758
40
0.5511882
50
328.395328
51
0.0165644
0
LINE
8
DEFAULT_255_2_778
10
13.1472032
20
43.1265352
11
13.1472031
21
43.1268595
0
ARC
8
DEFAULT_255_2_778
10
12.59563
20
43.1266605
40
0.5515731
50
0.0206755
51
31.5933707
0
ARC
8
DEFAULT_255_2_778
10
13.1470596
20
43.1268247
40
0.3001064
50
105.7788345
51
180.0385707
0
ARC
8
DEFAULT_255_2_778
10
13.1472654
20
43.1266761
40
0.3003122
50
180.0101933
51
254.1914471
0
ARC
8
DEFAULT_255_2_778
10
9.2227213
20
44.3472209
40
0.3707017
50
217.2528531
51
269.9902023
0
ARC
8
DEFAULT_255_2_778
10
9.222702
20
44.3300954
40
0.3535762
50
269.9928486
51
270.2513605
0
ARC
8
DEFAULT_255_2_778
10
12.1450315
20
44.1251943
40
0.1640389
50
294.9983928
51
359.1715922
0
ARC
8
DEFAULT_255_2_778
10
12.5994681
20
44.4581481
40
0.1958741
50
120.6703226
51
173.4997076
0
ARC
8
DEFAULT_255_2_778
10
12.5994681
20
41.7951972
40
0.1958741
50
186.5002924
51
239.3296774
0
ARC
8
DEFAULT_255_2_778
10
12.1451426
20
42.1279229
40
0.1639267
50
0.803836
51
65.0261749
0
ARC
8
DEFAULT_255_2_778
10
9.2227035
20
41.9236448
40
0.3528812
50
89.748387
51
90.0071583
0
ARC
8
DEFAULT_255_2_778
10
9.2227551
20
41.9060628
40
0.3704633
50
90.0147987
51
142.8042786
0
LINE
8
DEFAULT_255_2_778
10
13.0654532
20
58.0775227
11
13.0654532
21
58.0772227
0
LINE
8
DEFAULT_255_2_778
10
12.8461532
20
56.8662227
11
8.5620532
21
56.8662227
0
LINE
8
DEFAULT_255_2_778
10
8.5620532
20
56.8662227
11
8.5620532
21
59.8663227
0
LINE
8
DEFAULT_255_2_778
10
8.5620532
20
59.8663227
11
12.8458532
21
59.8663227
0
LINE
8
DEFAULT_255_2_778
10
12.8458532
20
59.8663227
11
12.8461532
21
56.8662227
0
LINE
8
DEFAULT_255_2_778
10
12.1227532
20
57.5163227
11
12.1227532
21
59.2162227
0
LINE
8
DEFAULT_255_2_778
10
9.3951532
20
57.5163227
11
9.3951532
21
59.2162227
0
LINE
8
DEFAULT_255_2_778
10
9.2242532
20
59.2162227
11
12.2143532
21
59.2162227
0
LINE
8
DEFAULT_255_2_778
10
9.4777532
20
59.2162227
11
9.4777532
21
57.5163227
0
LINE
8
DEFAULT_255_2_778
10
8.5620532
20
56.8665227
11
8.6353532
21
57.0128227
0
LINE
8
DEFAULT_255_2_778
10
8.6353532
20
57.0128227
11
12.4048532
21
57.0128227
0
LINE
8
DEFAULT_255_2_778
10
12.4048532
20
57.0128227
11
12.3090532
21
57.3700227
0
LINE
8
DEFAULT_255_2_778
10
12.3090532
20
57.3700227
11
8.9276532
21
57.3700227
0
LINE
8
DEFAULT_255_2_778
10
8.9276532
20
57.3700227
11
8.6789532
21
57.0736227
0
LINE
8
DEFAULT_255_2_778
10
8.6789532
20
57.0736227
11
8.6789532
21
59.6591227
0
LINE
8
DEFAULT_255_2_778
10
8.6353532
20
59.7200227
11
12.4048532
21
59.7200227
0
LINE
8
DEFAULT_255_2_778
10
12.4048532
20
59.7200227
11
12.3090532
21
59.3628227
0
LINE
8
DEFAULT_255_2_778
10
12.3090532
20
59.3628227
11
8.9276532
21
59.3628227
0
LINE
8
DEFAULT_255_2_778
10
8.9276532
20
59.3628227
11
8.6789532
21
59.6591227
0
LINE
8
DEFAULT_255_2_778
10
8.5620532
20
59.8663227
11
8.6353532
21
59.7200227
0
LINE
8
DEFAULT_255_2_778
10
12.2143532
20
57.5163227
11
9.2242532
21
57.5163227
0
LINE
8
DEFAULT_255_2_778
10
8.6353532
20
53.2028227
11
12.4048532
21
53.2028227
0
LINE
8
DEFAULT_255_2_778
10
12.4048532
20
53.2028227
11
12.3090532
21
53.5600227
0
LINE
8
DEFAULT_255_2_778
10
12.3090532
20
53.5600227
11
8.9276532
21
53.5600227
0
LINE
8
DEFAULT_255_2_778
10
8.9276532
20
53.5600227
11
8.6789532
21
53.2636227
0
LINE
8
DEFAULT_255_2_778
10
8.6789532
20
53.2636227
11
8.6789532
21
55.8491227
0
LINE
8
DEFAULT_255_2_778
10
8.6353532
20
55.9100227
11
12.4048532
21
55.9100227
0
LINE
8
DEFAULT_255_2_778
10
12.4048532
20
55.9100227
11
12.3090532
21
55.5528227
0
LINE
8
DEFAULT_255_2_778
10
12.3090532
20
55.5528227
11
8.9276532
21
55.5528227
0
LINE
8
DEFAULT_255_2_778
10
8.9276532
20
55.5528227
11
8.6789532
21
55.8491227
0
LINE
8
DEFAULT_255_2_778
10
8.5620532
20
56.0563227
11
8.6353532
21
55.9100227
0
LINE
8
DEFAULT_255_2_778
10
13.0654532
20
54.2677227
11
13.0654532
21
54.2675227
0
LINE
8
DEFAULT_255_2_778
10
12.1225532
20
53.7065227
11
12.1225532
21
55.4065227
0
LINE
8
DEFAULT_255_2_778
10
9.3949532
20
53.7065227
11
9.3949532
21
55.4065227
0
LINE
8
DEFAULT_255_2_778
10
9.2240532
20
55.4067227
11
12.2140532
21
55.4067227
0
LINE
8
DEFAULT_255_2_778
10
9.4774532
20
55.4067227
11
9.4774532
21
53.7068227
0
LINE
8
DEFAULT_255_2_778
10
8.5617532
20
53.0570227
11
8.6350532
21
53.2033227
0
LINE
8
DEFAULT_255_2_778
10
12.2140532
20
53.7068227
11
9.2242532
21
53.7068227
0
LINE
8
DEFAULT_255_2_778
10
12.8461532
20
53.0567227
11
8.5620532
21
53.0567227
0
LINE
8
DEFAULT_255_2_778
10
8.5620532
20
53.0567227
11
8.5620532
21
56.0568227
0
LINE
8
DEFAULT_255_2_778
10
8.5620532
20
56.0568227
11
12.8458532
21
56.0568227
0
LINE
8
DEFAULT_255_2_778
10
12.8458532
20
56.0568227
11
12.8461532
21
53.0567227
0
LINE
8
DEFAULT_255_2_778
10
8.6353532
20
49.3928227
11
12.4048532
21
49.3928227
0
LINE
8
DEFAULT_255_2_778
10
12.4048532
20
49.3928227
11
12.3090532
21
49.7500227
0
LINE
8
DEFAULT_255_2_778
10
12.3090532
20
49.7500227
11
8.9276532
21
49.7500227
0
LINE
8
DEFAULT_255_2_778
10
8.9276532
20
49.7500227
11
8.6789532
21
49.4536227
0
LINE
8
DEFAULT_255_2_778
10
8.6789532
20
49.4536227
11
8.6789532
21
52.0391227
0
LINE
8
DEFAULT_255_2_778
10
8.6353532
20
52.1000227
11
12.4048532
21
52.1000227
0
LINE
8
DEFAULT_255_2_778
10
12.4048532
20
52.1000227
11
12.3090532
21
51.7428227
0
LINE
8
DEFAULT_255_2_778
10
12.3090532
20
51.7428227
11
8.9276532
21
51.7428227
0
LINE
8
DEFAULT_255_2_778
10
8.9276532
20
51.7428227
11
8.6789532
21
52.0391227
0
LINE
8
DEFAULT_255_2_778
10
8.5620532
20
52.2463227
11
8.6353532
21
52.1000227
0
LINE
8
DEFAULT_255_2_778
10
13.0654532
20
50.4577227
11
13.0654532
21
50.4575227
0
LINE
8
DEFAULT_255_2_778
10
12.8461532
20
49.2465227
11
8.5620532
21
49.2465227
0
LINE
8
DEFAULT_255_2_778
10
8.5620532
20
49.2465227
11
8.5620532
21
52.2466227
0
LINE
8
DEFAULT_255_2_778
10
8.5620532
20
52.2466227
11
12.8458532
21
52.2466227
0
LINE
8
DEFAULT_255_2_778
10
12.8458532
20
52.2466227
11
12.8461532
21
49.2465227
0
LINE
8
DEFAULT_255_2_778
10
12.1227532
20
49.8965227
11
12.1227532
21
51.5965227
0
LINE
8
DEFAULT_255_2_778
10
9.3951532
20
49.8965227
11
9.3951532
21
51.5965227
0
LINE
8
DEFAULT_255_2_778
10
9.2242532
20
51.5967227
11
12.2143532
21
51.5967227
0
LINE
8
DEFAULT_255_2_778
10
9.4777532
20
51.5967227
11
9.4777532
21
49.8968227
0
LINE
8
DEFAULT_255_2_778
10
8.5620532
20
49.2470227
11
8.6353532
21
49.3933227
0
LINE
8
DEFAULT_255_2_778
10
12.2143532
20
49.8968227
11
9.2242532
21
49.8968227
0
LINE
8
DEFAULT_255_2_778
10
13.0654532
20
46.6475227
11
13.0654532
21
46.6472227
0
LINE
8
DEFAULT_255_2_778
10
12.1225532
20
46.0863227
11
12.1225532
21
47.7862227
0
LINE
8
DEFAULT_255_2_778
10
9.3949532
20
46.0863227
11
9.3949532
21
47.7862227
0
LINE
8
DEFAULT_255_2_778
10
9.2240532
20
47.7862227
11
12.2140532
21
47.7862227
0
LINE
8
DEFAULT_255_2_778
10
9.4774532
20
47.7862227
11
9.4774532
21
46.0863227
0
LINE
8
DEFAULT_255_2_778
10
8.5617532
20
45.4365227
11
8.6350532
21
45.5828227
0
LINE
8
DEFAULT_255_2_778
10
12.2140532
20
46.0863227
11
9.2242532
21
46.0863227
0
LINE
8
DEFAULT_255_2_778
10
8.6789532
20
48.2289227
11
8.9276532
21
47.9325227
0
LINE
8
DEFAULT_255_2_778
10
8.9276532
20
47.9325227
11
12.3093532
21
47.9325227
0
LINE
8
DEFAULT_255_2_778
10
12.3093532
20
47.9325227
11
12.4050532
21
48.2897227
0
LINE
8
DEFAULT_255_2_778
10
12.4050532
20
48.2897227
11
8.6353532
21
48.2897227
0
LINE
8
DEFAULT_255_2_778
10
8.6353532
20
48.2897227
11
8.5620532
21
48.4360227
0
LINE
8
DEFAULT_255_2_778
10
12.8458532
20
48.4360227
11
12.8458532
21
45.4359227
0
LINE
8
DEFAULT_255_2_778
10
12.8458532
20
45.4359227
11
8.5620532
21
45.4359227
0
LINE
8
DEFAULT_255_2_778
10
8.5620532
20
45.4359227
11
8.5620532
21
48.4360227
0
LINE
8
DEFAULT_255_2_778
10
8.5620532
20
48.4360227
11
12.8458532
21
48.4360227
0
LINE
8
DEFAULT_255_2_778
10
8.6353532
20
45.5825227
11
12.4048532
21
45.5825227
0
LINE
8
DEFAULT_255_2_778
10
12.4048532
20
45.5825227
11
12.3090532
21
45.9397227
0
LINE
8
DEFAULT_255_2_778
10
12.3090532
20
45.9397227
11
8.9276532
21
45.9397227
0
LINE
8
DEFAULT_255_2_778
10
8.9276532
20
45.9397227
11
8.6789532
21
45.6434227
0
LINE
8
DEFAULT_255_2_778
10
8.6789532
20
45.6434227
11
8.6789532
21
48.2289227
0
LINE
8
DEFAULT_255_2_778
10
8.6353532
20
41.7728227
11
12.4048532
21
41.7728227
0
LINE
8
DEFAULT_255_2_778
10
12.4048532
20
41.7728227
11
12.3090532
21
42.1300227
0
LINE
8
DEFAULT_255_2_778
10
12.3090532
20
42.1300227
11
8.9276532
21
42.1300227
0
LINE
8
DEFAULT_255_2_778
10
8.9276532
20
42.1300227
11
8.6789532
21
41.8336227
0
LINE
8
DEFAULT_255_2_778
10
8.6789532
20
41.8336227
11
8.6789532
21
44.4191227
0
LINE
8
DEFAULT_255_2_778
10
8.6353532
20
44.4800227
11
12.4048532
21
44.4800227
0
LINE
8
DEFAULT_255_2_778
10
12.4048532
20
44.4800227
11
12.3090532
21
44.1228227
0
LINE
8
DEFAULT_255_2_778
10
12.3090532
20
44.1228227
11
8.9276532
21
44.1228227
0
LINE
8
DEFAULT_255_2_778
10
8.9276532
20
44.1228227
11
8.6789532
21
44.4191227
0
LINE
8
DEFAULT_255_2_778
10
8.5620532
20
44.6263227
11
8.6353532
21
44.4800227
0
LINE
8
DEFAULT_255_2_778
10
13.0654532
20
42.8377227
11
13.0654532
21
42.8375227
0
LINE
8
DEFAULT_255_2_778
10
12.8461532
20
41.6265227
11
8.5620532
21
41.6265227
0
LINE
8
DEFAULT_255_2_778
10
8.5620532
20
41.6265227
11
8.5620532
21
44.6266227
0
LINE
8
DEFAULT_255_2_778
10
8.5620532
20
44.6266227
11
12.8458532
21
44.6266227
0
LINE
8
DEFAULT_255_2_778
10
12.8458532
20
44.6266227
11
12.8461532
21
41.6265227
0
LINE
8
DEFAULT_255_2_778
10
12.1227532
20
42.2765227
11
12.1227532
21
43.9765227
0
LINE
8
DEFAULT_255_2_778
10
9.3951532
20
42.2765227
11
9.3951532
21
43.9765227
0
LINE
8
DEFAULT_255_2_778
10
9.2242532
20
43.9765227
11
12.2143532
21
43.9765227
0
LINE
8
DEFAULT_255_2_778
10
9.4777532
20
43.9765227
11
9.4777532
21
42.2765227
0
LINE
8
DEFAULT_255_2_778
10
8.5620532
20
41.6267227
11
8.6353532
21
41.7730227
0
LINE
8
DEFAULT_255_2_778
10
12.2143532
20
42.2765227
11
9.2242532
21
42.2765227
0
ARC
8
DEFAULT_255_2_778
10
12.5957249
20
39.3162227
40
0.5514782
50
328.403855
51
0.0119272
0
ARC
8
DEFAULT_255_2_778
10
12.5957252
20
39.3164524
40
0.551478
50
359.9880576
51
31.5961502
0
ARC
8
DEFAULT_255_2_778
10
13.1470298
20
39.316612
40
0.3000766
50
105.7745294
51
180.0237876
0
ARC
8
DEFAULT_255_2_778
10
13.1472653
20
39.3165409
40
0.3003121
50
180.0101933
51
254.1914653
0
ARC
8
DEFAULT_255_2_778
10
9.2224506
20
40.5368433
40
0.3705592
50
217.241949
51
270.0009231
0
ARC
8
DEFAULT_255_2_778
10
9.2225007
20
40.5204276
40
0.3541436
50
269.9928542
51
270.2511718
0
ARC
8
DEFAULT_255_2_778
10
12.1447311
20
40.3149592
40
0.1640392
50
294.998518
51
359.1715532
0
ARC
8
DEFAULT_255_2_778
10
12.5990039
20
40.6480191
40
0.1956991
50
120.6448499
51
173.5251583
0
ARC
8
DEFAULT_255_2_778
10
12.5990046
20
37.9849561
40
0.1956997
50
186.4748879
51
239.3550213
0
ARC
8
DEFAULT_255_2_778
10
12.1446191
20
38.317643
40
0.1641523
50
0.8532508
51
64.9767689
0
ARC
8
DEFAULT_255_2_778
10
9.2229096
20
38.0570594
40
0.4093302
50
89.8119351
51
89.9910399
0
ARC
8
DEFAULT_255_2_778
10
9.2228738
20
38.095838
40
0.3705517
50
89.9845613
51
142.8166504
0
ARC
8
DEFAULT_255_2_778
10
9.0653087
20
37.7008276
40
0.5033686
50
140.1334877
51
148.6666587
0
ARC
8
DEFAULT_255_2_778
10
9.0641916
20
40.9312768
40
0.5022739
50
211.3732531
51
219.9157596
0
LINE
8
DEFAULT_255_2_778
10
13.0654532
20
39.0275875
11
13.0654532
21
39.0272875
0
LINE
8
DEFAULT_255_2_778
10
12.1225532
20
38.4663875
11
12.1225532
21
40.1662875
0
LINE
8
DEFAULT_255_2_778
10
9.3949532
20
38.4663875
11
9.3949532
21
40.1662875
0
LINE
8
DEFAULT_255_2_778
10
9.2240532
20
40.1662875
11
12.2140532
21
40.1662875
0
LINE
8
DEFAULT_255_2_778
10
9.4774532
20
40.1662875
11
9.4774532
21
38.4663875
0
LINE
8
DEFAULT_255_2_778
10
8.5617532
20
37.8165875
11
8.6350532
21
37.9628875
0
LINE
8
DEFAULT_255_2_778
10
12.2140532
20
38.4663875
11
9.2242532
21
38.4663875
0
LINE
8
DEFAULT_255_2_778
10
8.6353532
20
37.9625875
11
12.4048532
21
37.9625875
0
LINE
8
DEFAULT_255_2_778
10
12.4048532
20
37.9625875
11
12.3090532
21
38.3197875
0
LINE
8
DEFAULT_255_2_778
10
12.3090532
20
38.3197875
11
8.9276532
21
38.3197875
0
LINE
8
DEFAULT_255_2_778
10
8.9276532
20
38.3197875
11
8.6789532
21
38.0234875
0
LINE
8
DEFAULT_255_2_778
10
8.6789532
20
38.0234875
11
8.6789532
21
40.6089875
0
LINE
8
DEFAULT_255_2_778
10
8.6353532
20
40.6697875
11
12.4048532
21
40.6697875
0
LINE
8
DEFAULT_255_2_778
10
12.4048532
20
40.6697875
11
12.3090532
21
40.3125875
0
LINE
8
DEFAULT_255_2_778
10
12.3090532
20
40.3125875
11
8.9276532
21
40.3125875
0
LINE
8
DEFAULT_255_2_778
10
8.9276532
20
40.3125875
11
8.6789532
21
40.6089875
0
LINE
8
DEFAULT_255_2_778
10
8.5620532
20
40.8160875
11
8.6353532
21
40.6697875
0
LINE
8
DEFAULT_255_2_778
10
12.8458532
20
40.8160875
11
12.8458532
21
37.8159875
0
LINE
8
DEFAULT_255_2_778
10
12.8458532
20
37.8159875
11
8.5620532
21
37.8159875
0
LINE
8
DEFAULT_255_2_778
10
8.5620532
20
37.8159875
11
8.5620532
21
40.8160875
0
LINE
8
DEFAULT_255_2_778
10
8.5620532
20
40.8160875
11
12.8458532
21
40.8160875
0
ARC
8
DEFAULT_255_2_778
10
9.0653087
20
33.8910952
40
0.5033686
50
140.1334877
51
148.6666587
0
ARC
8
DEFAULT_255_2_778
10
9.0641916
20
37.1215444
40
0.5022739
50
211.3732531
51
219.9157596
0
ARC
8
DEFAULT_255_2_778
10
12.5957249
20
35.5064903
40
0.5514782
50
328.403855
51
0.0119272
0
ARC
8
DEFAULT_255_2_778
10
12.5957252
20
35.50672
40
0.551478
50
359.9880576
51
31.5961502
0
ARC
8
DEFAULT_255_2_778
10
13.1470296
20
35.5068797
40
0.3000765
50
105.7745048
51
180.0238041
0
ARC
8
DEFAULT_255_2_778
10
13.1472652
20
35.5068085
40
0.300312
50
180.0102015
51
254.1914805
0
ARC
8
DEFAULT_255_2_778
10
9.2224506
20
36.7271109
40
0.3705592
50
217.241949
51
270.0009231
0
ARC
8
DEFAULT_255_2_778
10
9.2225007
20
36.7106952
40
0.3541436
50
269.9928542
51
270.2511718
0
ARC
8
DEFAULT_255_2_778
10
12.1447311
20
36.5052268
40
0.1640392
50
294.998518
51
359.1715532
0
ARC
8
DEFAULT_255_2_778
10
12.5990045
20
36.8382864
40
0.1956996
50
120.6449428
51
173.5250926
0
ARC
8
DEFAULT_255_2_778
10
12.5990044
20
34.1752237
40
0.1956995
50
186.4748932
51
239.3550623
0
ARC
8
DEFAULT_255_2_778
10
12.1446191
20
34.5079106
40
0.1641523
50
0.8532508
51
64.9767689
0
ARC
8
DEFAULT_255_2_778
10
9.2229096
20
34.247327
40
0.4093302
50
89.8119351
51
89.9910399
0
ARC
8
DEFAULT_255_2_778
10
9.2228738
20
34.2861056
40
0.3705517
50
89.9845613
51
142.8166504
0
ARC
8
DEFAULT_255_2_778
10
12.59563
20
31.6962173
40
0.5515732
50
328.4066293
51
359.9793245
0
LINE
8
DEFAULT_255_2_778
10
13.1472031
20
31.6960182
11
13.1472032
21
31.6963426
0
ARC
8
DEFAULT_255_2_778
10
12.5960152
20
31.6965021
40
0.551188
50
359.9834205
51
31.6046772
0
ARC
8
DEFAULT_255_2_778
10
13.1470296
20
31.6965798
40
0.3000764
50
105.7745017
51
180.0238123
0
ARC
8
DEFAULT_255_2_778
10
13.1472651
20
31.6965084
40
0.3003119
50
180.010185
51
254.1914868
0
ARC
8
DEFAULT_255_2_778
10
9.2227213
20
32.9172532
40
0.3707017
50
217.2528531
51
269.9902023
0
ARC
8
DEFAULT_255_2_778
10
9.222702
20
32.9001278
40
0.3535762
50
269.9928486
51
270.2513605
0
ARC
8
DEFAULT_255_2_778
10
12.1450312
20
32.6952269
40
0.1640392
50
294.998482
51
359.1715439
0
ARC
8
DEFAULT_255_2_778
10
12.5993039
20
33.0282867
40
0.1956991
50
120.6448499
51
173.5251583
0
ARC
8
DEFAULT_255_2_778
10
12.5993039
20
30.3652234
40
0.195699
50
186.4748417
51
239.3551501
0
ARC
8
DEFAULT_255_2_778
10
12.1449187
20
30.6979103
40
0.1641527
50
0.8533356
51
64.9766753
0
ARC
8
DEFAULT_255_2_778
10
9.2229096
20
30.437327
40
0.4093302
50
89.8119351
51
89.9910399
0
ARC
8
DEFAULT_255_2_778
10
9.2228738
20
30.4761056
40
0.3705517
50
89.9845613
51
142.8166504
0
ARC
8
DEFAULT_255_2_778
10
9.0653087
20
30.0810952
40
0.5033686
50
140.1334877
51
148.6666587
0
ARC
8
DEFAULT_255_2_778
10
9.0641916
20
33.3115444
40
0.5022739
50
211.3732531
51
219.9157596
0
ARC
8
DEFAULT_255_2_778
10
9.0653087
20
26.2710952
40
0.5033686
50
140.1334877
51
148.6666587
0
ARC
8
DEFAULT_255_2_778
10
9.0641916
20
29.5015444
40
0.5022739
50
211.3732531
51
219.9157596
0
ARC
8
DEFAULT_255_2_778
10
12.5957249
20
27.8864903
40
0.5514782
50
328.403855
51
0.0119272
0
ARC
8
DEFAULT_255_2_778
10
12.5957252
20
27.88672
40
0.551478
50
359.9880576
51
31.5961502
0
ARC
8
DEFAULT_255_2_778
10
13.14703
20
27.8868795
40
0.3000768
50
105.7745755
51
180.0237628
0
ARC
8
DEFAULT_255_2_778
10
13.147265
20
27.8868084
40
0.3003118
50
180.0101685
51
254.1915114
0
ARC
8
DEFAULT_255_2_778
10
9.2225767
20
29.1072619
40
0.3704103
50
217.2305219
51
270.0121099
0
ARC
8
DEFAULT_255_2_778
10
9.2226992
20
29.0916908
40
0.3548392
50
269.9928611
51
270.2509202
0
ARC
8
DEFAULT_255_2_778
10
12.1450315
20
28.8855267
40
0.1640389
50
294.9983928
51
359.1715922
0
ARC
8
DEFAULT_255_2_778
10
12.5994681
20
29.2184805
40
0.1958741
50
120.6703226
51
173.4997076
0
ARC
8
DEFAULT_255_2_778
10
12.5994681
20
26.5555296
40
0.1958741
50
186.5002924
51
239.3296774
0
ARC
8
DEFAULT_255_2_778
10
12.1451426
20
26.8882553
40
0.1639267
50
0.803836
51
65.0261749
0
ARC
8
DEFAULT_255_2_778
10
9.2227035
20
26.6839772
40
0.3528812
50
89.748387
51
90.0071583
0
ARC
8
DEFAULT_255_2_778
10
9.2227551
20
26.6663952
40
0.3704633
50
90.0147987
51
142.8042786
0
LINE
8
DEFAULT_255_2_778
10
8.6353532
20
34.1528551
11
12.4048532
21
34.1528551
0
LINE
8
DEFAULT_255_2_778
10
12.4048532
20
34.1528551
11
12.3090532
21
34.5100551
0
LINE
8
DEFAULT_255_2_778
10
12.3090532
20
34.5100551
11
8.9276532
21
34.5100551
0
LINE
8
DEFAULT_255_2_778
10
8.9276532
20
34.5100551
11
8.6789532
21
34.2137551
0
LINE
8
DEFAULT_255_2_778
10
8.6789532
20
34.2137551
11
8.6789532
21
36.7992551
0
LINE
8
DEFAULT_255_2_778
10
8.6353532
20
36.8600551
11
12.4048532
21
36.8600551
0
LINE
8
DEFAULT_255_2_778
10
12.4048532
20
36.8600551
11
12.3090532
21
36.5028551
0
LINE
8
DEFAULT_255_2_778
10
12.3090532
20
36.5028551
11
8.9276532
21
36.5028551
0
LINE
8
DEFAULT_255_2_778
10
8.9276532
20
36.5028551
11
8.6789532
21
36.7992551
0
LINE
8
DEFAULT_255_2_778
10
8.5620532
20
37.0063551
11
8.6353532
21
36.8600551
0
LINE
8
DEFAULT_255_2_778
10
13.0654532
20
35.2178551
11
13.0654532
21
35.2175551
0
LINE
8
DEFAULT_255_2_778
10
12.1225532
20
34.6566551
11
12.1225532
21
36.3565551
0
LINE
8
DEFAULT_255_2_778
10
9.3949532
20
34.6566551
11
9.3949532
21
36.3565551
0
LINE
8
DEFAULT_255_2_778
10
9.2240532
20
36.3565551
11
12.2140532
21
36.3565551
0
LINE
8
DEFAULT_255_2_778
10
9.4774532
20
36.3565551
11
9.4774532
21
34.6566551
0
LINE
8
DEFAULT_255_2_778
10
8.5617532
20
34.0068551
11
8.6350532
21
34.1531551
0
LINE
8
DEFAULT_255_2_778
10
12.2140532
20
34.6566551
11
9.2242532
21
34.6566551
0
LINE
8
DEFAULT_255_2_778
10
12.8461532
20
37.0063551
11
12.8461532
21
34.0062551
0
LINE
8
DEFAULT_255_2_778
10
12.8461532
20
34.0062551
11
8.5620532
21
34.0062551
0
LINE
8
DEFAULT_255_2_778
10
8.5620532
20
34.0062551
11
8.5620532
21
37.0063551
0
LINE
8
DEFAULT_255_2_778
10
8.5620532
20
37.0063551
11
12.8461532
21
37.0063551
0
LINE
8
DEFAULT_255_2_778
10
13.0654532
20
31.4075551
11
13.0654532
21
31.4072551
0
LINE
8
DEFAULT_255_2_778
10
12.8461532
20
30.1962551
11
8.5620532
21
30.1962551
0
LINE
8
DEFAULT_255_2_778
10
8.5620532
20
30.1962551
11
8.5620532
21
33.1963551
0
LINE
8
DEFAULT_255_2_778
10
8.5620532
20
33.1963551
11
12.8458532
21
33.1963551
0
LINE
8
DEFAULT_255_2_778
10
12.8458532
20
33.1963551
11
12.8461532
21
30.1962551
0
LINE
8
DEFAULT_255_2_778
10
12.1227532
20
30.8463551
11
12.1227532
21
32.5463551
0
LINE
8
DEFAULT_255_2_778
10
9.3951532
20
30.8463551
11
9.3951532
21
32.5463551
0
LINE
8
DEFAULT_255_2_778
10
9.2242532
20
32.5465551
11
12.2143532
21
32.5465551
0
LINE
8
DEFAULT_255_2_778
10
9.4777532
20
32.5465551
11
9.4777532
21
30.8466551
0
LINE
8
DEFAULT_255_2_778
10
8.5620532
20
30.1968551
11
8.6353532
21
30.3431551
0
LINE
8
DEFAULT_255_2_778
10
12.2143532
20
30.8466551
11
9.2242532
21
30.8466551
0
LINE
8
DEFAULT_255_2_778
10
8.6353532
20
30.3428551
11
12.4048532
21
30.3428551
0
LINE
8
DEFAULT_255_2_778
10
12.4048532
20
30.3428551
11
12.3090532
21
30.7000551
0
LINE
8
DEFAULT_255_2_778
10
12.3090532
20
30.7000551
11
8.9276532
21
30.7000551
0
LINE
8
DEFAULT_255_2_778
10
8.9276532
20
30.7000551
11
8.6789532
21
30.4037551
0
LINE
8
DEFAULT_255_2_778
10
8.6789532
20
30.4037551
11
8.6789532
21
32.9892551
0
LINE
8
DEFAULT_255_2_778
10
8.6353532
20
33.0500551
11
12.4048532
21
33.0500551
0
LINE
8
DEFAULT_255_2_778
10
12.4048532
20
33.0500551
11
12.3090532
21
32.6928551
0
LINE
8
DEFAULT_255_2_778
10
12.3090532
20
32.6928551
11
8.9276532
21
32.6928551
0
LINE
8
DEFAULT_255_2_778
10
8.9276532
20
32.6928551
11
8.6789532
21
32.9892551
0
LINE
8
DEFAULT_255_2_778
10
8.5620532
20
33.1963551
11
8.6353532
21
33.0500551
0
LINE
8
DEFAULT_255_2_778
10
8.6353532
20
26.5328551
11
12.4048532
21
26.5328551
0
LINE
8
DEFAULT_255_2_778
10
12.4048532
20
26.5328551
11
12.3090532
21
26.8900551
0
LINE
8
DEFAULT_255_2_778
10
12.3090532
20
26.8900551
11
8.9276532
21
26.8900551
0
LINE
8
DEFAULT_255_2_778
10
8.9276532
20
26.8900551
11
8.6789532
21
26.5937551
0
LINE
8
DEFAULT_255_2_778
10
8.6789532
20
26.5937551
11
8.6789532
21
29.1792551
0
LINE
8
DEFAULT_255_2_778
10
8.6353532
20
29.2400551
11
12.4048532
21
29.2400551
0
LINE
8
DEFAULT_255_2_778
10
12.4048532
20
29.2400551
11
12.3090532
21
28.8828551
0
LINE
8
DEFAULT_255_2_778
10
12.3090532
20
28.8828551
11
8.9276532
21
28.8828551
0
LINE
8
DEFAULT_255_2_778
10
8.9276532
20
28.8828551
11
8.6789532
21
29.1792551
0
LINE
8
DEFAULT_255_2_778
10
8.5620532
20
29.3863551
11
8.6353532
21
29.2400551
0
LINE
8
DEFAULT_255_2_778
10
13.0654532
20
27.5978551
11
13.0654532
21
27.5975551
0
LINE
8
DEFAULT_255_2_778
10
12.8461532
20
29.3866551
11
12.8461532
21
26.3865551
0
LINE
8
DEFAULT_255_2_778
10
12.8461532
20
26.3865551
11
8.5620532
21
26.3865551
0
LINE
8
DEFAULT_255_2_778
10
8.5620532
20
26.3865551
11
8.5620532
21
29.3866551
0
LINE
8
DEFAULT_255_2_778
10
8.5620532
20
29.3866551
11
12.8461532
21
29.3866551
0
LINE
8
DEFAULT_255_2_778
10
12.1227532
20
27.0366551
11
12.1227532
21
28.7365551
0
LINE
8
DEFAULT_255_2_778
10
9.3951532
20
27.0366551
11
9.3951532
21
28.7365551
0
LINE
8
DEFAULT_255_2_778
10
9.2242532
20
28.7368551
11
12.2143532
21
28.7368551
0
LINE
8
DEFAULT_255_2_778
10
9.4777532
20
28.7368551
11
9.4777532
21
27.0368551
0
LINE
8
DEFAULT_255_2_778
10
8.5620532
20
26.3870551
11
8.6353532
21
26.5333551
0
LINE
8
DEFAULT_255_2_778
10
12.2143532
20
27.0368551
11
9.2242532
21
27.0368551
0
ARC
8
DEFAULT_255_2_778
10
12.5957249
20
24.0762227
40
0.5514782
50
328.403855
51
0.0119272
0
ARC
8
DEFAULT_255_2_778
10
12.5957252
20
24.0764524
40
0.551478
50
359.9880576
51
31.5961502
0
ARC
8
DEFAULT_255_2_778
10
13.1470298
20
24.076612
40
0.3000766
50
105.7745294
51
180.0237876
0
ARC
8
DEFAULT_255_2_778
10
13.1472653
20
24.0765409
40
0.3003121
50
180.0101933
51
254.1914653
0
ARC
8
DEFAULT_255_2_778
10
9.2224506
20
25.2968433
40
0.3705592
50
217.241949
51
270.0009231
0
ARC
8
DEFAULT_255_2_778
10
9.2225007
20
25.2804276
40
0.3541436
50
269.9928542
51
270.2511718
0
ARC
8
DEFAULT_255_2_778
10
12.1447311
20
25.0749592
40
0.1640392
50
294.998518
51
359.1715532
0
ARC
8
DEFAULT_255_2_778
10
12.5990039
20
25.4080191
40
0.1956991
50
120.6448499
51
173.5251583
0
ARC
8
DEFAULT_255_2_778
10
12.5990046
20
22.7449561
40
0.1956997
50
186.4748879
51
239.3550213
0
ARC
8
DEFAULT_255_2_778
10
12.1446191
20
23.077643
40
0.1641523
50
0.8532508
51
64.9767689
0
ARC
8
DEFAULT_255_2_778
10
9.2229096
20
22.8170594
40
0.4093302
50
89.8119351
51
89.9910399
0
ARC
8
DEFAULT_255_2_778
10
9.2228738
20
22.855838
40
0.3705517
50
89.9845613
51
142.8166504
0
ARC
8
DEFAULT_255_2_778
10
9.0653087
20
22.4608276
40
0.5033686
50
140.1334877
51
148.6666587
0
ARC
8
DEFAULT_255_2_778
10
9.0641916
20
25.6912768
40
0.5022739
50
211.3732531
51
219.9157596
0
LINE
8
DEFAULT_255_2_778
10
13.0654532
20
23.7875875
11
13.0654532
21
23.7872875
0
LINE
8
DEFAULT_255_2_778
10
12.1225532
20
23.2263875
11
12.1225532
21
24.9262875
0
LINE
8
DEFAULT_255_2_778
10
9.3949532
20
23.2263875
11
9.3949532
21
24.9262875
0
LINE
8
DEFAULT_255_2_778
10
9.2240532
20
24.9262875
11
12.2140532
21
24.9262875
0
LINE
8
DEFAULT_255_2_778
10
9.4774532
20
24.9262875
11
9.4774532
21
23.2263875
0
LINE
8
DEFAULT_255_2_778
10
8.5617532
20
22.5765875
11
8.6350532
21
22.7228875
0
LINE
8
DEFAULT_255_2_778
10
12.2140532
20
23.2263875
11
9.2242532
21
23.2263875
0
LINE
8
DEFAULT_255_2_778
10
8.6353532
20
22.7225875
11
12.4048532
21
22.7225875
0
LINE
8
DEFAULT_255_2_778
10
12.4048532
20
22.7225875
11
12.3090532
21
23.0797875
0
LINE
8
DEFAULT_255_2_778
10
12.3090532
20
23.0797875
11
8.9276532
21
23.0797875
0
LINE
8
DEFAULT_255_2_778
10
8.9276532
20
23.0797875
11
8.6789532
21
22.7834875
0
LINE
8
DEFAULT_255_2_778
10
8.6789532
20
22.7834875
11
8.6789532
21
25.3689875
0
LINE
8
DEFAULT_255_2_778
10
8.6353532
20
25.4297875
11
12.4048532
21
25.4297875
0
LINE
8
DEFAULT_255_2_778
10
12.4048532
20
25.4297875
11
12.3090532
21
25.0725875
0
LINE
8
DEFAULT_255_2_778
10
12.3090532
20
25.0725875
11
8.9276532
21
25.0725875
0
LINE
8
DEFAULT_255_2_778
10
8.9276532
20
25.0725875
11
8.6789532
21
25.3689875
0
LINE
8
DEFAULT_255_2_778
10
8.5620532
20
25.5760875
11
8.6353532
21
25.4297875
0
LINE
8
DEFAULT_255_2_778
10
12.8458532
20
25.5760875
11
12.8458532
21
22.5759875
0
LINE
8
DEFAULT_255_2_778
10
12.8458532
20
22.5759875
11
8.5620532
21
22.5759875
0
LINE
8
DEFAULT_255_2_778
10
8.5620532
20
22.5759875
11
8.5620532
21
25.5760875
0
LINE
8
DEFAULT_255_2_778
10
8.5620532
20
25.5760875
11
12.8458532
21
25.5760875
0
ARC
8
DEFAULT_255_2_778
10
9.065341
20
18.6510953
40
0.5033686
50
140.1334877
51
148.6666587
0
ARC
8
DEFAULT_255_2_778
10
9.0642238
20
21.8815445
40
0.5022739
50
211.3732531
51
219.9157596
0
ARC
8
DEFAULT_255_2_778
10
12.5958575
20
20.2664902
40
0.5514778
50
328.4038498
51
0.0119424
0
ARC
8
DEFAULT_255_2_778
10
12.5958572
20
20.26672
40
0.5514783
50
359.9880728
51
31.596145
0
ARC
8
DEFAULT_255_2_778
10
13.1470342
20
20.2668726
40
0.3000487
50
105.7506564
51
180.0224269
0
ARC
8
DEFAULT_255_2_778
10
13.1473875
20
20.2669049
40
0.300402
50
180.0285599
51
254.1983173
0
ARC
8
DEFAULT_255_2_778
10
9.2227829
20
21.487111
40
0.3705592
50
217.241949
51
270.0009231
0
ARC
8
DEFAULT_255_2_778
10
9.222833
20
21.4706953
40
0.3541436
50
269.9928542
51
270.2511718
0
ARC
8
DEFAULT_255_2_778
10
12.1450634
20
21.2652269
40
0.1640392
50
294.998518
51
359.1715532
0
ARC
8
DEFAULT_255_2_778
10
12.5993367
20
21.5982866
40
0.1956995
50
120.6449377
51
173.5251068
0
ARC
8
DEFAULT_255_2_778
10
12.5993369
20
18.9352238
40
0.1956997
50
186.4748879
51
239.3550213
0
ARC
8
DEFAULT_255_2_778
10
12.1449514
20
19.2679107
40
0.1641523
50
0.8532508
51
64.9767689
0
ARC
8
DEFAULT_255_2_778
10
9.2230406
20
19.0065156
40
0.4101417
50
89.8121196
51
89.991023
0
ARC
8
DEFAULT_255_2_778
10
9.2228643
20
19.0463915
40
0.370266
50
89.9627728
51
142.8386156
0
LINE
8
DEFAULT_255_2_778
10
8.6353855
20
18.9128552
11
12.4048855
21
18.9128552
0
LINE
8
DEFAULT_255_2_778
10
12.4048855
20
18.9128552
11
12.3090855
21
19.2700552
0
LINE
8
DEFAULT_255_2_778
10
12.3090855
20
19.2700552
11
8.9277855
21
19.2700552
0
LINE
8
DEFAULT_255_2_778
10
8.9277855
20
19.2700552
11
8.6789855
21
18.9737552
0
LINE
8
DEFAULT_255_2_778
10
8.6789855
20
18.9737552
11
8.6789855
21
21.5592552
0
LINE
8
DEFAULT_255_2_778
10
8.6353855
20
21.6200552
11
12.4048855
21
21.6200552
0
LINE
8
DEFAULT_255_2_778
10
12.4048855
20
21.6200552
11
12.3090855
21
21.2628552
0
LINE
8
DEFAULT_255_2_778
10
12.3090855
20
21.2628552
11
8.9277855
21
21.2628552
0
LINE
8
DEFAULT_255_2_778
10
8.9277855
20
21.2628552
11
8.6789855
21
21.5592552
0
LINE
8
DEFAULT_255_2_778
10
8.5620855
20
21.7663552
11
8.6353855
21
21.6200552
0
LINE
8
DEFAULT_255_2_778
10
13.0655855
20
19.9778552
11
13.0655855
21
19.9775552
0
LINE
8
DEFAULT_255_2_778
10
12.8461855
20
21.7666552
11
12.8461855
21
18.7665552
0
LINE
8
DEFAULT_255_2_778
10
12.8461855
20
18.7665552
11
8.5620855
21
18.7665552
0
LINE
8
DEFAULT_255_2_778
10
8.5620855
20
18.7665552
11
8.5620855
21
21.7666552
0
LINE
8
DEFAULT_255_2_778
10
8.5620855
20
21.7666552
11
12.8461855
21
21.7666552
0
LINE
8
DEFAULT_255_2_778
10
12.1228855
20
19.4166552
11
12.1228855
21
21.1165552
0
LINE
8
DEFAULT_255_2_778
10
9.3952855
20
19.4166552
11
9.3952855
21
21.1165552
0
LINE
8
DEFAULT_255_2_778
10
9.2243855
20
21.1165552
11
12.2143855
21
21.1165552
0
LINE
8
DEFAULT_255_2_778
10
9.4777855
20
21.1165552
11
9.4777855
21
19.4166552
0
LINE
8
DEFAULT_255_2_778
10
8.5620855
20
18.7668552
11
8.6353855
21
18.9131552
0
LINE
8
DEFAULT_255_2_778
10
12.2143855
20
19.4166552
11
9.2243855
21
19.4166552
0
ARC
8
DEFAULT_255_2_778
10
12.5957249
20
16.4562227
40
0.5514782
50
328.403855
51
0.0119272
0
ARC
8
DEFAULT_255_2_778
10
12.5957252
20
16.4564524
40
0.551478
50
359.9880576
51
31.5961502
0
ARC
8
DEFAULT_255_2_778
10
13.1470298
20
16.456612
40
0.3000766
50
105.7745294
51
180.0237876
0
ARC
8
DEFAULT_255_2_778
10
13.1472653
20
16.4565409
40
0.3003121
50
180.0101933
51
254.1914653
0
ARC
8
DEFAULT_255_2_778
10
9.2224506
20
17.6768433
40
0.3705592
50
217.241949
51
270.0009231
0
ARC
8
DEFAULT_255_2_778
10
9.2225007
20
17.6604276
40
0.3541436
50
269.9928542
51
270.2511718
0
ARC
8
DEFAULT_255_2_778
10
12.1447311
20
17.4549592
40
0.1640392
50
294.998518
51
359.1715532
0
ARC
8
DEFAULT_255_2_778
10
12.5990039
20
17.7880191
40
0.1956991
50
120.6448499
51
173.5251583
0
ARC
8
DEFAULT_255_2_778
10
12.5990046
20
15.1249561
40
0.1956997
50
186.4748879
51
239.3550213
0
ARC
8
DEFAULT_255_2_778
10
12.1446191
20
15.457643
40
0.1641523
50
0.8532508
51
64.9767689
0
ARC
8
DEFAULT_255_2_778
10
9.2229096
20
15.1970594
40
0.4093302
50
89.8119351
51
89.9910399
0
ARC
8
DEFAULT_255_2_778
10
9.2228738
20
15.235838
40
0.3705517
50
89.9845613
51
142.8166504
0
ARC
8
DEFAULT_255_2_778
10
9.0653087
20
14.8408276
40
0.5033686
50
140.1334877
51
148.6666587
0
ARC
8
DEFAULT_255_2_778
10
9.0641916
20
18.0712768
40
0.5022739
50
211.3732531
51
219.9157596
0
LINE
8
DEFAULT_255_2_778
10
13.0654532
20
16.1675875
11
13.0654532
21
16.1672875
0
LINE
8
DEFAULT_255_2_778
10
12.1225532
20
15.6063875
11
12.1225532
21
17.3062875
0
LINE
8
DEFAULT_255_2_778
10
9.3949532
20
15.6063875
11
9.3949532
21
17.3062875
0
LINE
8
DEFAULT_255_2_778
10
9.2240532
20
17.3062875
11
12.2140532
21
17.3062875
0
LINE
8
DEFAULT_255_2_778
10
9.4774532
20
17.3062875
11
9.4774532
21
15.6063875
0
LINE
8
DEFAULT_255_2_778
10
8.5617532
20
14.9565875
11
8.6350532
21
15.1028875
0
LINE
8
DEFAULT_255_2_778
10
12.2140532
20
15.6063875
11
9.2242532
21
15.6063875
0
LINE
8
DEFAULT_255_2_778
10
8.6353532
20
15.1025875
11
12.4048532
21
15.1025875
0
LINE
8
DEFAULT_255_2_778
10
12.4048532
20
15.1025875
11
12.3090532
21
15.4597875
0
LINE
8
DEFAULT_255_2_778
10
12.3090532
20
15.4597875
11
8.9276532
21
15.4597875
0
LINE
8
DEFAULT_255_2_778
10
8.9276532
20
15.4597875
11
8.6789532
21
15.1634875
0
LINE
8
DEFAULT_255_2_778
10
8.6789532
20
15.1634875
11
8.6789532
21
17.7489875
0
LINE
8
DEFAULT_255_2_778
10
8.6353532
20
17.8097875
11
12.4048532
21
17.8097875
0
LINE
8
DEFAULT_255_2_778
10
12.4048532
20
17.8097875
11
12.3090532
21
17.4525875
0
LINE
8
DEFAULT_255_2_778
10
12.3090532
20
17.4525875
11
8.9276532
21
17.4525875
0
LINE
8
DEFAULT_255_2_778
10
8.9276532
20
17.4525875
11
8.6789532
21
17.7489875
0
LINE
8
DEFAULT_255_2_778
10
8.5620532
20
17.9560875
11
8.6353532
21
17.8097875
0
LINE
8
DEFAULT_255_2_778
10
12.8458532
20
17.9560875
11
12.8458532
21
14.9559875
0
LINE
8
DEFAULT_255_2_778
10
12.8458532
20
14.9559875
11
8.5620532
21
14.9559875
0
LINE
8
DEFAULT_255_2_778
10
8.5620532
20
14.9559875
11
8.5620532
21
17.9560875
0
LINE
8
DEFAULT_255_2_778
10
8.5620532
20
17.9560875
11
12.8458532
21
17.9560875
0
ARC
8
DEFAULT_255_2_778
10
9.0653087
20
11.0310275
40
0.5033686
50
140.1334877
51
148.6666587
0
ARC
8
DEFAULT_255_2_778
10
9.0641916
20
14.2614767
40
0.5022739
50
211.3732531
51
219.9157596
0
ARC
8
DEFAULT_255_2_778
10
12.5957249
20
12.6464226
40
0.5514782
50
328.403855
51
0.0119272
0
ARC
8
DEFAULT_255_2_778
10
12.5957252
20
12.6466523
40
0.551478
50
359.9880576
51
31.5961502
0
ARC
8
DEFAULT_255_2_778
10
13.1470298
20
12.6468119
40
0.3000767
50
105.7745326
51
180.0237794
0
ARC
8
DEFAULT_255_2_778
10
13.1472653
20
12.6467409
40
0.3003121
50
180.0102098
51
254.1914589
0
ARC
8
DEFAULT_255_2_778
10
9.2227551
20
13.8667472
40
0.3704634
50
217.1957214
51
269.9852013
0
ARC
8
DEFAULT_255_2_778
10
9.2227035
20
13.8491652
40
0.3528813
50
269.9928417
51
270.251613
0
ARC
8
DEFAULT_255_2_778
10
12.1451431
20
13.6448867
40
0.1639262
50
294.9737142
51
359.1962956
0
ARC
8
DEFAULT_255_2_778
10
12.5993043
20
13.9779188
40
0.1956994
50
120.6449074
51
173.5251176
0
ARC
8
DEFAULT_255_2_778
10
12.5993044
20
11.314856
40
0.1956995
50
186.4748932
51
239.3550623
0
ARC
8
DEFAULT_255_2_778
10
12.1450304
20
11.647615
40
0.1640399
50
0.8286365
51
65.0013496
0
ARC
8
DEFAULT_255_2_778
10
9.2227036
20
11.4434172
40
0.3528735
50
89.748387
51
90.0071583
0
ARC
8
DEFAULT_255_2_778
10
9.2227355
20
11.4260194
40
0.3702714
50
90.0117608
51
142.8384197
0
ARC
8
DEFAULT_255_2_778
10
12.59563
20
8.8361496
40
0.5515732
50
328.4066293
51
359.9793245
0
LINE
8
DEFAULT_255_2_778
10
13.1472031
20
8.8359505
11
13.1472032
21
8.8362749
0
ARC
8
DEFAULT_255_2_778
10
12.5960152
20
8.8364343
40
0.551188
50
359.9834205
51
31.6046772
0
ARC
8
DEFAULT_255_2_778
10
13.1470299
20
8.8365119
40
0.3000767
50
105.774551
51
180.0237793
0
ARC
8
DEFAULT_255_2_778
10
13.1472654
20
8.8364409
40
0.3003123
50
180.0102181
51
254.1914376
0
ARC
8
DEFAULT_255_2_778
10
9.2224506
20
10.0570432
40
0.3705592
50
217.241949
51
270.0009231
0
ARC
8
DEFAULT_255_2_778
10
9.2225007
20
10.0406275
40
0.3541436
50
269.9928542
51
270.2511718
0
ARC
8
DEFAULT_255_2_778
10
12.1447317
20
9.8351588
40
0.1640387
50
294.9983712
51
359.1716502
0
ARC
8
DEFAULT_255_2_778
10
12.5990043
20
10.1682187
40
0.1956995
50
120.6449125
51
173.5251035
0
ARC
8
DEFAULT_255_2_778
10
12.5990043
20
7.505156
40
0.1956994
50
186.4748965
51
239.3550875
0
ARC
8
DEFAULT_255_2_778
10
12.1446191
20
7.8378429
40
0.1641523
50
0.8532508
51
64.9767689
0
ARC
8
DEFAULT_255_2_778
10
9.2229096
20
7.5772593
40
0.4093302
50
89.8119351
51
89.9910399
0
ARC
8
DEFAULT_255_2_778
10
9.2228738
20
7.6160379
40
0.3705517
50
89.9845613
51
142.8166504
0
ARC
8
DEFAULT_255_2_778
10
9.0653087
20
7.2210275
40
0.5033686
50
140.1334877
51
148.6666587
0
ARC
8
DEFAULT_255_2_778
10
9.0641916
20
10.4514767
40
0.5022739
50
211.3732531
51
219.9157596
0
ARC
8
DEFAULT_255_2_778
10
12.59563
20
5.0261496
40
0.5515732
50
328.4066293
51
359.9793245
0
LINE
8
DEFAULT_255_2_778
10
13.1472031
20
5.0259505
11
13.1472032
21
5.0262749
0
ARC
8
DEFAULT_255_2_778
10
12.5960152
20
5.0264343
40
0.551188
50
359.9834205
51
31.6046772
0
ARC
8
DEFAULT_255_2_778
10
13.1470296
20
5.0265121
40
0.3000764
50
105.7745017
51
180.0238123
0
ARC
8
DEFAULT_255_2_778
10
13.1472654
20
5.0264409
40
0.3003123
50
180.0102181
51
254.1914376
0
ARC
8
DEFAULT_255_2_778
10
9.2224506
20
6.2470432
40
0.3705592
50
217.241949
51
270.0009231
0
ARC
8
DEFAULT_255_2_778
10
9.2225007
20
6.2306275
40
0.3541436
50
269.9928542
51
270.2511718
0
ARC
8
DEFAULT_255_2_778
10
12.1447313
20
6.025159
40
0.1640389
50
294.9984604
51
359.171602
0
ARC
8
DEFAULT_255_2_778
10
12.5990044
20
6.3582187
40
0.1956995
50
120.6449377
51
173.5251068
0
ARC
8
DEFAULT_255_2_778
10
12.5990046
20
3.695156
40
0.1956997
50
186.4748879
51
239.3550213
0
ARC
8
DEFAULT_255_2_778
10
9.0638916
20
3.411598
40
0.5022739
50
140.0842404
51
148.6267469
0
ARC
8
DEFAULT_255_2_778
10
9.0653087
20
6.6420472
40
0.5033686
50
211.3333413
51
219.8665123
0
ARC
8
DEFAULT_255_2_778
10
12.1449187
20
4.0278426
40
0.1641527
50
0.8533356
51
64.9766753
0
ARC
8
DEFAULT_255_2_778
10
9.2229096
20
3.7672593
40
0.4093302
50
89.8119351
51
89.9910399
0
ARC
8
DEFAULT_255_2_778
10
9.2228738
20
3.8060379
40
0.3705517
50
89.9845613
51
142.8166504
0
LINE
8
DEFAULT_255_2_778
10
8.6353532
20
11.2927874
11
12.4048532
21
11.2927874
0
LINE
8
DEFAULT_255_2_778
10
12.4048532
20
11.2927874
11
12.3090532
21
11.6499874
0
LINE
8
DEFAULT_255_2_778
10
12.3090532
20
11.6499874
11
8.9276532
21
11.6499874
0
LINE
8
DEFAULT_255_2_778
10
8.9276532
20
11.6499874
11
8.6789532
21
11.3536874
0
LINE
8
DEFAULT_255_2_778
10
8.6789532
20
11.3536874
11
8.6789532
21
13.9391874
0
LINE
8
DEFAULT_255_2_778
10
8.6353532
20
13.9999874
11
12.4048532
21
13.9999874
0
LINE
8
DEFAULT_255_2_778
10
12.4048532
20
13.9999874
11
12.3090532
21
13.6427874
0
LINE
8
DEFAULT_255_2_778
10
12.3090532
20
13.6427874
11
8.9276532
21
13.6427874
0
LINE
8
DEFAULT_255_2_778
10
8.9276532
20
13.6427874
11
8.6789532
21
13.9391874
0
LINE
8
DEFAULT_255_2_778
10
8.5620532
20
14.1462874
11
8.6353532
21
13.9999874
0
LINE
8
DEFAULT_255_2_778
10
13.0654532
20
12.3577874
11
13.0654532
21
12.3574874
0
LINE
8
DEFAULT_255_2_778
10
12.8461532
20
14.1465874
11
12.8461532
21
11.1464874
0
LINE
8
DEFAULT_255_2_778
10
12.8461532
20
11.1464874
11
8.5620532
21
11.1464874
0
LINE
8
DEFAULT_255_2_778
10
8.5620532
20
11.1464874
11
8.5620532
21
14.1465874
0
LINE
8
DEFAULT_255_2_778
10
8.5620532
20
14.1465874
11
12.8461532
21
14.1465874
0
LINE
8
DEFAULT_255_2_778
10
12.1227532
20
11.7965874
11
12.1227532
21
13.4964874
0
LINE
8
DEFAULT_255_2_778
10
9.3951532
20
11.7965874
11
9.3951532
21
13.4964874
0
LINE
8
DEFAULT_255_2_778
10
9.2242532
20
13.4962874
11
12.2143532
21
13.4962874
0
LINE
8
DEFAULT_255_2_778
10
9.4777532
20
13.4962874
11
9.4777532
21
11.7962874
0
LINE
8
DEFAULT_255_2_778
10
8.5620532
20
11.1464874
11
8.6353532
21
11.2927874
0
LINE
8
DEFAULT_255_2_778
10
12.2143532
20
11.7962874
11
9.2242532
21
11.7962874
0
LINE
8
DEFAULT_255_2_778
10
13.0654532
20
8.5474874
11
13.0654532
21
8.5471874
0
LINE
8
DEFAULT_255_2_778
10
12.1225532
20
7.9862874
11
12.1225532
21
9.6862874
0
LINE
8
DEFAULT_255_2_778
10
9.3949532
20
7.9862874
11
9.3949532
21
9.6862874
0
LINE
8
DEFAULT_255_2_778
10
9.2240532
20
9.6864874
11
12.2140532
21
9.6864874
0
LINE
8
DEFAULT_255_2_778
10
9.4774532
20
9.6864874
11
9.4774532
21
7.9865874
0
LINE
8
DEFAULT_255_2_778
10
8.5617532
20
7.3367874
11
8.6350532
21
7.4830874
0
LINE
8
DEFAULT_255_2_778
10
12.2140532
20
7.9865874
11
9.2242532
21
7.9865874
0
LINE
8
DEFAULT_255_2_778
10
8.6353532
20
7.4827874
11
12.4048532
21
7.4827874
0
LINE
8
DEFAULT_255_2_778
10
12.4048532
20
7.4827874
11
12.3090532
21
7.8399874
0
LINE
8
DEFAULT_255_2_778
10
12.3090532
20
7.8399874
11
8.9276532
21
7.8399874
0
LINE
8
DEFAULT_255_2_778
10
8.9276532
20
7.8399874
11
8.6789532
21
7.5436874
0
LINE
8
DEFAULT_255_2_778
10
8.6789532
20
7.5436874
11
8.6789532
21
10.1291874
0
LINE
8
DEFAULT_255_2_778
10
8.6353532
20
10.1899874
11
12.4048532
21
10.1899874
0
LINE
8
DEFAULT_255_2_778
10
12.4048532
20
10.1899874
11
12.3090532
21
9.8327874
0
LINE
8
DEFAULT_255_2_778
10
12.3090532
20
9.8327874
11
8.9276532
21
9.8327874
0
LINE
8
DEFAULT_255_2_778
10
8.9276532
20
9.8327874
11
8.6789532
21
10.1291874
0
LINE
8
DEFAULT_255_2_778
10
8.5620532
20
10.3362874
11
8.6353532
21
10.1899874
0
LINE
8
DEFAULT_255_2_778
10
12.8458532
20
7.3364874
11
8.5620532
21
7.3364874
0
LINE
8
DEFAULT_255_2_778
10
8.5620532
20
7.3364874
11
8.5620532
21
10.3365874
0
LINE
8
DEFAULT_255_2_778
10
8.5620532
20
10.3365874
11
12.8458532
21
10.3365874
0
LINE
8
DEFAULT_255_2_778
10
12.8458532
20
10.3365874
11
12.8458532
21
7.3364874
0
LINE
8
DEFAULT_255_2_778
10
13.0654532
20
4.7374874
11
13.0654532
21
4.7371874
0
LINE
8
DEFAULT_255_2_778
10
12.1225532
20
4.1762874
11
12.1225532
21
5.8762874
0
LINE
8
DEFAULT_255_2_778
10
9.3949532
20
4.1762874
11
9.3949532
21
5.8762874
0
LINE
8
DEFAULT_255_2_778
10
9.2240532
20
5.8764874
11
12.2140532
21
5.8764874
0
LINE
8
DEFAULT_255_2_778
10
9.4774532
20
5.8764874
11
9.4774532
21
4.1765874
0
LINE
8
DEFAULT_255_2_778
10
8.5617532
20
3.5267874
11
8.6350532
21
3.6730874
0
LINE
8
DEFAULT_255_2_778
10
8.6350532
20
3.6730874
11
12.4045532
21
3.6730874
0
LINE
8
DEFAULT_255_2_778
10
12.4045532
20
3.6730874
11
12.3087532
21
4.0302874
0
LINE
8
DEFAULT_255_2_778
10
12.3087532
20
4.0302874
11
8.9276532
21
4.0302874
0
LINE
8
DEFAULT_255_2_778
10
8.9276532
20
4.0302874
11
8.6789532
21
3.7338874
0
LINE
8
DEFAULT_255_2_778
10
8.6789532
20
3.7338874
11
8.6789532
21
6.3193874
0
LINE
8
DEFAULT_255_2_778
10
8.6353532
20
6.3802874
11
12.4048532
21
6.3802874
0
LINE
8
DEFAULT_255_2_778
10
12.4048532
20
6.3802874
11
12.3090532
21
6.0230874
0
LINE
8
DEFAULT_255_2_778
10
12.3090532
20
6.0230874
11
8.9276532
21
6.0230874
0
LINE
8
DEFAULT_255_2_778
10
8.9276532
20
6.0230874
11
8.6789532
21
6.3193874
0
LINE
8
DEFAULT_255_2_778
10
8.5620532
20
6.5265874
11
8.6353532
21
6.3802874
0
LINE
8
DEFAULT_255_2_778
10
12.2143532
20
4.1765874
11
9.2242532
21
4.1765874
0
LINE
8
DEFAULT_255_2_778
10
12.8461532
20
6.5262874
11
12.8461532
21
3.5261874
0
LINE
8
DEFAULT_255_2_778
10
12.8461532
20
3.5261874
11
8.5620532
21
3.5261874
0
LINE
8
DEFAULT_255_2_778
10
8.5620532
20
3.5261874
11
8.5620532
21
6.5262874
0
LINE
8
DEFAULT_255_2_778
10
8.5620532
20
6.5262874
11
12.8461532
21
6.5262874
0
ARC
8
DEFAULT_255_2_778
10
16.2592967
20
24.0793955
40
1.297198
50
148.2770855
51
180.1324007
0
ARC
8
DEFAULT_255_2_778
10
16.2584449
20
24.0799122
40
1.2962017
50
97.0226393
51
148.276717
0
ARC
8
DEFAULT_255_2_778
10
16.2616539
20
24.0521442
40
1.3241537
50
89.9849309
51
97.0135513
0
ARC
8
DEFAULT_255_2_778
10
16.2649997
20
24.0791033
40
1.297198
50
58.2770855
51
90.1324007
0
ARC
8
DEFAULT_255_2_778
10
16.2655165
20
24.0799551
40
1.2962017
50
7.0226393
51
58.276717
0
ARC
8
DEFAULT_255_2_778
10
16.2377484
20
24.0767461
40
1.3241537
50
359.9849309
51
7.0135513
0
ARC
8
DEFAULT_255_2_778
10
16.2647076
20
24.0734003
40
1.297198
50
328.2770855
51
0.1324007
0
ARC
8
DEFAULT_255_2_778
10
16.2655594
20
24.0728835
40
1.2962017
50
277.0226393
51
328.276717
0
ARC
8
DEFAULT_255_2_778
10
16.2623504
20
24.1006516
40
1.3241537
50
269.9849309
51
277.0135513
0
ARC
8
DEFAULT_255_2_778
10
16.2590045
20
24.0736924
40
1.297198
50
238.2770855
51
270.1324007
0
ARC
8
DEFAULT_255_2_778
10
16.2584878
20
24.0728406
40
1.2962017
50
187.0226393
51
238.276717
0
ARC
8
DEFAULT_255_2_778
10
16.2862558
20
24.0760496
40
1.3241537
50
179.9849309
51
187.0135513
0
LINE
8
DEFAULT_255_2_778
10
14.9621021
20
24.0763979
11
14.9621021
21
24.0763979
0
ARC
8
DEFAULT_255_2_778
10
16.2592967
20
5.0293955
40
1.297198
50
148.2770855
51
180.1324007
0
ARC
8
DEFAULT_255_2_778
10
16.2584449
20
5.0299122
40
1.2962017
50
97.0226393
51
148.276717
0
ARC
8
DEFAULT_255_2_778
10
16.2616539
20
5.0021442
40
1.3241537
50
89.9849309
51
97.0135513
0
ARC
8
DEFAULT_255_2_778
10
16.2649997
20
5.0291033
40
1.297198
50
58.2770855
51
90.1324007
0
ARC
8
DEFAULT_255_2_778
10
16.2655165
20
5.0299551
40
1.2962017
50
7.0226393
51
58.276717
0
ARC
8
DEFAULT_255_2_778
10
16.2377484
20
5.0267461
40
1.3241537
50
359.9849309
51
7.0135513
0
ARC
8
DEFAULT_255_2_778
10
16.2647076
20
5.0234003
40
1.297198
50
328.2770855
51
0.1324007
0
ARC
8
DEFAULT_255_2_778
10
16.2655594
20
5.0228835
40
1.2962017
50
277.0226393
51
328.276717
0
ARC
8
DEFAULT_255_2_778
10
16.2623504
20
5.0506516
40
1.3241537
50
269.9849309
51
277.0135513
0
ARC
8
DEFAULT_255_2_778
10
16.2590045
20
5.0236924
40
1.297198
50
238.2770855
51
270.1324007
0
ARC
8
DEFAULT_255_2_778
10
16.2584878
20
5.0228406
40
1.2962017
50
187.0226393
51
238.276717
0
ARC
8
DEFAULT_255_2_778
10
16.2862558
20
5.0260496
40
1.3241537
50
179.9849309
51
187.0135513
0
LINE
8
DEFAULT_255_2_778
10
14.9621021
20
5.0263979
11
14.9621021
21
5.0263979
0
LINE
8
DEFAULT_255_2_778
10
15.1833021
20
4.3011979
11
16.9875021
21
6.1053979
0
LINE
8
DEFAULT_255_2_778
10
17.3410021
20
5.7518979
11
15.5368021
21
3.9476979
0
ARC
8
DEFAULT_255_2_778
10
16.2592967
20
8.8393955
40
1.297198
50
148.2770855
51
180.1324007
0
ARC
8
DEFAULT_255_2_778
10
16.2584449
20
8.8399122
40
1.2962017
50
97.0226393
51
148.276717
0
ARC
8
DEFAULT_255_2_778
10
16.2616539
20
8.8121442
40
1.3241537
50
89.9849309
51
97.0135513
0
ARC
8
DEFAULT_255_2_778
10
16.2649997
20
8.8391033
40
1.297198
50
58.2770855
51
90.1324007
0
ARC
8
DEFAULT_255_2_778
10
16.2655165
20
8.8399551
40
1.2962017
50
7.0226393
51
58.276717
0
ARC
8
DEFAULT_255_2_778
10
16.2377484
20
8.8367461
40
1.3241537
50
359.9849309
51
7.0135513
0
ARC
8
DEFAULT_255_2_778
10
16.2647076
20
8.8334003
40
1.297198
50
328.2770855
51
0.1324007
0
ARC
8
DEFAULT_255_2_778
10
16.2655594
20
8.8328835
40
1.2962017
50
277.0226393
51
328.276717
0
ARC
8
DEFAULT_255_2_778
10
16.2623504
20
8.8606516
40
1.3241537
50
269.9849309
51
277.0135513
0
ARC
8
DEFAULT_255_2_778
10
16.2590045
20
8.8336924
40
1.297198
50
238.2770855
51
270.1324007
0
ARC
8
DEFAULT_255_2_778
10
16.2584878
20
8.8328406
40
1.2962017
50
187.0226393
51
238.276717
0
ARC
8
DEFAULT_255_2_778
10
16.2862558
20
8.8360496
40
1.3241537
50
179.9849309
51
187.0135513
0
LINE
8
DEFAULT_255_2_778
10
14.9621021
20
8.8363979
11
14.9621021
21
8.8363979
0
LINE
8
DEFAULT_255_2_778
10
15.1833021
20
8.1111979
11
16.9875021
21
9.9153979
0
LINE
8
DEFAULT_255_2_778
10
17.3410021
20
9.5618979
11
15.5368021
21
7.7576979
0
ARC
8
DEFAULT_255_2_778
10
16.2592967
20
12.6493955
40
1.297198
50
148.2770855
51
180.1324007
0
ARC
8
DEFAULT_255_2_778
10
16.2584449
20
12.6499122
40
1.2962017
50
97.0226393
51
148.276717
0
ARC
8
DEFAULT_255_2_778
10
16.2616539
20
12.6221442
40
1.3241537
50
89.9849309
51
97.0135513
0
ARC
8
DEFAULT_255_2_778
10
16.2649997
20
12.6491033
40
1.297198
50
58.2770855
51
90.1324007
0
ARC
8
DEFAULT_255_2_778
10
16.2655165
20
12.6499551
40
1.2962017
50
7.0226393
51
58.276717
0
ARC
8
DEFAULT_255_2_778
10
16.2377484
20
12.6467461
40
1.3241537
50
359.9849309
51
7.0135513
0
ARC
8
DEFAULT_255_2_778
10
16.2647076
20
12.6434003
40
1.297198
50
328.2770855
51
0.1324007
0
ARC
8
DEFAULT_255_2_778
10
16.2655594
20
12.6428835
40
1.2962017
50
277.0226393
51
328.276717
0
ARC
8
DEFAULT_255_2_778
10
16.2623504
20
12.6706516
40
1.3241537
50
269.9849309
51
277.0135513
0
ARC
8
DEFAULT_255_2_778
10
16.2590045
20
12.6436924
40
1.297198
50
238.2770855
51
270.1324007
0
ARC
8
DEFAULT_255_2_778
10
16.2584878
20
12.6428406
40
1.2962017
50
187.0226393
51
238.276717
0
ARC
8
DEFAULT_255_2_778
10
16.2862558
20
12.6460496
40
1.3241537
50
179.9849309
51
187.0135513
0
LINE
8
DEFAULT_255_2_778
10
14.9621021
20
12.6463979
11
14.9621021
21
12.6463979
0
LINE
8
DEFAULT_255_2_778
10
15.1833021
20
11.9211979
11
16.9875021
21
13.7253979
0
LINE
8
DEFAULT_255_2_778
10
17.3410021
20
13.3718979
11
15.5368021
21
11.5676979
0
ARC
8
DEFAULT_255_2_778
10
16.2592967
20
16.4593955
40
1.297198
50
148.2770855
51
180.1324007
0
ARC
8
DEFAULT_255_2_778
10
16.2584449
20
16.4599122
40
1.2962017
50
97.0226393
51
148.276717
0
ARC
8
DEFAULT_255_2_778
10
16.2616539
20
16.4321442
40
1.3241537
50
89.9849309
51
97.0135513
0
ARC
8
DEFAULT_255_2_778
10
16.2649997
20
16.4591033
40
1.297198
50
58.2770855
51
90.1324007
0
ARC
8
DEFAULT_255_2_778
10
16.2655165
20
16.4599551
40
1.2962017
50
7.0226393
51
58.276717
0
ARC
8
DEFAULT_255_2_778
10
16.2377484
20
16.4567461
40
1.3241537
50
359.9849309
51
7.0135513
0
ARC
8
DEFAULT_255_2_778
10
16.2647076
20
16.4534003
40
1.297198
50
328.2770855
51
0.1324007
0
ARC
8
DEFAULT_255_2_778
10
16.2655594
20
16.4528835
40
1.2962017
50
277.0226393
51
328.276717
0
ARC
8
DEFAULT_255_2_778
10
16.2623504
20
16.4806516
40
1.3241537
50
269.9849309
51
277.0135513
0
ARC
8
DEFAULT_255_2_778
10
16.2590045
20
16.4536924
40
1.297198
50
238.2770855
51
270.1324007
0
ARC
8
DEFAULT_255_2_778
10
16.2584878
20
16.4528406
40
1.2962017
50
187.0226393
51
238.276717
0
ARC
8
DEFAULT_255_2_778
10
16.2862558
20
16.4560496
40
1.3241537
50
179.9849309
51
187.0135513
0
LINE
8
DEFAULT_255_2_778
10
14.9621021
20
16.4563979
11
14.9621021
21
16.4563979
0
LINE
8
DEFAULT_255_2_778
10
15.1833021
20
15.7311979
11
16.9875021
21
17.5353979
0
LINE
8
DEFAULT_255_2_778
10
17.3410021
20
17.1818979
11
15.5368021
21
15.3776979
0
ARC
8
DEFAULT_255_2_778
10
16.2592967
20
20.2693955
40
1.297198
50
148.2770855
51
180.1324007
0
ARC
8
DEFAULT_255_2_778
10
16.2584449
20
20.2699122
40
1.2962017
50
97.0226393
51
148.276717
0
ARC
8
DEFAULT_255_2_778
10
16.2616539
20
20.2421442
40
1.3241537
50
89.9849309
51
97.0135513
0
ARC
8
DEFAULT_255_2_778
10
16.2649997
20
20.2691033
40
1.297198
50
58.2770855
51
90.1324007
0
ARC
8
DEFAULT_255_2_778
10
16.2655165
20
20.2699551
40
1.2962017
50
7.0226393
51
58.276717
0
ARC
8
DEFAULT_255_2_778
10
16.2377484
20
20.2667461
40
1.3241537
50
359.9849309
51
7.0135513
0
ARC
8
DEFAULT_255_2_778
10
16.2647076
20
20.2634003
40
1.297198
50
328.2770855
51
0.1324007
0
ARC
8
DEFAULT_255_2_778
10
16.2655594
20
20.2628835
40
1.2962017
50
277.0226393
51
328.276717
0
ARC
8
DEFAULT_255_2_778
10
16.2623504
20
20.2906516
40
1.3241537
50
269.9849309
51
277.0135513
0
ARC
8
DEFAULT_255_2_778
10
16.2590045
20
20.2636924
40
1.297198
50
238.2770855
51
270.1324007
0
ARC
8
DEFAULT_255_2_778
10
16.2584878
20
20.2628406
40
1.2962017
50
187.0226393
51
238.276717
0
ARC
8
DEFAULT_255_2_778
10
16.2862558
20
20.2660496
40
1.3241537
50
179.9849309
51
187.0135513
0
LINE
8
DEFAULT_255_2_778
10
14.9621021
20
20.2663979
11
14.9621021
21
20.2663979
0
LINE
8
DEFAULT_255_2_778
10
15.1833021
20
19.5411979
11
16.9875021
21
21.3453979
0
LINE
8
DEFAULT_255_2_778
10
17.3410021
20
20.9918979
11
15.5368021
21
19.1876979
0
LINE
8
DEFAULT_255_2_778
10
15.1832615
20
23.3509385
11
16.9874615
21
25.1551385
0
LINE
8
DEFAULT_255_2_778
10
17.3409615
20
24.8016385
11
15.5367615
21
22.9974385
0
ARC
8
DEFAULT_255_2_778
10
16.2592967
20
27.8893955
40
1.297198
50
148.2770855
51
180.1324007
0
ARC
8
DEFAULT_255_2_778
10
16.2584449
20
27.8899122
40
1.2962017
50
97.0226393
51
148.276717
0
ARC
8
DEFAULT_255_2_778
10
16.2616539
20
27.8621442
40
1.3241537
50
89.9849309
51
97.0135513
0
ARC
8
DEFAULT_255_2_778
10
16.2649997
20
27.8891033
40
1.297198
50
58.2770855
51
90.1324007
0
ARC
8
DEFAULT_255_2_778
10
16.2655165
20
27.8899551
40
1.2962017
50
7.0226393
51
58.276717
0
ARC
8
DEFAULT_255_2_778
10
16.2377484
20
27.8867461
40
1.3241537
50
359.9849309
51
7.0135513
0
ARC
8
DEFAULT_255_2_778
10
16.2647076
20
27.8834003
40
1.297198
50
328.2770855
51
0.1324007
0
ARC
8
DEFAULT_255_2_778
10
16.2655594
20
27.8828835
40
1.2962017
50
277.0226393
51
328.276717
0
ARC
8
DEFAULT_255_2_778
10
16.2623504
20
27.9106516
40
1.3241537
50
269.9849309
51
277.0135513
0
ARC
8
DEFAULT_255_2_778
10
16.2590045
20
27.8836924
40
1.297198
50
238.2770855
51
270.1324007
0
ARC
8
DEFAULT_255_2_778
10
16.2584878
20
27.8828406
40
1.2962017
50
187.0226393
51
238.276717
0
ARC
8
DEFAULT_255_2_778
10
16.2862558
20
27.8860496
40
1.3241537
50
179.9849309
51
187.0135513
0
LINE
8
DEFAULT_255_2_778
10
14.9621021
20
27.8863979
11
14.9621021
21
27.8863979
0
LINE
8
DEFAULT_255_2_778
10
15.1833021
20
27.1611979
11
16.9875021
21
28.9653979
0
LINE
8
DEFAULT_255_2_778
10
17.3410021
20
28.6118979
11
15.5368021
21
26.8076979
0
ARC
8
DEFAULT_255_2_778
10
16.2592967
20
31.6993955
40
1.297198
50
148.2770855
51
180.1324007
0
ARC
8
DEFAULT_255_2_778
10
16.2584449
20
31.6999122
40
1.2962017
50
97.0226393
51
148.276717
0
ARC
8
DEFAULT_255_2_778
10
16.2616539
20
31.6721442
40
1.3241537
50
89.9849309
51
97.0135513
0
ARC
8
DEFAULT_255_2_778
10
16.2649997
20
31.6991033
40
1.297198
50
58.2770855
51
90.1324007
0
ARC
8
DEFAULT_255_2_778
10
16.2655165
20
31.6999551
40
1.2962017
50
7.0226393
51
58.276717
0
ARC
8
DEFAULT_255_2_778
10
16.2377484
20
31.6967461
40
1.3241537
50
359.9849309
51
7.0135513
0
ARC
8
DEFAULT_255_2_778
10
16.2647076
20
31.6934003
40
1.297198
50
328.2770855
51
0.1324007
0
ARC
8
DEFAULT_255_2_778
10
16.2655594
20
31.6928835
40
1.2962017
50
277.0226393
51
328.276717
0
ARC
8
DEFAULT_255_2_778
10
16.2623504
20
31.7206516
40
1.3241537
50
269.9849309
51
277.0135513
0
ARC
8
DEFAULT_255_2_778
10
16.2590045
20
31.6936924
40
1.297198
50
238.2770855
51
270.1324007
0
ARC
8
DEFAULT_255_2_778
10
16.2584878
20
31.6928406
40
1.2962017
50
187.0226393
51
238.276717
0
ARC
8
DEFAULT_255_2_778
10
16.2862558
20
31.6960496
40
1.3241537
50
179.9849309
51
187.0135513
0
LINE
8
DEFAULT_255_2_778
10
14.9621021
20
31.6963979
11
14.9621021
21
31.6963979
0
LINE
8
DEFAULT_255_2_778
10
15.1833021
20
30.9711979
11
16.9875021
21
32.7753979
0
LINE
8
DEFAULT_255_2_778
10
17.3410021
20
32.4218979
11
15.5368021
21
30.6176979
0
ARC
8
DEFAULT_255_2_778
10
16.2592967
20
35.5093955
40
1.297198
50
148.2770855
51
180.1324007
0
ARC
8
DEFAULT_255_2_778
10
16.2584449
20
35.5099122
40
1.2962017
50
97.0226393
51
148.276717
0
ARC
8
DEFAULT_255_2_778
10
16.2616539
20
35.4821442
40
1.3241537
50
89.9849309
51
97.0135513
0
ARC
8
DEFAULT_255_2_778
10
16.2649997
20
35.5091033
40
1.297198
50
58.2770855
51
90.1324007
0
ARC
8
DEFAULT_255_2_778
10
16.2655165
20
35.5099551
40
1.2962017
50
7.0226393
51
58.276717
0
ARC
8
DEFAULT_255_2_778
10
16.2377484
20
35.5067461
40
1.3241537
50
359.9849309
51
7.0135513
0
ARC
8
DEFAULT_255_2_778
10
16.2647076
20
35.5034003
40
1.297198
50
328.2770855
51
0.1324007
0
ARC
8
DEFAULT_255_2_778
10
16.2655594
20
35.5028835
40
1.2962017
50
277.0226393
51
328.276717
0
ARC
8
DEFAULT_255_2_778
10
16.2623504
20
35.5306516
40
1.3241537
50
269.9849309
51
277.0135513
0
ARC
8
DEFAULT_255_2_778
10
16.2590045
20
35.5036924
40
1.297198
50
238.2770855
51
270.1324007
0
ARC
8
DEFAULT_255_2_778
10
16.2584878
20
35.5028406
40
1.2962017
50
187.0226393
51
238.276717
0
ARC
8
DEFAULT_255_2_778
10
16.2862558
20
35.5060496
40
1.3241537
50
179.9849309
51
187.0135513
0
LINE
8
DEFAULT_255_2_778
10
14.9621021
20
35.5063979
11
14.9621021
21
35.5063979
0
LINE
8
DEFAULT_255_2_778
10
15.1833021
20
34.7811979
11
16.9875021
21
36.5853979
0
LINE
8
DEFAULT_255_2_778
10
17.3410021
20
36.2318979
11
15.5368021
21
34.4276979
0
ARC
8
DEFAULT_255_2_778
10
16.2592967
20
39.3193955
40
1.297198
50
148.2770855
51
180.1324007
0
ARC
8
DEFAULT_255_2_778
10
16.2584449
20
39.3199122
40
1.2962017
50
97.0226393
51
148.276717
0
ARC
8
DEFAULT_255_2_778
10
16.2616539
20
39.2921442
40
1.3241537
50
89.9849309
51
97.0135513
0
ARC
8
DEFAULT_255_2_778
10
16.2649997
20
39.3191033
40
1.297198
50
58.2770855
51
90.1324007
0
ARC
8
DEFAULT_255_2_778
10
16.2655165
20
39.3199551
40
1.2962017
50
7.0226393
51
58.276717
0
ARC
8
DEFAULT_255_2_778
10
16.2377484
20
39.3167461
40
1.3241537
50
359.9849309
51
7.0135513
0
ARC
8
DEFAULT_255_2_778
10
16.2647076
20
39.3134003
40
1.297198
50
328.2770855
51
0.1324007
0
ARC
8
DEFAULT_255_2_778
10
16.2655594
20
39.3128835
40
1.2962017
50
277.0226393
51
328.276717
0
ARC
8
DEFAULT_255_2_778
10
16.2623504
20
39.3406516
40
1.3241537
50
269.9849309
51
277.0135513
0
ARC
8
DEFAULT_255_2_778
10
16.2590045
20
39.3136924
40
1.297198
50
238.2770855
51
270.1324007
0
ARC
8
DEFAULT_255_2_778
10
16.2584878
20
39.3128406
40
1.2962017
50
187.0226393
51
238.276717
0
ARC
8
DEFAULT_255_2_778
10
16.2862558
20
39.3160496
40
1.3241537
50
179.9849309
51
187.0135513
0
LINE
8
DEFAULT_255_2_778
10
14.9621021
20
39.3163979
11
14.9621021
21
39.3163979
0
LINE
8
DEFAULT_255_2_778
10
15.1833021
20
38.5911979
11
16.9875021
21
40.3953979
0
LINE
8
DEFAULT_255_2_778
10
17.3410021
20
40.0418979
11
15.5368021
21
38.2376979
0
ARC
8
DEFAULT_255_2_778
10
16.2592967
20
46.9393955
40
1.297198
50
148.2770855
51
180.1324007
0
ARC
8
DEFAULT_255_2_778
10
16.2584449
20
46.9399122
40
1.2962017
50
97.0226393
51
148.276717
0
ARC
8
DEFAULT_255_2_778
10
16.2616539
20
46.9121442
40
1.3241537
50
89.9849309
51
97.0135513
0
ARC
8
DEFAULT_255_2_778
10
16.2649997
20
46.9391033
40
1.297198
50
58.2770855
51
90.1324007
0
ARC
8
DEFAULT_255_2_778
10
16.2655165
20
46.9399551
40
1.2962017
50
7.0226393
51
58.276717
0
ARC
8
DEFAULT_255_2_778
10
16.2377484
20
46.9367461
40
1.3241537
50
359.9849309
51
7.0135513
0
ARC
8
DEFAULT_255_2_778
10
16.2647076
20
46.9334003
40
1.297198
50
328.2770855
51
0.1324007
0
ARC
8
DEFAULT_255_2_778
10
16.2655594
20
46.9328835
40
1.2962017
50
277.0226393
51
328.276717
0
ARC
8
DEFAULT_255_2_778
10
16.2623504
20
46.9606516
40
1.3241537
50
269.9849309
51
277.0135513
0
ARC
8
DEFAULT_255_2_778
10
16.2590045
20
46.9336924
40
1.297198
50
238.2770855
51
270.1324007
0
ARC
8
DEFAULT_255_2_778
10
16.2584878
20
46.9328406
40
1.2962017
50
187.0226393
51
238.276717
0
ARC
8
DEFAULT_255_2_778
10
16.2862558
20
46.9360496
40
1.3241537
50
179.9849309
51
187.0135513
0
LINE
8
DEFAULT_255_2_778
10
14.9621021
20
46.9363979
11
14.9621021
21
46.9363979
0
LINE
8
DEFAULT_255_2_778
10
15.1833021
20
46.2111979
11
16.9875021
21
48.0153979
0
LINE
8
DEFAULT_255_2_778
10
17.3410021
20
47.6618979
11
15.5368021
21
45.8576979
0
ARC
8
DEFAULT_255_2_778
10
16.2592967
20
43.1293955
40
1.297198
50
148.2770855
51
180.1324007
0
ARC
8
DEFAULT_255_2_778
10
16.2584449
20
43.1299122
40
1.2962017
50
97.0226393
51
148.276717
0
ARC
8
DEFAULT_255_2_778
10
16.2616539
20
43.1021442
40
1.3241537
50
89.9849309
51
97.0135513
0
ARC
8
DEFAULT_255_2_778
10
16.2649997
20
43.1291033
40
1.297198
50
58.2770855
51
90.1324007
0
ARC
8
DEFAULT_255_2_778
10
16.2655165
20
43.1299551
40
1.2962017
50
7.0226393
51
58.276717
0
ARC
8
DEFAULT_255_2_778
10
16.2377484
20
43.1267461
40
1.3241537
50
359.9849309
51
7.0135513
0
ARC
8
DEFAULT_255_2_778
10
16.2647076
20
43.1234003
40
1.297198
50
328.2770855
51
0.1324007
0
ARC
8
DEFAULT_255_2_778
10
16.2655594
20
43.1228835
40
1.2962017
50
277.0226393
51
328.276717
0
ARC
8
DEFAULT_255_2_778
10
16.2623504
20
43.1506516
40
1.3241537
50
269.9849309
51
277.0135513
0
ARC
8
DEFAULT_255_2_778
10
16.2590045
20
43.1236924
40
1.297198
50
238.2770855
51
270.1324007
0
ARC
8
DEFAULT_255_2_778
10
16.2584878
20
43.1228406
40
1.2962017
50
187.0226393
51
238.276717
0
ARC
8
DEFAULT_255_2_778
10
16.2862558
20
43.1260496
40
1.3241537
50
179.9849309
51
187.0135513
0
LINE
8
DEFAULT_255_2_778
10
14.9621021
20
43.1263979
11
14.9621021
21
43.1263979
0
LINE
8
DEFAULT_255_2_778
10
15.1833021
20
42.4011979
11
16.9875021
21
44.2053979
0
LINE
8
DEFAULT_255_2_778
10
17.3410021
20
43.8518979
11
15.5368021
21
42.0476979
0
ARC
8
DEFAULT_255_2_778
10
16.2592967
20
50.7493955
40
1.297198
50
148.2770855
51
180.1324007
0
ARC
8
DEFAULT_255_2_778
10
16.2584449
20
50.7499122
40
1.2962017
50
97.0226393
51
148.276717
0
ARC
8
DEFAULT_255_2_778
10
16.2616539
20
50.7221442
40
1.3241537
50
89.9849309
51
97.0135513
0
ARC
8
DEFAULT_255_2_778
10
16.2649997
20
50.7491033
40
1.297198
50
58.2770855
51
90.1324007
0
ARC
8
DEFAULT_255_2_778
10
16.2655165
20
50.7499551
40
1.2962017
50
7.0226393
51
58.276717
0
ARC
8
DEFAULT_255_2_778
10
16.2377484
20
50.7467461
40
1.3241537
50
359.9849309
51
7.0135513
0
ARC
8
DEFAULT_255_2_778
10
16.2647076
20
50.7434003
40
1.297198
50
328.2770855
51
0.1324007
0
ARC
8
DEFAULT_255_2_778
10
16.2655594
20
50.7428835
40
1.2962017
50
277.0226393
51
328.276717
0
ARC
8
DEFAULT_255_2_778
10
16.2623504
20
50.7706516
40
1.3241537
50
269.9849309
51
277.0135513
0
ARC
8
DEFAULT_255_2_778
10
16.2590045
20
50.7436924
40
1.297198
50
238.2770855
51
270.1324007
0
ARC
8
DEFAULT_255_2_778
10
16.2584878
20
50.7428406
40
1.2962017
50
187.0226393
51
238.276717
0
ARC
8
DEFAULT_255_2_778
10
16.2862558
20
50.7460496
40
1.3241537
50
179.9849309
51
187.0135513
0
LINE
8
DEFAULT_255_2_778
10
14.9621021
20
50.7463979
11
14.9621021
21
50.7463979
0
LINE
8
DEFAULT_255_2_778
10
15.1833021
20
50.0211979
11
16.9875021
21
51.8253979
0
LINE
8
DEFAULT_255_2_778
10
17.3410021
20
51.4718979
11
15.5368021
21
49.6676979
0
ARC
8
DEFAULT_255_2_778
10
16.2592967
20
54.5593955
40
1.297198
50
148.2770855
51
180.1324007
0
ARC
8
DEFAULT_255_2_778
10
16.2584449
20
54.5599122
40
1.2962017
50
97.0226393
51
148.276717
0
ARC
8
DEFAULT_255_2_778
10
16.2616539
20
54.5321442
40
1.3241537
50
89.9849309
51
97.0135513
0
ARC
8
DEFAULT_255_2_778
10
16.2649997
20
54.5591033
40
1.297198
50
58.2770855
51
90.1324007
0
ARC
8
DEFAULT_255_2_778
10
16.2655165
20
54.5599551
40
1.2962017
50
7.0226393
51
58.276717
0
ARC
8
DEFAULT_255_2_778
10
16.2377484
20
54.5567461
40
1.3241537
50
359.9849309
51
7.0135513
0
ARC
8
DEFAULT_255_2_778
10
16.2647076
20
54.5534003
40
1.297198
50
328.2770855
51
0.1324007
0
ARC
8
DEFAULT_255_2_778
10
16.2655594
20
54.5528835
40
1.2962017
50
277.0226393
51
328.276717
0
ARC
8
DEFAULT_255_2_778
10
16.2623504
20
54.5806516
40
1.3241537
50
269.9849309
51
277.0135513
0
ARC
8
DEFAULT_255_2_778
10
16.2590045
20
54.5536924
40
1.297198
50
238.2770855
51
270.1324007
0
ARC
8
DEFAULT_255_2_778
10
16.2584878
20
54.5528406
40
1.2962017
50
187.0226393
51
238.276717
0
ARC
8
DEFAULT_255_2_778
10
16.2862558
20
54.5560496
40
1.3241537
50
179.9849309
51
187.0135513
0
LINE
8
DEFAULT_255_2_778
10
14.9621021
20
54.5563979
11
14.9621021
21
54.5563979
0
LINE
8
DEFAULT_255_2_778
10
15.1833021
20
53.8311979
11
16.9875021
21
55.6353979
0
LINE
8
DEFAULT_255_2_778
10
17.3410021
20
55.2818979
11
15.5368021
21
53.4776979
0
ARC
8
DEFAULT_255_2_778
10
16.2592967
20
58.3693955
40
1.297198
50
148.2770855
51
180.1324007
0
ARC
8
DEFAULT_255_2_778
10
16.2584449
20
58.3699122
40
1.2962017
50
97.0226393
51
148.276717
0
ARC
8
DEFAULT_255_2_778
10
16.2616539
20
58.3421442
40
1.3241537
50
89.9849309
51
97.0135513
0
ARC
8
DEFAULT_255_2_778
10
16.2649997
20
58.3691033
40
1.297198
50
58.2770855
51
90.1324007
0
ARC
8
DEFAULT_255_2_778
10
16.2655165
20
58.3699551
40
1.2962017
50
7.0226393
51
58.276717
0
ARC
8
DEFAULT_255_2_778
10
16.2377484
20
58.3667461
40
1.3241537
50
359.9849309
51
7.0135513
0
ARC
8
DEFAULT_255_2_778
10
16.2647076
20
58.3634003
40
1.297198
50
328.2770855
51
0.1324007
0
ARC
8
DEFAULT_255_2_778
10
16.2655594
20
58.3628835
40
1.2962017
50
277.0226393
51
328.276717
0
ARC
8
DEFAULT_255_2_778
10
16.2623504
20
58.3906516
40
1.3241537
50
269.9849309
51
277.0135513
0
ARC
8
DEFAULT_255_2_778
10
16.2590045
20
58.3636924
40
1.297198
50
238.2770855
51
270.1324007
0
ARC
8
DEFAULT_255_2_778
10
16.2584878
20
58.3628406
40
1.2962017
50
187.0226393
51
238.276717
0
ARC
8
DEFAULT_255_2_778
10
16.2862558
20
58.3660496
40
1.3241537
50
179.9849309
51
187.0135513
0
LINE
8
DEFAULT_255_2_778
10
14.9621021
20
58.3663979
11
14.9621021
21
58.3663979
0
LINE
8
DEFAULT_255_2_778
10
15.1833021
20
57.6411979
11
16.9875021
21
59.4453979
0
LINE
8
DEFAULT_255_2_778
10
17.3410021
20
59.0918979
11
15.5368021
21
57.2876979
0
ARC
8
DEFAULT_255_2_778
10
16.2592967
20
62.1793955
40
1.297198
50
148.2770855
51
180.1324007
0
ARC
8
DEFAULT_255_2_778
10
16.2584449
20
62.1799122
40
1.2962017
50
97.0226393
51
148.276717
0
ARC
8
DEFAULT_255_2_778
10
16.2616539
20
62.1521442
40
1.3241537
50
89.9849309
51
97.0135513
0
ARC
8
DEFAULT_255_2_778
10
16.2649997
20
62.1791033
40
1.297198
50
58.2770855
51
90.1324007
0
ARC
8
DEFAULT_255_2_778
10
16.2655165
20
62.1799551
40
1.2962017
50
7.0226393
51
58.276717
0
ARC
8
DEFAULT_255_2_778
10
16.2377484
20
62.1767461
40
1.3241537
50
359.9849309
51
7.0135513
0
ARC
8
DEFAULT_255_2_778
10
16.2647076
20
62.1734003
40
1.297198
50
328.2770855
51
0.1324007
0
ARC
8
DEFAULT_255_2_778
10
16.2655594
20
62.1728835
40
1.2962017
50
277.0226393
51
328.276717
0
ARC
8
DEFAULT_255_2_778
10
16.2623504
20
62.2006516
40
1.3241537
50
269.9849309
51
277.0135513
0
ARC
8
DEFAULT_255_2_778
10
16.2590045
20
62.1736924
40
1.297198
50
238.2770855
51
270.1324007
0
ARC
8
DEFAULT_255_2_778
10
16.2584878
20
62.1728406
40
1.2962017
50
187.0226393
51
238.276717
0
ARC
8
DEFAULT_255_2_778
10
16.2862558
20
62.1760496
40
1.3241537
50
179.9849309
51
187.0135513
0
LINE
8
DEFAULT_255_2_778
10
14.9621021
20
62.1763979
11
14.9621021
21
62.1763979
0
LINE
8
DEFAULT_255_2_778
10
15.1833021
20
61.4511979
11
16.9875021
21
63.2553979
0
LINE
8
DEFAULT_255_2_778
10
17.3410021
20
62.9018979
11
15.5368021
21
61.0976979
0
ARC
8
DEFAULT_255_2_778
10
16.2592967
20
65.9893955
40
1.297198
50
148.2770855
51
180.1324007
0
ARC
8
DEFAULT_255_2_778
10
16.2584449
20
65.9899122
40
1.2962017
50
97.0226393
51
148.276717
0
ARC
8
DEFAULT_255_2_778
10
16.2616539
20
65.9621442
40
1.3241537
50
89.9849309
51
97.0135513
0
ARC
8
DEFAULT_255_2_778
10
16.2649997
20
65.9891033
40
1.297198
50
58.2770855
51
90.1324007
0
ARC
8
DEFAULT_255_2_778
10
16.2655165
20
65.9899551
40
1.2962017
50
7.0226393
51
58.276717
0
ARC
8
DEFAULT_255_2_778
10
16.2377484
20
65.9867461
40
1.3241537
50
359.9849309
51
7.0135513
0
ARC
8
DEFAULT_255_2_778
10
16.2647076
20
65.9834003
40
1.297198
50
328.2770855
51
0.1324007
0
ARC
8
DEFAULT_255_2_778
10
16.2655594
20
65.9828835
40
1.2962017
50
277.0226393
51
328.276717
0
ARC
8
DEFAULT_255_2_778
10
16.2623504
20
66.0106516
40
1.3241537
50
269.9849309
51
277.0135513
0
ARC
8
DEFAULT_255_2_778
10
16.2590045
20
65.9836924
40
1.297198
50
238.2770855
51
270.1324007
0
ARC
8
DEFAULT_255_2_778
10
16.2584878
20
65.9828406
40
1.2962017
50
187.0226393
51
238.276717
0
ARC
8
DEFAULT_255_2_778
10
16.2862558
20
65.9860496
40
1.3241537
50
179.9849309
51
187.0135513
0
LINE
8
DEFAULT_255_2_778
10
14.9621021
20
65.9863979
11
14.9621021
21
65.9863979
0
LINE
8
DEFAULT_255_2_778
10
15.1833021
20
65.2611979
11
16.9875021
21
67.0653979
0
LINE
8
DEFAULT_255_2_778
10
17.3410021
20
66.7118979
11
15.5368021
21
64.9076979
0
ARC
8
DEFAULT_255_2_778
10
16.2592967
20
69.7993955
40
1.297198
50
148.2770855
51
180.1324007
0
ARC
8
DEFAULT_255_2_778
10
16.2584449
20
69.7999122
40
1.2962017
50
97.0226393
51
148.276717
0
ARC
8
DEFAULT_255_2_778
10
16.2616539
20
69.7721442
40
1.3241537
50
89.9849309
51
97.0135513
0
ARC
8
DEFAULT_255_2_778
10
16.2649997
20
69.7991033
40
1.297198
50
58.2770855
51
90.1324007
0
ARC
8
DEFAULT_255_2_778
10
16.2655165
20
69.7999551
40
1.2962017
50
7.0226393
51
58.276717
0
ARC
8
DEFAULT_255_2_778
10
16.2377484
20
69.7967461
40
1.3241537
50
359.9849309
51
7.0135513
0
ARC
8
DEFAULT_255_2_778
10
16.2647076
20
69.7934003
40
1.297198
50
328.2770855
51
0.1324007
0
ARC
8
DEFAULT_255_2_778
10
16.2655594
20
69.7928835
40
1.2962017
50
277.0226393
51
328.276717
0
ARC
8
DEFAULT_255_2_778
10
16.2623504
20
69.8206516
40
1.3241537
50
269.9849309
51
277.0135513
0
ARC
8
DEFAULT_255_2_778
10
16.2590045
20
69.7936924
40
1.297198
50
238.2770855
51
270.1324007
0
ARC
8
DEFAULT_255_2_778
10
16.2584878
20
69.7928406
40
1.2962017
50
187.0226393
51
238.276717
0
ARC
8
DEFAULT_255_2_778
10
16.2862558
20
69.7960496
40
1.3241537
50
179.9849309
51
187.0135513
0
LINE
8
DEFAULT_255_2_778
10
14.9621021
20
69.7963979
11
14.9621021
21
69.7963979
0
LINE
8
DEFAULT_255_2_778
10
15.1833021
20
69.0711979
11
16.9875021
21
70.8753979
0
LINE
8
DEFAULT_255_2_778
10
17.3410021
20
70.5218979
11
15.5368021
21
68.7176979
0
ARC
8
DEFAULT_255_2_778
10
7.1949425
20
95.1878441
40
0.6882221
50
70.6313466
51
91.0764067
0
ARC
8
DEFAULT_255_2_778
10
7.2688311
20
95.413764
40
0.4506138
50
48.2112649
51
69.9678105
0
ARC
8
DEFAULT_255_2_778
10
7.2813807
20
95.43293
40
0.4279741
50
357.7120779
51
47.7540932
0
ARC
8
DEFAULT_255_2_778
10
7.228262
20
95.4022018
40
0.4809452
50
332.6635747
51
1.6255259
0
ARC
8
DEFAULT_255_2_778
10
7.3307335
20
95.3595154
40
0.3704279
50
310.6438742
51
331.2501854
0
ARC
8
DEFAULT_255_2_778
10
7.2631346
20
95.4540292
40
0.4862817
50
278.6477666
51
309.433738
0
ARC
8
DEFAULT_255_2_778
10
7.1856615
20
95.8356274
40
0.8754016
50
269.623801
51
279.9055348
0
ARC
8
DEFAULT_255_2_778
10
7.1947528
20
95.5529199
40
0.4304636
50
268.3041425
51
292.79055
0
ARC
8
DEFAULT_255_2_778
10
7.2551377
20
95.3919844
40
0.2587879
50
294.2674687
51
311.2927777
0
ARC
8
DEFAULT_255_2_778
10
7.2425555
20
95.3929846
40
0.2679869
50
313.1731939
51
1.6766211
0
ARC
8
DEFAULT_255_2_778
10
7.0529038
20
95.4138801
40
0.45771
50
358.3656163
51
0.0081
0
ARC
8
DEFAULT_255_2_778
10
7.2283431
20
95.4268332
40
0.2825647
50
357.3856899
51
45.6367603
0
ARC
8
DEFAULT_255_2_778
10
7.2098726
20
95.3885261
40
0.3231514
50
48.0451703
51
89.2860571
0
ARC
8
DEFAULT_255_2_778
10
7.1831795
20
95.1826649
40
0.5298787
50
86.6764125
51
88.8933037
0
ARC
8
DEFAULT_255_2_778
10
7.0669967
20
96.3095651
40
1.8332886
50
318.1927057
51
323.5221614
0
ARC
8
DEFAULT_255_2_778
10
7.9698535
20
95.6434198
40
0.7112829
50
323.4319123
51
331.2264788
0
ARC
8
DEFAULT_255_2_778
10
8.2805648
20
95.472475
40
0.3566513
50
331.2710781
51
359.7862962
0
ARC
8
DEFAULT_255_2_778
10
8.3679232
20
95.4813232
40
0.2694828
50
357.8354195
51
42.7489932
0
ARC
8
DEFAULT_255_2_778
10
8.3866598
20
95.4899297
40
0.2499637
50
44.2157001
51
92.555724
0
ARC
8
DEFAULT_255_2_778
10
8.3614881
20
95.4274698
40
0.3124899
50
87.4275177
51
125.1733766
0
ARC
8
DEFAULT_255_2_778
10
8.3304621
20
95.4865164
40
0.2465036
50
127.1850162
51
135.7757917
0
ARC
8
DEFAULT_255_2_778
10
8.374618
20
95.4562053
40
0.299425
50
137.512759
51
180.2753137
0
ARC
8
DEFAULT_255_2_778
10
8.5777318
20
95.4327367
40
0.5030179
50
177.4899009
51
180.0218569
0
ARC
8
DEFAULT_255_2_778
10
8.3272074
20
95.4503681
40
0.4441515
50
134.2444288
51
182.2998303
0
ARC
8
DEFAULT_255_2_778
10
8.3400838
20
95.419598
40
0.4753361
50
92.318876
51
132.7683191
0
ARC
8
DEFAULT_255_2_778
10
8.3748476
20
95.1667518
40
0.7297933
50
89.9477031
51
94.2431115
0
ARC
8
DEFAULT_255_2_778
10
8.3888091
20
95.3422215
40
0.5544826
50
66.7501104
51
91.3739694
0
ARC
8
DEFAULT_255_2_778
10
8.4468697
20
95.4969203
40
0.389504
50
48.0366279
51
65.6143615
0
ARC
8
DEFAULT_255_2_778
10
8.4543156
20
95.5093069
40
0.375325
50
357.6083799
51
47.6174594
0
ARC
8
DEFAULT_255_2_778
10
8.3446347
20
95.506629
40
0.4848529
50
333.6632631
51
358.46545
0
ARC
8
DEFAULT_255_2_778
10
7.8404427
20
95.7405369
40
1.0405781
50
322.2978874
51
334.4371153
0
ARC
8
DEFAULT_255_2_778
10
7.1868789
20
96.2272391
40
1.8553817
50
317.1085414
51
322.7491185
0
ARC
8
DEFAULT_255_2_778
10
9.1965857
20
95.0007269
40
1.4321818
50
350.7586006
51
0.4967946
0
ARC
8
DEFAULT_255_2_778
10
9.9088611
20
94.8793122
40
0.7096737
50
333.846042
51
351.1987254
0
ARC
8
DEFAULT_255_2_778
10
10.1433764
20
94.7726647
40
0.4522257
50
325.0875022
51
332.8776948
0
ARC
8
DEFAULT_255_2_778
10
10.2010492
20
94.7390653
40
0.3857412
50
273.0550246
51
324.2772085
0
ARC
8
DEFAULT_255_2_778
10
10.1567967
20
95.0027836
40
0.6521399
50
269.896064
51
275.7035477
0
ARC
8
DEFAULT_255_2_778
10
10.1421897
20
94.8451594
40
0.4946968
50
244.5583795
51
271.5549585
0
ARC
8
DEFAULT_255_2_778
10
10.0927091
20
94.7208312
40
0.3612746
50
215.6156356
51
243.1740282
0
ARC
8
DEFAULT_255_2_778
10
10.2786596
20
94.8412243
40
0.5826451
50
192.3016926
51
214.5914129
0
ARC
8
DEFAULT_255_2_778
10
10.8540027
20
94.9796773
40
1.1743452
50
181.4670895
51
192.9209371
0
ARC
8
DEFAULT_255_2_778
10
11.3757906
20
95.0101687
40
1.6968291
50
180.7673276
51
182.0452536
0
ARC
8
DEFAULT_255_2_778
10
11.0660172
20
95.2553112
40
1.3869596
50
170.5005749
51
180.5150005
0
ARC
8
DEFAULT_255_2_778
10
10.371822
20
95.3772739
40
0.6821793
50
152.7817672
51
170.9811527
0
ARC
8
DEFAULT_255_2_778
10
10.1533579
20
95.4805303
40
0.4407523
50
144.6167633
51
151.7289566
0
ARC
8
DEFAULT_255_2_778
10
10.1050169
20
95.5085772
40
0.3851339
50
93.6920919
51
143.8542976
0
ARC
8
DEFAULT_255_2_778
10
10.1520514
20
95.2391273
40
0.657719
50
89.8726145
51
96.2702659
0
ARC
8
DEFAULT_255_2_778
10
10.1667267
20
95.3804409
40
0.5165729
50
66.3349098
51
91.4656819
0
ARC
8
DEFAULT_255_2_778
10
10.2250861
20
95.5317979
40
0.3545942
50
36.2043243
51
65.1550684
0
ARC
8
DEFAULT_255_2_778
10
10.063545
20
95.4267982
40
0.5470685
50
12.7203506
51
35.0845568
0
ARC
8
DEFAULT_255_2_778
10
9.4879546
20
95.2836604
40
1.1401226
50
1.906413
51
13.3678295
0
ARC
8
DEFAULT_255_2_778
10
8.9074646
20
95.2466911
40
1.7216114
50
0.4876853
51
2.4934115
0
ARC
8
DEFAULT_255_2_778
10
9.2641902
20
95.2867928
40
1.1732843
50
359.4165249
51
8.8801982
0
ARC
8
DEFAULT_255_2_778
10
9.9565216
20
95.4015435
40
0.4715826
50
8.090343
51
27.4746143
0
ARC
8
DEFAULT_255_2_778
10
10.132392
20
95.4835569
40
0.2778365
50
29.2020418
51
31.5287257
0
ARC
8
DEFAULT_255_2_778
10
10.1692954
20
95.5056733
40
0.234816
50
31.6376039
51
93.9025932
0
ARC
8
DEFAULT_255_2_778
10
10.1371845
20
95.5086399
40
0.2318666
50
86.0111436
51
148.6288938
0
ARC
8
DEFAULT_255_2_778
10
10.3316826
20
95.4067292
40
0.451209
50
150.4373036
51
170.8727137
0
ARC
8
DEFAULT_255_2_778
10
10.9579166
20
95.290827
40
1.0880039
50
170.0776966
51
180.0780568
0
ARC
8
DEFAULT_255_2_778
10
11.0173298
20
94.9712792
40
1.1474817
50
179.3875483
51
189.4125742
0
ARC
8
DEFAULT_255_2_778
10
10.3533406
20
94.8549272
40
0.4734444
50
188.6628385
51
208.7301915
0
ARC
8
DEFAULT_255_2_778
10
10.1924435
20
94.7766222
40
0.2948424
50
210.4163789
51
211.3002919
0
ARC
8
DEFAULT_255_2_778
10
10.1432469
20
94.7415924
40
0.2346479
50
210.232513
51
272.8988331
0
ARC
8
DEFAULT_255_2_778
10
10.168619
20
94.7381826
40
0.2313324
50
266.6531451
51
328.3351527
0
ARC
8
DEFAULT_255_2_778
10
9.9862318
20
94.8382594
40
0.4392306
50
329.7134965
51
350.5352521
0
ARC
8
DEFAULT_255_2_778
10
9.3396675
20
94.9622902
40
1.0975057
50
349.6988452
51
359.8043003
0
ARC
8
DEFAULT_255_2_778
10
8.7769397
20
94.9825676
40
1.660401
50
359.1708995
51
359.2917956
0
ARC
8
DEFAULT_255_2_778
10
11.437629
20
95.4777882
40
0.348729
50
325.9927388
51
0.9129788
0
ARC
8
DEFAULT_255_2_778
10
11.392986
20
95.5107815
40
0.4041966
50
295.3299608
51
325.6551317
0
ARC
8
DEFAULT_255_2_778
10
11.4003968
20
94.7451931
40
0.433125
50
35.6357496
51
67.5333423
0
ARC
8
DEFAULT_255_2_778
10
11.4496664
20
94.7821054
40
0.3715778
50
359.2659147
51
35.4362082
0
ARC
8
DEFAULT_255_2_778
10
11.4281006
20
94.7604212
40
0.3934772
50
311.614266
51
2.4650687
0
ARC
8
DEFAULT_255_2_778
10
11.3778017
20
94.8339017
40
0.4819478
50
272.4351009
51
310.2833436
0
ARC
8
DEFAULT_255_2_778
10
11.3433102
20
95.0902929
40
0.7399483
50
269.9460652
51
274.260237
0
ARC
8
DEFAULT_255_2_778
10
11.3291585
20
94.9206421
40
0.5704561
50
245.7616921
51
271.3515498
0
ARC
8
DEFAULT_255_2_778
10
11.2763327
20
94.7829588
40
0.4233059
50
228.3320789
51
244.6308025
0
ARC
8
DEFAULT_255_2_778
10
11.2592635
20
94.7607819
40
0.3953968
50
177.599224
51
228.0433417
0
ARC
8
DEFAULT_255_2_778
10
11.247203
20
94.7815368
40
0.3830122
50
145.6690953
51
180.6271066
0
ARC
8
DEFAULT_255_2_778
10
11.2728809
20
94.7621633
40
0.4151457
50
112.3056038
51
145.459745
0
ARC
8
DEFAULT_255_2_778
10
11.2847714
20
95.5008139
40
0.3929824
50
213.5118182
51
244.455663
0
ARC
8
DEFAULT_255_2_778
10
11.2528366
20
95.4780004
40
0.3537633
50
179.134393
51
213.2867361
0
ARC
8
DEFAULT_255_2_778
10
11.2965788
20
95.499524
40
0.3977943
50
139.8502785
51
182.3309987
0
ARC
8
DEFAULT_255_2_778
10
11.2743363
20
95.5079674
40
0.3754316
50
132.4140799
51
138.6464019
0
ARC
8
DEFAULT_255_2_778
10
11.3140961
20
95.453163
40
0.442776
50
91.0621277
51
131.4292298
0
ARC
8
DEFAULT_255_2_778
10
11.3422838
20
95.2218283
40
0.6750167
50
89.971999
51
93.0907439
0
ARC
8
DEFAULT_255_2_778
10
11.3566893
20
95.4054567
40
0.4915896
50
60.6658717
51
91.6407679
0
ARC
8
DEFAULT_255_2_778
10
11.3932224
20
95.4891288
40
0.4008528
50
47.6008932
51
59.3589984
0
ARC
8
DEFAULT_255_2_778
10
11.3984723
20
95.5018263
40
0.3879643
50
357.3244736
51
46.908989
0
LINE
8
DEFAULT_255_2_778
10
11.7860136
20
95.4837162
11
11.7860137
21
95.4833448
0
ARC
8
DEFAULT_255_2_778
10
11.3530895
20
94.7919869
40
0.2773171
50
357.8627416
51
44.7565658
0
ARC
8
DEFAULT_255_2_778
10
11.3524884
20
94.7828387
40
0.28425
50
45.9807619
51
92.3740839
0
ARC
8
DEFAULT_255_2_778
10
11.3279639
20
94.7880515
40
0.2790846
50
87.3815747
51
134.166269
0
ARC
8
DEFAULT_255_2_778
10
11.3357771
20
94.7938579
40
0.2805294
50
136.1376088
51
182.4952214
0
ARC
8
DEFAULT_255_2_778
10
11.3226758
20
94.7671404
40
0.2675555
50
176.8924315
51
224.3690855
0
ARC
8
DEFAULT_255_2_778
10
11.3214488
20
94.7906942
40
0.2837015
50
227.9451378
51
270.9435681
0
ARC
8
DEFAULT_255_2_778
10
11.3427007
20
94.9867764
40
0.4800317
50
268.0206484
51
270.0134869
0
ARC
8
DEFAULT_255_2_778
10
11.3567551
20
94.810286
40
0.3038612
50
267.3703005
51
305.6102694
0
ARC
8
DEFAULT_255_2_778
10
11.3874988
20
94.752773
40
0.2393531
50
307.6438479
51
313.9820901
0
ARC
8
DEFAULT_255_2_778
10
11.3642197
20
94.7677303
40
0.2663577
50
315.3511207
51
2.9944731
0
ARC
8
DEFAULT_255_2_778
10
11.3324599
20
95.4937255
40
0.2461371
50
87.5891269
51
134.3130955
0
ARC
8
DEFAULT_255_2_778
10
11.3469007
20
95.4935724
40
0.2565386
50
136.5975643
51
183.0003128
0
ARC
8
DEFAULT_255_2_778
10
11.3451453
20
95.4690022
40
0.2546755
50
177.4923908
51
223.2061848
0
ARC
8
DEFAULT_255_2_778
10
11.3316154
20
95.4671891
40
0.2437017
50
225.0735798
51
272.6337188
0
ARC
8
DEFAULT_255_2_778
10
11.3542974
20
95.4666937
40
0.2432202
50
267.2937682
51
314.9779091
0
ARC
8
DEFAULT_255_2_778
10
11.3401464
20
95.4691638
40
0.2551037
50
316.8343508
51
2.4670736
0
ARC
8
DEFAULT_255_2_778
10
11.3408432
20
95.4901311
40
0.2543666
50
357.7500224
51
44.0989811
0
ARC
8
DEFAULT_255_2_778
10
11.3504798
20
95.4966636
40
0.2429085
50
44.5742207
51
91.8557288
0
ARC
8
DEFAULT_255_2_778
10
12.5501531
20
95.1915334
40
0.6845453
50
60.8097257
51
91.1333105
0
ARC
8
DEFAULT_255_2_778
10
12.5911255
20
95.2793542
40
0.587937
50
26.5385939
51
60.1214904
0
ARC
8
DEFAULT_255_2_778
10
12.4032345
20
95.1873691
40
0.7971313
50
359.9728834
51
26.4195053
0
ARC
8
DEFAULT_255_2_778
10
12.1491726
20
95.168501
40
1.0513556
50
0.3021191
51
1.0077468
0
ARC
8
DEFAULT_255_2_778
10
12.3637788
20
95.0641459
40
0.8368487
50
338.4115849
51
0.944798
0
ARC
8
DEFAULT_255_2_778
10
12.5179901
20
95.0135111
40
0.6748937
50
332.7929524
51
337.5916986
0
ARC
8
DEFAULT_255_2_778
10
12.5993218
20
94.9648362
40
0.5803381
50
299.3209011
51
333.395611
0
ARC
8
DEFAULT_255_2_778
10
12.538353
20
95.0943346
40
0.7231758
50
270.2123586
51
298.5082078
0
ARC
8
DEFAULT_255_2_778
10
12.5179431
20
95.3371245
40
0.9662366
50
270.6208964
51
271.3693317
0
ARC
8
DEFAULT_255_2_778
10
12.5329398
20
95.0483191
40
0.5150573
50
268.4729001
51
296.9382406
0
ARC
8
DEFAULT_255_2_778
10
12.5754027
20
94.9443152
40
0.4032078
50
298.2544041
51
318.2915706
0
ARC
8
DEFAULT_255_2_778
10
12.4961622
20
95.0014514
40
0.5004804
50
319.4441823
51
351.5030831
0
ARC
8
DEFAULT_255_2_778
10
12.1256602
20
95.0767878
40
0.8782696
50
350.2135292
51
0.349476
0
ARC
8
DEFAULT_255_2_778
10
12.2271013
20
95.1828127
40
0.7769173
50
359.0583544
51
16.7830781
0
ARC
8
DEFAULT_255_2_778
10
12.5246565
20
95.2698202
40
0.4669205
50
17.1042586
51
39.7751168
0
ARC
8
DEFAULT_255_2_778
10
12.5695402
20
95.2950738
40
0.4163721
50
41.0558685
51
88.6722678
0
ARC
8
DEFAULT_255_2_778
10
12.5357344
20
95.0562818
40
0.6564921
50
86.2047868
51
89.4606942
0
ARC
8
DEFAULT_255_2_778
10
15.6867967
20
96.3095651
40
1.8332886
50
318.1927057
51
323.5221614
0
ARC
8
DEFAULT_255_2_778
10
16.5896535
20
95.6434198
40
0.7112829
50
323.4319123
51
331.2264788
0
ARC
8
DEFAULT_255_2_778
10
16.901103
20
95.4724938
40
0.3560132
50
331.2113275
51
359.7828956
0
ARC
8
DEFAULT_255_2_778
10
16.9880384
20
95.4813004
40
0.2692668
50
357.8385303
51
42.7980792
0
ARC
8
DEFAULT_255_2_778
10
17.0065949
20
95.4902557
40
0.2496396
50
44.1836961
51
92.5670973
0
ARC
8
DEFAULT_255_2_778
10
16.9813881
20
95.4274698
40
0.3124899
50
87.4275177
51
125.1733766
0
ARC
8
DEFAULT_255_2_778
10
16.9503621
20
95.4865164
40
0.2465036
50
127.1850162
51
135.7757917
0
ARC
8
DEFAULT_255_2_778
10
16.994518
20
95.4562053
40
0.299425
50
137.512759
51
180.2753137
0
ARC
8
DEFAULT_255_2_778
10
17.1976318
20
95.4327367
40
0.5030179
50
177.4899009
51
180.0218569
0
ARC
8
DEFAULT_255_2_778
10
16.9472784
20
95.4503922
40
0.4443233
50
134.2716334
51
182.3020595
0
ARC
8
DEFAULT_255_2_778
10
16.9599177
20
95.4195045
40
0.4754277
50
92.3132848
51
132.763669
0
ARC
8
DEFAULT_255_2_778
10
16.9947468
20
95.1661437
40
0.7304014
50
89.9476851
51
94.241354
0
ARC
8
DEFAULT_255_2_778
10
17.0087091
20
95.3422215
40
0.5544826
50
66.7501104
51
91.3739694
0
ARC
8
DEFAULT_255_2_778
10
17.0667697
20
95.4969203
40
0.389504
50
48.0366279
51
65.6143615
0
ARC
8
DEFAULT_255_2_778
10
17.0742156
20
95.5093069
40
0.375325
50
357.6083799
51
47.6174594
0
ARC
8
DEFAULT_255_2_778
10
16.9646728
20
95.5066326
40
0.484715
50
333.6547174
51
358.4645935
0
ARC
8
DEFAULT_255_2_778
10
16.4604527
20
95.7406375
40
1.0405063
50
322.2878318
51
334.4290843
0
ARC
8
DEFAULT_255_2_778
10
15.8067468
20
96.2276196
40
1.855591
50
317.0985053
51
322.7392721
0
LINE
8
DEFAULT_255_2_778
10
7.1799137
20
94.9604448
11
6.8253137
21
94.9604448
0
LINE
8
DEFAULT_255_2_778
10
6.8253137
20
94.9604448
11
6.8253137
21
94.3712448
0
LINE
8
DEFAULT_255_2_778
10
6.8253137
20
94.3712448
11
6.6269137
21
94.3712448
0
LINE
8
DEFAULT_255_2_778
10
6.6269137
20
94.3712448
11
6.6269137
21
95.8759448
0
LINE
8
DEFAULT_255_2_778
10
6.6269137
20
95.8759448
11
7.1820137
21
95.8759448
0
LINE
8
DEFAULT_255_2_778
10
7.1799137
20
94.9602448
11
7.1799137
21
94.9604448
0
LINE
8
DEFAULT_255_2_778
10
6.8253137
20
95.7129448
11
6.8253137
21
95.1226448
0
LINE
8
DEFAULT_255_2_778
10
6.8253137
20
95.1226448
11
7.1820137
21
95.1226448
0
LINE
8
DEFAULT_255_2_778
10
7.1934137
20
95.7124448
11
6.8253137
21
95.7124448
0
LINE
8
DEFAULT_255_2_778
10
6.8253137
20
95.7124448
11
6.8253137
21
95.7129448
0
LINE
8
DEFAULT_255_2_778
10
8.8986137
20
94.5273448
11
8.8986137
21
94.3712448
0
LINE
8
DEFAULT_255_2_778
10
8.8986137
20
94.3712448
11
7.9125137
21
94.3712448
0
LINE
8
DEFAULT_255_2_778
10
7.9125137
20
94.3712448
11
7.9125137
21
94.5088448
0
LINE
8
DEFAULT_255_2_778
10
7.9125137
20
94.5088448
11
8.4335137
21
95.0874448
0
LINE
8
DEFAULT_255_2_778
10
8.0747137
20
95.4325448
11
7.8834137
21
95.4325448
0
LINE
8
DEFAULT_255_2_778
10
8.5462137
20
94.9644448
11
8.1432137
21
94.5273448
0
LINE
8
DEFAULT_255_2_778
10
8.1432137
20
94.5273448
11
8.8986137
21
94.5273448
0
LINE
8
DEFAULT_255_2_778
10
8.8986137
20
94.5273448
11
8.8986137
21
94.5273448
0
LINE
8
DEFAULT_255_2_778
10
9.5185137
20
95.0885448
11
9.5185137
21
94.9324448
0
LINE
8
DEFAULT_255_2_778
10
9.5185137
20
94.9324448
11
9.0142137
21
94.9324448
0
LINE
8
DEFAULT_255_2_778
10
9.0142137
20
94.9324448
11
9.0142137
21
95.0885448
0
LINE
8
DEFAULT_255_2_778
10
9.0142137
20
95.0885448
11
9.5185137
21
95.0885448
0
LINE
8
DEFAULT_255_2_778
10
9.5185137
20
95.0885448
11
9.5185137
21
95.0885448
0
LINE
8
DEFAULT_255_2_778
10
10.6287137
20
95.2613448
11
10.6287137
21
95.0131448
0
LINE
8
DEFAULT_255_2_778
10
9.6791137
20
94.9874448
11
9.6791137
21
95.2428448
0
LINE
8
DEFAULT_255_2_778
10
10.6290137
20
95.2613448
11
10.6287137
21
95.2613448
0
LINE
8
DEFAULT_255_2_778
10
10.4374137
20
94.9615448
11
10.4374137
21
95.2748448
0
LINE
8
DEFAULT_255_2_778
10
9.8699137
20
95.2893448
11
9.8699137
21
94.9835448
0
LINE
8
DEFAULT_255_2_778
10
10.4372137
20
94.9620448
11
10.4374137
21
94.9615448
0
LINE
8
DEFAULT_255_2_778
10
11.7860137
20
95.4833448
11
11.7863137
21
95.4833448
0
LINE
8
DEFAULT_255_2_778
10
11.6302137
20
94.7816448
11
11.6302137
21
94.7816448
0
LINE
8
DEFAULT_255_2_778
10
11.3426137
20
95.7394448
11
11.3428137
21
95.7396448
0
LINE
8
DEFAULT_255_2_778
10
12.5284137
20
94.3712448
11
12.1120137
21
94.3712448
0
LINE
8
DEFAULT_255_2_778
10
12.1120137
20
94.3712448
11
12.1120137
21
95.8759448
0
LINE
8
DEFAULT_255_2_778
10
12.1120137
20
95.8759448
11
12.5366137
21
95.8759448
0
LINE
8
DEFAULT_255_2_778
10
13.2005137
20
95.1740448
11
13.2005137
21
95.0779448
0
LINE
8
DEFAULT_255_2_778
10
12.5284137
20
94.3709448
11
12.5284137
21
94.3712448
0
LINE
8
DEFAULT_255_2_778
10
12.5419137
20
95.7127448
11
12.3104137
21
95.7127448
0
LINE
8
DEFAULT_255_2_778
10
12.3104137
20
95.7127448
11
12.3104137
21
94.5334448
0
LINE
8
DEFAULT_255_2_778
10
12.3104137
20
94.5334448
11
12.5192137
21
94.5334448
0
LINE
8
DEFAULT_255_2_778
10
13.0039137
20
95.0821448
11
13.0039137
21
95.1700448
0
LINE
8
DEFAULT_255_2_778
10
12.5419137
20
95.7127448
11
12.5419137
21
95.7127448
0
LINE
8
DEFAULT_255_2_778
10
14.4527137
20
94.3712448
11
14.3091137
21
94.7639448
0
LINE
8
DEFAULT_255_2_778
10
14.3091137
20
94.7639448
11
13.6786137
21
94.7639448
0
LINE
8
DEFAULT_255_2_778
10
13.6786137
20
94.7639448
11
13.5370137
21
94.3712448
0
LINE
8
DEFAULT_255_2_778
10
13.5370137
20
94.3712448
11
13.3325137
21
94.3712448
0
LINE
8
DEFAULT_255_2_778
10
13.3325137
20
94.3712448
11
13.9072137
21
95.8759448
0
LINE
8
DEFAULT_255_2_778
10
13.9072137
20
95.8759448
11
14.0807137
21
95.8759448
0
LINE
8
DEFAULT_255_2_778
10
14.0807137
20
95.8759448
11
14.6565137
21
94.3709448
0
LINE
8
DEFAULT_255_2_778
10
14.6565137
20
94.3709448
11
14.4527137
21
94.3709448
0
LINE
8
DEFAULT_255_2_778
10
14.4527137
20
94.3709448
11
14.4527137
21
94.3712448
0
LINE
8
DEFAULT_255_2_778
10
13.9940137
20
95.6312448
11
13.7386137
21
94.9274448
0
LINE
8
DEFAULT_255_2_778
10
13.7386137
20
94.9274448
11
14.2503137
21
94.9274448
0
LINE
8
DEFAULT_255_2_778
10
14.2503137
20
94.9274448
11
13.9940137
21
95.6312448
0
LINE
8
DEFAULT_255_2_778
10
13.9940137
20
95.6312448
11
13.9940137
21
95.6312448
0
LINE
8
DEFAULT_255_2_778
10
15.0584137
20
95.8762448
11
15.0584137
21
94.5337448
0
LINE
8
DEFAULT_255_2_778
10
15.0584137
20
94.5337448
11
15.7714137
21
94.5337448
0
LINE
8
DEFAULT_255_2_778
10
15.7714137
20
94.5337448
11
15.7714137
21
94.3715448
0
LINE
8
DEFAULT_255_2_778
10
15.7714137
20
94.3715448
11
14.8589137
21
94.3715448
0
LINE
8
DEFAULT_255_2_778
10
14.8589137
20
94.3715448
11
14.8589137
21
95.8762448
0
LINE
8
DEFAULT_255_2_778
10
14.8589137
20
95.8762448
11
15.0584137
21
95.8762448
0
LINE
8
DEFAULT_255_2_778
10
15.0584137
20
95.8762448
11
15.0584137
21
95.8762448
0
LINE
8
DEFAULT_255_2_778
10
16.3657137
20
95.0885448
11
16.3657137
21
94.9324448
0
LINE
8
DEFAULT_255_2_778
10
16.3657137
20
94.9324448
11
15.8614137
21
94.9324448
0
LINE
8
DEFAULT_255_2_778
10
15.8614137
20
94.9324448
11
15.8614137
21
95.0885448
0
LINE
8
DEFAULT_255_2_778
10
15.8614137
20
95.0885448
11
16.3657137
21
95.0885448
0
LINE
8
DEFAULT_255_2_778
10
16.3657137
20
95.0885448
11
16.3657137
21
95.0885448
0
LINE
8
DEFAULT_255_2_778
10
17.5182137
20
94.5273448
11
17.5182137
21
94.3712448
0
LINE
8
DEFAULT_255_2_778
10
17.5182137
20
94.3712448
11
16.5324137
21
94.3712448
0
LINE
8
DEFAULT_255_2_778
10
16.5324137
20
94.3712448
11
16.5324137
21
94.5088448
0
LINE
8
DEFAULT_255_2_778
10
16.5324137
20
94.5088448
11
17.0533137
21
95.0874448
0
LINE
8
DEFAULT_255_2_778
10
16.6946137
20
95.4325448
11
16.5033137
21
95.4325448
0
LINE
8
DEFAULT_255_2_778
10
17.1660137
20
94.9644448
11
16.7631137
21
94.5273448
0
LINE
8
DEFAULT_255_2_778
10
16.7631137
20
94.5273448
11
17.5185137
21
94.5273448
0
LINE
8
DEFAULT_255_2_778
10
17.5185137
20
94.5273448
11
17.5182137
21
94.5273448
0
LINE
8
DEFAULT_255_2_778
10
3.6968815
20
93.1165708
11
20.6968815
21
93.1165708
0
LINE
8
DEFAULT_255_2_778
10
20.6968815
20
93.1165708
11
20.6968815
21
95.6065708
0
LINE
8
DEFAULT_255_2_778
10
20.6968815
20
95.6065708
11
20.7034815
21
96.8238708
0
LINE
8
DEFAULT_255_2_778
10
3.7108815
20
93.1305708
11
3.6968815
21
93.1165708
0
LINE
8
DEFAULT_255_2_778
10
3.6968815
20
93.1165708
11
3.6968815
21
95.6065708
0
LINE
8
DEFAULT_255_2_778
10
3.6968815
20
95.6065708
11
3.6902815
21
96.8238708
0
LINE
8
DEFAULT_255_2_778
10
3.6902815
20
96.8238708
11
20.7034815
21
96.8230708
0
LINE
8
DEFAULT_255_2_778
10
20.7034815
20
96.8230708
11
3.6902815
21
96.8230708
0
LINE
8
DEFAULT_255_2_778
10
3.6902815
20
96.8230708
11
20.7034815
21
96.8230708
0
LINE
8
DEFAULT_255_2_778
10
20.7034815
20
96.8230708
11
20.6828815
21
96.8024708
0
LINE
8
DEFAULT_255_2_778
10
2.266
20
14.6255583
11
2.266
21
14.4456583
0
LINE
8
DEFAULT_255_2_778
10
7.7620053
20
14.6255583
11
2.2658053
21
14.6255583
0
LINE
8
DEFAULT_255_2_778
10
2.2658053
20
14.6255583
11
2.2658053
21
14.4456583
0
LINE
8
DEFAULT_255_2_778
10
2.2658053
20
14.4456583
11
7.7620053
21
14.4456583
0
LINE
8
DEFAULT_255_2_778
10
2.266
20
10.8155583
11
2.266
21
10.6356583
0
LINE
8
DEFAULT_255_2_778
10
7.7620053
20
10.8155583
11
2.2658053
21
10.8155583
0
LINE
8
DEFAULT_255_2_778
10
2.2658053
20
10.8155583
11
2.2658053
21
10.6356583
0
LINE
8
DEFAULT_255_2_778
10
2.2658053
20
10.6356583
11
7.7620053
21
10.6356583
0
LINE
8
DEFAULT_255_2_778
10
2.266
20
26.0555583
11
2.266
21
25.8756583
0
LINE
8
DEFAULT_255_2_778
10
7.7620053
20
26.0555583
11
2.2658053
21
26.0555583
0
LINE
8
DEFAULT_255_2_778
10
2.2658053
20
26.0555583
11
2.2658053
21
25.8756583
0
LINE
8
DEFAULT_255_2_778
10
2.2658053
20
25.8756583
11
7.7620053
21
25.8756583
0
LINE
8
DEFAULT_255_2_778
10
2.266
20
22.2455583
11
2.266
21
22.0656583
0
LINE
8
DEFAULT_255_2_778
10
7.7620053
20
22.2455583
11
2.2658053
21
22.2455583
0
LINE
8
DEFAULT_255_2_778
10
2.2658053
20
22.2455583
11
2.2658053
21
22.0656583
0
LINE
8
DEFAULT_255_2_778
10
2.2658053
20
22.0656583
11
7.7620053
21
22.0656583
0
LINE
8
DEFAULT_255_2_778
10
2.266
20
48.9155583
11
2.266
21
48.7356583
0
LINE
8
DEFAULT_255_2_778
10
7.7620053
20
48.9155583
11
2.2658053
21
48.9155583
0
LINE
8
DEFAULT_255_2_778
10
2.2658053
20
48.9155583
11
2.2658053
21
48.7356583
0
LINE
8
DEFAULT_255_2_778
10
2.2658053
20
48.7356583
11
7.7620053
21
48.7356583
0
LINE
8
DEFAULT_255_2_778
10
2.266
20
52.7255583
11
2.266
21
52.5456583
0
LINE
8
DEFAULT_255_2_778
10
7.7620053
20
52.7255583
11
2.2658053
21
52.7255583
0
LINE
8
DEFAULT_255_2_778
10
2.2658053
20
52.7255583
11
2.2658053
21
52.5456583
0
LINE
8
DEFAULT_255_2_778
10
2.2658053
20
52.5456583
11
7.7620053
21
52.5456583
0
LINE
8
DEFAULT_255_2_778
10
2.266
20
56.5355583
11
2.266
21
56.3556583
0
LINE
8
DEFAULT_255_2_778
10
7.7620053
20
56.5355583
11
2.2658053
21
56.5355583
0
LINE
8
DEFAULT_255_2_778
10
2.2658053
20
56.5355583
11
2.2658053
21
56.3556583
0
LINE
8
DEFAULT_255_2_778
10
2.2658053
20
56.3556583
11
7.7620053
21
56.3556583
0
LINE
8
DEFAULT_255_2_778
10
2.266
20
37.4855583
11
2.266
21
37.3056583
0
LINE
8
DEFAULT_255_2_778
10
7.7620053
20
37.4855583
11
2.2658053
21
37.4855583
0
LINE
8
DEFAULT_255_2_778
10
2.2658053
20
37.4855583
11
2.2658053
21
37.3056583
0
LINE
8
DEFAULT_255_2_778
10
2.2658053
20
37.3056583
11
7.7620053
21
37.3056583
0
LINE
8
DEFAULT_255_2_778
10
2.266
20
41.2955583
11
2.266
21
41.1156583
0
LINE
8
DEFAULT_255_2_778
10
7.7620053
20
41.2955583
11
2.2658053
21
41.2955583
0
LINE
8
DEFAULT_255_2_778
10
2.2658053
20
41.2955583
11
2.2658053
21
41.1156583
0
LINE
8
DEFAULT_255_2_778
10
2.2658053
20
41.1156583
11
7.7620053
21
41.1156583
0
LINE
8
DEFAULT_255_2_778
10
2.266
20
60.3455583
11
2.266
21
60.1656583
0
LINE
8
DEFAULT_255_2_778
10
7.7620053
20
60.3455583
11
2.2658053
21
60.3455583
0
LINE
8
DEFAULT_255_2_778
10
2.2658053
20
60.3455583
11
2.2658053
21
60.1656583
0
LINE
8
DEFAULT_255_2_778
10
2.2658053
20
60.1656583
11
7.7620053
21
60.1656583
0
LINE
8
DEFAULT_255_2_778
10
2.266
20
63.9554583
11
2.266
21
63.7755583
0
LINE
8
DEFAULT_255_2_778
10
7.7620053
20
63.9554583
11
2.2658053
21
63.9554583
0
LINE
8
DEFAULT_255_2_778
10
2.2658053
20
63.9554583
11
2.2658053
21
63.7755583
0
LINE
8
DEFAULT_255_2_778
10
2.2658053
20
63.7755583
11
7.7620053
21
63.7755583
0
LINE
8
DEFAULT_255_2_778
10
2.266
20
29.8655583
11
2.266
21
29.6856583
0
LINE
8
DEFAULT_255_2_778
10
7.7620053
20
29.8655583
11
2.2658053
21
29.8655583
0
LINE
8
DEFAULT_255_2_778
10
2.2658053
20
29.8655583
11
2.2658053
21
29.6856583
0
LINE
8
DEFAULT_255_2_778
10
2.2658053
20
29.6856583
11
7.7620053
21
29.6856583
0
LINE
8
DEFAULT_255_2_778
10
2.266
20
33.6755583
11
2.266
21
33.4956583
0
LINE
8
DEFAULT_255_2_778
10
7.7620053
20
33.6755583
11
2.2658053
21
33.6755583
0
LINE
8
DEFAULT_255_2_778
10
2.2658053
20
33.6755583
11
2.2658053
21
33.4956583
0
LINE
8
DEFAULT_255_2_778
10
2.2658053
20
33.4956583
11
7.7620053
21
33.4956583
0
LINE
8
DEFAULT_255_2_778
10
2.266
20
7.0055583
11
2.266
21
6.8256583
0
LINE
8
DEFAULT_255_2_778
10
7.7620053
20
7.0055583
11
2.2658053
21
7.0055583
0
LINE
8
DEFAULT_255_2_778
10
2.2658053
20
7.0055583
11
2.2658053
21
6.8256583
0
LINE
8
DEFAULT_255_2_778
10
2.2658053
20
6.8256583
11
7.7620053
21
6.8256583
0
LINE
8
DEFAULT_255_2_778
10
2.266
20
3.1955583
11
2.266
21
3.0156583
0
LINE
8
DEFAULT_255_2_778
10
7.7620053
20
3.1955583
11
2.2658053
21
3.1955583
0
LINE
8
DEFAULT_255_2_778
10
2.2658053
20
3.1955583
11
2.2658053
21
3.0156583
0
LINE
8
DEFAULT_255_2_778
10
2.2658053
20
3.0156583
11
7.7620053
21
3.0156583
0
LINE
8
DEFAULT_255_2_778
10
2.266
20
18.4355583
11
2.266
21
18.2556583
0
LINE
8
DEFAULT_255_2_778
10
7.7620053
20
18.4355583
11
2.2658053
21
18.4355583
0
LINE
8
DEFAULT_255_2_778
10
2.2658053
20
18.4355583
11
2.2658053
21
18.2556583
0
LINE
8
DEFAULT_255_2_778
10
2.2658053
20
18.2556583
11
7.7620053
21
18.2556583
0
LINE
8
DEFAULT_255_2_778
10
2.266
20
45.1055583
11
2.266
21
44.9256583
0
LINE
8
DEFAULT_255_2_778
10
7.7620053
20
45.1055583
11
2.2658053
21
45.1055583
0
LINE
8
DEFAULT_255_2_778
10
2.2658053
20
45.1055583
11
2.2658053
21
44.9256583
0
LINE
8
DEFAULT_255_2_778
10
2.2658053
20
44.9256583
11
7.7620053
21
44.9256583
0
ARC
8
DEFAULT_255_2_778
10
22.1689202
20
101.0075452
40
1.0712457
50
90.004149
51
90.1526665
0
ARC
8
DEFAULT_255_2_778
10
22.1688595
20
101.0812676
40
0.9975233
50
11.8663086
51
90.0009716
0
ARC
8
DEFAULT_255_2_778
10
21.9649202
20
101.0075452
40
1.0712457
50
90.004149
51
90.1526665
0
ARC
8
DEFAULT_255_2_778
10
21.9648595
20
101.0812676
40
0.9975233
50
11.8663086
51
90.0009716
0
ARC
8
DEFAULT_255_2_778
10
1.9070721
20
101.0812676
40
0.9975233
50
89.9990284
51
168.1336914
0
ARC
8
DEFAULT_255_2_778
10
1.9070114
20
101.0075452
40
1.0712457
50
89.8473335
51
89.995851
0
ARC
8
DEFAULT_255_2_778
10
20.7709437
20
102.2672932
40
1.1702199
50
49.046123
51
90.0044015
0
ARC
8
DEFAULT_255_2_778
10
20.7708525
20
102.2675828
40
1.1699302
50
89.9999384
51
94.8980789
0
ARC
8
DEFAULT_255_2_778
10
20.7710235
20
102.2659117
40
1.1716097
50
94.8994312
51
101.4788549
0
ARC
8
DEFAULT_255_2_778
10
3.3048963
20
102.2658765
40
1.1716465
50
78.5209237
51
85.0386007
0
ARC
8
DEFAULT_255_2_778
10
3.3050995
20
102.2679155
40
1.1695976
50
85.0398787
51
89.9999774
0
ARC
8
DEFAULT_255_2_778
10
3.3051557
20
102.2668438
40
1.1706692
50
90.0027258
51
130.945663
0
ARC
8
DEFAULT_255_2_778
10
3.7093392
20
101.0443236
40
1.3245973
50
93.1754084
51
130.9761322
0
ARC
8
DEFAULT_255_2_778
10
3.7086448
20
101.042049
40
1.3258608
50
130.8890254
51
173.1293171
0
ARC
8
DEFAULT_255_2_778
10
3.727164
20
101.0394376
40
1.3445594
50
173.1132405
51
174.881781
0
ARC
8
DEFAULT_255_2_778
10
20.3684248
20
101.0423833
40
1.3247182
50
5.0671673
51
42.8643399
0
ARC
8
DEFAULT_255_2_778
10
20.3662906
20
101.0431596
40
1.325756
50
42.7770056
51
85.0206985
0
ARC
8
DEFAULT_255_2_778
10
20.3642806
20
101.0242214
40
1.3447971
50
85.0054218
51
86.7736907
0
ARC
8
DEFAULT_255_2_778
10
12.0378085
20
41.890169
40
61.0575932
50
82.0904085
51
89.9950577
0
LINE
8
DEFAULT_255_2_778
10
12.0430753
20
102.9477619
11
12.0378283
21
102.9477621
0
ARC
8
DEFAULT_255_2_778
10
12.0378102
20
41.8917989
40
61.0559632
50
89.999983
51
97.9096971
0
ARC
8
DEFAULT_255_2_778
10
3.7079901
20
101.2732525
40
1.3249035
50
137.1386752
51
174.9322051
0
ARC
8
DEFAULT_255_2_778
10
3.7099743
20
101.2742107
40
1.3257077
50
94.9809242
51
137.2273619
0
ARC
8
DEFAULT_255_2_778
10
3.7118973
20
101.2560574
40
1.3439595
50
93.2260333
51
94.9954048
0
ARC
8
DEFAULT_255_2_778
10
12.0383382
20
42.1223932
40
61.0563688
50
89.9999741
51
97.9096707
0
ARC
8
DEFAULT_255_2_778
10
12.0383934
20
42.1223932
40
61.0563688
50
82.0903293
51
90.0000259
0
ARC
8
DEFAULT_255_2_778
10
20.3670751
20
101.275418
40
1.324504
50
49.0193715
51
86.8236175
0
ARC
8
DEFAULT_255_2_778
10
20.3675975
20
101.2729147
40
1.3260529
50
6.8711847
51
49.1073447
0
ARC
8
DEFAULT_255_2_778
10
20.3491694
20
101.270328
40
1.3446581
50
5.1182508
51
6.8866671
0
ARC
8
DEFAULT_255_2_778
10
18.0371936
20
105.2616983
40
1.7569171
50
269.9993858
51
310.9279156
0
ARC
8
DEFAULT_255_2_778
10
18.0371761
20
105.2605379
40
1.7557567
50
265.0670915
51
269.999957
0
ARC
8
DEFAULT_255_2_778
10
18.0374315
20
105.2630214
40
1.7582528
50
258.5456734
51
265.0657591
0
ARC
8
DEFAULT_255_2_778
10
16.4390001
20
105.2630214
40
1.7582528
50
274.9342409
51
281.4543266
0
ARC
8
DEFAULT_255_2_778
10
16.4392555
20
105.2605379
40
1.7557566
50
270.000043
51
274.9329085
0
ARC
8
DEFAULT_255_2_778
10
16.439238
20
105.2616983
40
1.7569171
50
229.0720844
51
270.0006142
0
ARC
8
DEFAULT_255_2_778
10
7.6369936
20
105.2616983
40
1.7569171
50
269.9993858
51
310.9279156
0
ARC
8
DEFAULT_255_2_778
10
7.6369761
20
105.2605379
40
1.7557567
50
265.0670915
51
269.999957
0
ARC
8
DEFAULT_255_2_778
10
7.6372315
20
105.2630214
40
1.7582528
50
258.5456734
51
265.0657591
0
ARC
8
DEFAULT_255_2_778
10
6.0388006
20
105.2630157
40
1.7582472
50
274.930239
51
281.454348
0
ARC
8
DEFAULT_255_2_778
10
6.0390551
20
105.2605044
40
1.7557232
50
270.000022
51
274.929007
0
ARC
8
DEFAULT_255_2_778
10
6.0390876
20
105.2620995
40
1.7573182
50
229.0769668
51
269.9989634
0
ARC
8
DEFAULT_255_2_778
10
22.3447743
20
98.586219
40
1.4939207
50
47.6506908
51
79.4084761
0
ARC
8
DEFAULT_255_2_778
10
22.3144498
20
98.5492847
40
1.5416472
50
45.0101531
51
47.742465
0
ARC
8
DEFAULT_255_2_778
10
22.3502014
20
98.5795604
40
1.4949646
50
0.0030088
51
45.1588701
0
ARC
8
DEFAULT_255_2_778
10
23.1384159
20
98.579451
40
0.7067501
50
359.9542851
51
0.015238
0
ARC
8
DEFAULT_255_2_778
10
0.9386157
20
98.579451
40
0.7067501
50
179.984762
51
180.0457149
0
ARC
8
DEFAULT_255_2_778
10
1.7268302
20
98.5795604
40
1.4949646
50
134.8411299
51
179.9969912
0
ARC
8
DEFAULT_255_2_778
10
1.7342708
20
98.5821576
40
1.4983866
50
106.4120187
51
135.1129014
0
ARC
8
DEFAULT_255_2_778
10
1.7325237
20
98.5850439
40
1.4951247
50
100.5932833
51
106.3790458
0
ARC
8
DEFAULT_255_2_778
10
2.111693
20
101.0816182
40
0.9974717
50
89.9986756
51
168.1536477
0
ARC
8
DEFAULT_255_2_778
10
2.1117998
20
101.0929554
40
0.9861345
50
89.8683404
51
90.0048649
0
ARC
8
DEFAULT_255_2_778
10
2.9123372
20
100.4524986
40
0.7473382
50
134.5274319
51
178.7894632
0
ARC
8
DEFAULT_255_2_778
10
8.0322251
20
102.5485768
40
1.4923785
50
132.7882654
51
138.3804305
0
ARC
8
DEFAULT_255_2_778
10
16.0276901
20
102.5325899
40
1.5151947
50
41.6617051
51
47.1695963
0
ARC
8
DEFAULT_255_2_778
10
8.0389083
20
102.5413797
40
1.5025076
50
90.0283156
51
111.0323534
0
ARC
8
DEFAULT_255_2_778
10
16.0373972
20
102.5423163
40
1.5015709
50
68.9610156
51
89.9744888
0
ARC
8
DEFAULT_255_2_778
10
8.037791
20
102.5440512
40
1.4996848
50
111.0362715
51
132.835282
0
ARC
8
DEFAULT_255_2_778
10
16.0381406
20
102.5440512
40
1.4996848
50
47.164718
51
68.9637285
0
ARC
8
DEFAULT_255_2_778
10
22.5108352
20
101.7640643
40
0.6275876
50
149.9020181
51
179.9917259
0
ARC
8
DEFAULT_255_2_778
10
22.5097528
20
101.7641533
40
0.6265053
50
179.9998528
51
184.1222391
0
ARC
8
DEFAULT_255_2_778
10
22.5102057
20
101.7641851
40
0.6269594
50
184.1221623
51
187.4689751
0
ARC
8
DEFAULT_255_2_778
10
1.5626215
20
101.7634838
40
0.6310382
50
352.6437881
51
356.5529499
0
ARC
8
DEFAULT_255_2_778
10
1.5626672
20
101.7634811
40
0.6309925
50
356.5529415
51
0.0000662
0
ARC
8
DEFAULT_255_2_778
10
1.564605
20
101.7637118
40
0.6290547
50
359.979055
51
30.0576415
0
ARC
8
DEFAULT_255_2_778
10
21.1630352
20
100.4521278
40
0.7482052
50
1.237533
51
45.4455719
0
ARC
8
DEFAULT_255_2_778
10
22.6542912
20
100.6002619
40
0.7429754
50
67.3204054
51
90.0013834
0
LINE
8
DEFAULT_255_2_778
10
22.6542733
20
101.3432372
11
22.6540146
21
101.3432371
0
ARC
8
DEFAULT_255_2_778
10
22.6542646
20
100.6000436
40
0.7431936
50
90.0192737
51
112.6161216
0
ARC
8
DEFAULT_255_2_778
10
21.9103195
20
101.2200306
40
0.4628838
50
8.2044799
51
89.9783985
0
ARC
8
DEFAULT_255_2_778
10
21.9105085
20
101.2136147
40
0.4692999
50
90.0017696
51
92.7165864
0
ARC
8
DEFAULT_255_2_778
10
1.4218432
20
100.6000724
40
0.7433897
50
89.9949865
51
112.6581405
0
LINE
8
DEFAULT_255_2_778
10
1.4219083
20
101.3434622
11
1.4221614
21
101.3434621
0
ARC
8
DEFAULT_255_2_778
10
1.421965
20
100.5998579
40
0.7436043
50
67.4052468
51
89.9848693
0
ARC
8
DEFAULT_255_2_778
10
2.1659634
20
101.220156
40
0.4630586
50
90.0279498
51
171.7768061
0
ARC
8
DEFAULT_255_2_778
10
2.165723
20
101.2139146
40
0.4692999
50
87.2834137
51
89.9982305
0
ARC
8
DEFAULT_255_2_778
10
1.8305864
20
1.4695506
40
1.6249746
50
270.0019559
51
270.2108301
0
ARC
8
DEFAULT_255_2_778
10
1.8305853
20
1.442456
40
1.5978799
50
224.3293307
51
270.0020288
0
ARC
8
DEFAULT_255_2_778
10
1.8311021
20
1.4428327
40
1.5985127
50
179.9999544
51
224.3260439
0
ARC
8
DEFAULT_255_2_778
10
1.8342965
20
1.4428206
40
1.6017071
50
178.462831
51
179.9995211
0
ARC
8
DEFAULT_255_2_778
10
1.8268781
20
1.4841304
40
1.5937132
50
179.9404396
51
208.3547826
0
ARC
8
DEFAULT_255_2_778
10
1.834447
20
1.4875527
40
1.6019996
50
208.3339323
51
261.233694
0
ARC
8
DEFAULT_255_2_778
10
1.8336034
20
1.4999667
40
1.6141424
50
261.3304449
51
269.4946125
0
ARC
8
DEFAULT_255_2_778
10
11.0831747
20
1.9491435
40
0.4521506
50
185.5788915
51
230.9736976
0
ARC
8
DEFAULT_255_2_778
10
11.0831786
20
1.9483206
40
0.4515141
50
230.9075656
51
270.0036979
0
ARC
8
DEFAULT_255_2_778
10
11.0832048
20
1.9488494
40
0.4520427
50
270.0003698
51
275.8470357
0
ARC
8
DEFAULT_255_2_778
10
11.0829735
20
1.9511505
40
0.4543554
50
275.8464882
51
276.3550536
0
ARC
8
DEFAULT_255_2_778
10
17.4065362
20
1.9225625
40
1.438959
50
349.0645233
51
0.0122973
0
ARC
8
DEFAULT_255_2_778
10
17.3950235
20
1.9228593
40
1.4504715
50
0.0004753
51
1.3640005
0
ARC
8
DEFAULT_255_2_778
10
17.3916513
20
1.9227784
40
1.4538448
50
1.3640274
51
3.0284285
0
ARC
8
DEFAULT_255_2_778
10
12.538342
20
0.1992897
40
0.5001974
50
90.0201886
51
169.2851496
0
ARC
8
DEFAULT_255_2_778
10
22.2447392
20
1.4794069
40
1.5938675
50
270.4431175
51
298.8531936
0
ARC
8
DEFAULT_255_2_778
10
22.2414069
20
1.4867684
40
1.6019233
50
298.8305232
51
351.8511541
0
ARC
8
DEFAULT_255_2_778
10
22.2290849
20
1.4857636
40
1.6139809
50
351.9484663
51
359.9901834
0
ARC
8
DEFAULT_255_2_778
10
13.4803875
20
1.2492989
40
0.5581779
50
279.9324338
51
357.5755699
0
ARC
8
DEFAULT_255_2_778
10
-23.1274154
20
0.6852689
40
45.3915312
50
358.990165
51
0.000023
0
ARC
8
DEFAULT_255_2_778
10
-23.1299792
20
0.6852827
40
45.3940949
50
0.0000056
51
1.0098064
0
ARC
8
DEFAULT_255_2_778
10
18.3469458
20
2.2935021
40
0.793724
50
269.7271331
51
270.0029817
0
ARC
8
DEFAULT_255_2_778
10
18.3463661
20
2.3195535
40
0.8197756
50
270.0434037
51
305.2132187
0
LINE
8
DEFAULT_255_2_778
10
21.4199658
20
102.0787871
11
22.1660658
21
102.0787871
0
LINE
8
DEFAULT_255_2_778
10
22.9410658
20
101.2863871
11
23.1445658
21
101.2863871
0
LINE
8
DEFAULT_255_2_778
10
23.1445658
20
101.2863871
11
23.5223658
21
99.5056871
0
LINE
8
DEFAULT_255_2_778
10
1.9098658
20
102.0787871
11
2.1082658
21
102.0787871
0
LINE
8
DEFAULT_255_2_778
10
21.5379658
20
102.0787871
11
21.5379658
21
103.1510871
0
LINE
8
DEFAULT_255_2_778
10
20.5378658
20
103.4140871
11
3.5380658
21
103.4140871
0
LINE
8
DEFAULT_255_2_778
10
2.5379658
20
103.1510871
11
2.5379658
21
102.0787871
0
LINE
8
DEFAULT_255_2_778
10
2.3879658
20
101.1593871
11
2.3879658
21
100.7253871
0
LINE
8
DEFAULT_255_2_778
10
2.3879658
20
100.7253871
11
21.6879658
21
100.7253871
0
LINE
8
DEFAULT_255_2_778
10
21.6879658
20
100.7253871
11
21.6879658
21
101.1593871
0
LINE
8
DEFAULT_255_2_778
10
3.6357658
20
102.3668871
11
3.6359658
21
102.3668871
0
LINE
8
DEFAULT_255_2_778
10
2.3882658
20
101.1593871
11
2.3882658
21
101.3902871
0
LINE
8
DEFAULT_255_2_778
10
21.6884658
20
101.3902871
11
21.6884658
21
101.1593871
0
LINE
8
DEFAULT_255_2_778
10
21.6884658
20
100.3446871
11
2.3882658
21
100.3446871
0
LINE
8
DEFAULT_255_2_778
10
21.6882658
20
102.0787871
11
21.6882658
21
104.2761871
0
LINE
8
DEFAULT_255_2_778
10
21.6882658
20
104.2761871
11
19.1881658
21
104.2761871
0
LINE
8
DEFAULT_255_2_778
10
19.1881658
20
104.2761871
11
19.1881658
21
103.9342871
0
LINE
8
DEFAULT_255_2_778
10
17.6882658
20
103.5397871
11
16.7881658
21
103.5397871
0
LINE
8
DEFAULT_255_2_778
10
15.2882658
20
103.9342871
11
15.2882658
21
104.2761871
0
LINE
8
DEFAULT_255_2_778
10
15.2882658
20
104.2761871
11
12.7881658
21
104.2761871
0
LINE
8
DEFAULT_255_2_778
10
12.7881658
20
104.2761871
11
12.7881658
21
103.6710871
0
LINE
8
DEFAULT_255_2_778
10
12.7881658
20
103.6710871
11
12.7310658
21
103.5955871
0
LINE
8
DEFAULT_255_2_778
10
12.7310658
20
103.5955871
11
12.5685658
21
103.5315871
0
LINE
8
DEFAULT_255_2_778
10
12.5685658
20
103.5315871
11
12.3251658
21
103.4887871
0
LINE
8
DEFAULT_255_2_778
10
12.3251658
20
103.4887871
11
12.0380658
21
103.4736871
0
LINE
8
DEFAULT_255_2_778
10
12.0380658
20
103.4736871
11
11.7510658
21
103.4887871
0
LINE
8
DEFAULT_255_2_778
10
11.7510658
20
103.4887871
11
11.5075658
21
103.5315871
0
LINE
8
DEFAULT_255_2_778
10
11.5075658
20
103.5315871
11
11.3451658
21
103.5955871
0
LINE
8
DEFAULT_255_2_778
10
11.3451658
20
103.5955871
11
11.2879658
21
103.6710871
0
LINE
8
DEFAULT_255_2_778
10
11.2879658
20
103.6710871
11
11.2879658
21
104.2761871
0
LINE
8
DEFAULT_255_2_778
10
11.2879658
20
104.2761871
11
8.7879658
21
104.2761871
0
LINE
8
DEFAULT_255_2_778
10
8.7879658
20
104.2761871
11
8.7879658
21
103.9342871
0
LINE
8
DEFAULT_255_2_778
10
7.2880658
20
103.5397871
11
6.3879658
21
103.5397871
0
LINE
8
DEFAULT_255_2_778
10
4.8879658
20
103.9342871
11
4.8879658
21
104.2761871
0
LINE
8
DEFAULT_255_2_778
10
4.8879658
20
104.2761871
11
2.3882658
21
104.2761871
0
LINE
8
DEFAULT_255_2_778
10
2.3882658
20
104.2761871
11
2.3882658
21
102.0787871
0
LINE
8
DEFAULT_255_2_778
10
11.9129658
20
103.4767871
11
12.0383658
21
103.6937871
0
LINE
8
DEFAULT_255_2_778
10
12.0383658
20
103.6937871
11
12.1637658
21
103.4767871
0
LINE
8
DEFAULT_255_2_778
10
12.7884658
20
103.9437871
11
11.2885658
21
103.9437871
0
LINE
8
DEFAULT_255_2_778
10
12.7884658
20
104.0438871
11
11.2885658
21
104.0438871
0
LINE
8
DEFAULT_255_2_778
10
12.0097658
20
103.6437871
11
11.2959658
21
103.6437871
0
LINE
8
DEFAULT_255_2_778
10
12.7813658
20
103.6437871
11
12.0674658
21
103.6437871
0
LINE
8
DEFAULT_255_2_778
10
0.5538658
20
99.5056871
11
0.9316658
21
101.2863871
0
LINE
8
DEFAULT_255_2_778
10
0.9316658
20
101.2863871
11
1.1354658
21
101.2863871
0
LINE
8
DEFAULT_255_2_778
10
15.2882658
20
104.2761871
11
15.2882658
21
104.4311871
0
LINE
8
DEFAULT_255_2_778
10
15.2882658
20
104.4311871
11
12.7881658
21
104.4311871
0
LINE
8
DEFAULT_255_2_778
10
12.7881658
20
104.4311871
11
12.7881658
21
104.2761871
0
LINE
8
DEFAULT_255_2_778
10
11.2882658
20
104.2761871
11
11.2882658
21
104.4311871
0
LINE
8
DEFAULT_255_2_778
10
11.2882658
20
104.4311871
11
8.7882658
21
104.4311871
0
LINE
8
DEFAULT_255_2_778
10
8.7882658
20
104.4311871
11
8.7882658
21
104.2761871
0
LINE
8
DEFAULT_255_2_778
10
2.1651658
20
100.4682871
11
2.1281658
21
100.0131871
0
LINE
8
DEFAULT_255_2_778
10
8.7882658
20
104.0438871
11
8.0381658
21
104.0438871
0
LINE
8
DEFAULT_255_2_778
10
16.0380658
20
104.0438871
11
15.2879658
21
104.0438871
0
LINE
8
DEFAULT_255_2_778
10
8.7879658
20
103.9437871
11
7.4994658
21
103.9437871
0
LINE
8
DEFAULT_255_2_778
10
7.0181658
20
103.6437871
11
8.3029658
21
103.6437871
0
LINE
8
DEFAULT_255_2_778
10
15.7729658
20
103.6437871
11
17.0577658
21
103.6437871
0
LINE
8
DEFAULT_255_2_778
10
16.5764658
20
103.9437871
11
15.2879658
21
103.9437871
0
LINE
8
DEFAULT_255_2_778
10
2.3882658
20
100.0086871
11
2.3882658
21
100.7253871
0
LINE
8
DEFAULT_255_2_778
10
21.6882658
20
100.7253871
11
21.6882658
21
100.0086871
0
LINE
8
DEFAULT_255_2_778
10
21.8885658
20
101.6826871
11
21.6284658
21
101.6826871
0
LINE
8
DEFAULT_255_2_778
10
2.4485658
20
101.6826871
11
2.1884658
21
101.6826871
0
LINE
8
DEFAULT_255_2_778
10
2.1090658
20
102.0787871
11
2.6474658
21
102.0787871
0
LINE
8
DEFAULT_255_2_778
10
21.9110658
20
100.4682871
11
21.9480658
21
100.0131871
0
LINE
8
DEFAULT_255_2_778
10
23.2503658
20
99.7728871
11
22.9407658
21
101.2857871
0
LINE
8
DEFAULT_255_2_778
10
0.8258658
20
99.7731871
11
1.1354658
21
101.2860871
0
LINE
8
DEFAULT_255_2_778
10
1.7074658
20
101.2863871
11
1.4404658
21
99.9686871
0
LINE
8
DEFAULT_255_2_778
10
1.4404658
20
99.9686871
11
1.7987658
21
100.0128871
0
LINE
8
DEFAULT_255_2_778
10
1.7987658
20
100.0128871
11
1.8029658
21
100.0086871
0
LINE
8
DEFAULT_255_2_778
10
1.8029658
20
100.0086871
11
22.6272658
21
100.0086871
0
LINE
8
DEFAULT_255_2_778
10
22.6272658
20
100.0086871
11
22.3682658
21
101.2863871
0
LINE
8
DEFAULT_255_2_778
10
21.6882658
20
104.2761871
11
21.6882658
21
104.4311871
0
LINE
8
DEFAULT_255_2_778
10
21.6882658
20
104.4311871
11
19.1881658
21
104.4311871
0
LINE
8
DEFAULT_255_2_778
10
19.1881658
20
104.4311871
11
19.1881658
21
104.2761871
0
LINE
8
DEFAULT_255_2_778
10
4.8882658
20
104.2761871
11
4.8882658
21
104.4311871
0
LINE
8
DEFAULT_255_2_778
10
4.8882658
20
104.4311871
11
2.3882658
21
104.4311871
0
LINE
8
DEFAULT_255_2_778
10
2.3882658
20
104.4311871
11
2.3882658
21
104.2761871
0
LINE
8
DEFAULT_255_2_778
10
18.2031658
20
73.2195871
11
23.5932658
21
73.2195871
0
LINE
8
DEFAULT_255_2_778
10
23.5932658
20
72.9695871
11
23.5932658
21
73.4696871
0
LINE
8
DEFAULT_255_2_778
10
0.4832658
20
66.6086871
11
0.4832658
21
66.3586871
0
LINE
8
DEFAULT_255_2_778
10
1.8331658
20
66.3586871
11
1.8331658
21
66.6086871
0
LINE
8
DEFAULT_255_2_778
10
2.3331658
20
66.6086871
11
2.3331658
21
66.3586871
0
LINE
8
DEFAULT_255_2_778
10
1.8249658
20
100.0086871
11
1.8249658
21
66.6086871
0
LINE
8
DEFAULT_255_2_778
10
1.8249658
20
66.6086871
11
6.9879658
21
66.6086871
0
LINE
8
DEFAULT_255_2_778
10
6.9879658
20
66.6086871
11
6.9879658
21
73.4696871
0
LINE
8
DEFAULT_255_2_778
10
6.9879658
20
73.4696871
11
22.2515658
21
73.4696871
0
LINE
8
DEFAULT_255_2_778
10
22.2515658
20
73.4696871
11
22.2515658
21
100.0086871
0
LINE
8
DEFAULT_255_2_778
10
19.0932658
20
72.9695871
11
19.0932658
21
73.2195871
0
LINE
8
DEFAULT_255_2_778
10
19.0932658
20
73.2195871
11
19.0932658
21
72.9695871
0
LINE
8
DEFAULT_255_2_778
10
19.0932658
20
72.9695871
11
19.3432658
21
72.9695871
0
LINE
8
DEFAULT_255_2_778
10
19.3432658
20
72.9695871
11
19.3432658
21
72.3895871
0
LINE
8
DEFAULT_255_2_778
10
18.8431658
20
72.3895871
11
18.8431658
21
73.2195871
0
LINE
8
DEFAULT_255_2_778
10
13.8523658
20
3.0195871
11
7.6031658
21
3.0195871
0
LINE
8
DEFAULT_255_2_778
10
7.6031658
20
3.0195871
11
7.6031658
21
72.3895871
0
LINE
8
DEFAULT_255_2_778
10
7.6031658
20
72.3895871
11
7.9031658
21
72.3895871
0
LINE
8
DEFAULT_255_2_778
10
12.8530658
20
72.3895871
11
7.9031658
21
72.3895871
0
LINE
8
DEFAULT_255_2_778
10
7.9031658
20
72.3895871
11
7.9031658
21
3.0195871
0
LINE
8
DEFAULT_255_2_778
10
12.8530658
20
5.0512871
11
12.8530658
21
3.0195871
0
LINE
8
DEFAULT_255_2_778
10
19.9033658
20
3.0195871
11
19.9033658
21
72.3895871
0
LINE
8
DEFAULT_255_2_778
10
19.9033658
20
72.3895871
11
19.7033658
21
72.3895871
0
LINE
8
DEFAULT_255_2_778
10
19.7033658
20
72.3895871
11
19.7033658
21
3.0195871
0
LINE
8
DEFAULT_255_2_778
10
19.7033658
20
3.0195871
11
19.9033658
21
3.0195871
0
LINE
8
DEFAULT_255_2_778
10
19.9033658
20
72.3895871
11
14.3351658
21
72.3895871
0
LINE
8
DEFAULT_255_2_778
10
14.3351658
20
72.3895871
11
14.3351658
21
3.0195871
0
LINE
8
DEFAULT_255_2_778
10
14.3351658
20
3.0195871
11
19.7030658
21
3.0195871
0
LINE
8
DEFAULT_255_2_778
10
14.3351658
20
3.0195871
11
13.8523658
21
3.0195871
0
LINE
8
DEFAULT_255_2_778
10
13.8523658
20
3.0195871
11
13.8523658
21
72.3895871
0
LINE
8
DEFAULT_255_2_778
10
13.8523658
20
72.3895871
11
14.3351658
21
72.3895871
0
LINE
8
DEFAULT_255_2_778
10
1.8365658
20
-0.1554129
11
1.8352658
21
-0.1144129
0
LINE
8
DEFAULT_255_2_778
10
2.3617658
20
-0.1189129
11
2.3630658
21
-0.1554129
0
LINE
8
DEFAULT_255_2_778
10
2.3630658
20
-0.1554129
11
1.8365658
21
-0.1554129
0
LINE
8
DEFAULT_255_2_778
10
14.0383658
20
1.4995871
11
14.2383658
21
1.4995871
0
LINE
8
DEFAULT_255_2_778
10
18.2833658
20
1.4995871
11
18.2833658
21
1.6495871
0
LINE
8
DEFAULT_255_2_778
10
18.8434658
20
0.3559871
11
18.8074658
21
0.3554871
0
LINE
8
DEFAULT_255_2_778
10
18.8074658
20
0.3554871
11
18.7614658
21
0.3546871
0
LINE
8
DEFAULT_255_2_778
10
18.7614658
20
0.3546871
11
18.6971658
21
0.3535871
0
LINE
8
DEFAULT_255_2_778
10
18.6971658
20
0.3535871
11
18.5349658
21
0.3506871
0
LINE
8
DEFAULT_255_2_778
10
18.5349658
20
0.3506871
11
18.3436658
21
0.3472871
0
LINE
8
DEFAULT_255_2_778
10
18.3436658
20
0.3472871
11
18.3436658
21
1.4995871
0
LINE
8
DEFAULT_255_2_778
10
18.3436658
20
1.4995871
11
14.2380658
21
1.4995871
0
LINE
8
DEFAULT_255_2_778
10
14.2380658
20
1.4995871
11
14.2380658
21
0.6994871
0
LINE
8
DEFAULT_255_2_778
10
14.2380658
20
0.6994871
11
12.5381658
21
0.6994871
0
LINE
8
DEFAULT_255_2_778
10
18.8429658
20
1.4600871
11
19.3429658
21
1.4600871
0
LINE
8
DEFAULT_255_2_778
10
19.3429658
20
1.4600871
11
22.2568658
21
1.4854871
0
LINE
8
DEFAULT_255_2_778
10
22.2568658
20
1.4854871
11
23.8427658
21
1.4854871
0
LINE
8
DEFAULT_255_2_778
10
23.8427658
20
1.4854871
11
23.8427658
21
72.9695871
0
LINE
8
DEFAULT_255_2_778
10
23.8427658
20
72.9695871
11
22.2568658
21
72.9695871
0
LINE
8
DEFAULT_255_2_778
10
11.1329658
20
0.3001871
11
12.0380658
21
0.2922871
0
LINE
8
DEFAULT_255_2_778
10
12.0380658
20
0.2922871
11
18.3431658
21
0.3472871
0
LINE
8
DEFAULT_255_2_778
10
10.6328658
20
0.3088871
11
10.6688658
21
0.3083871
0
LINE
8
DEFAULT_255_2_778
10
10.6688658
20
0.3083871
11
10.7149658
21
0.3075871
0
LINE
8
DEFAULT_255_2_778
10
10.7149658
20
0.3075871
11
10.7791658
21
0.3064871
0
LINE
8
DEFAULT_255_2_778
10
10.7791658
20
0.3064871
11
10.9413658
21
0.3035871
0
LINE
8
DEFAULT_255_2_778
10
10.9413658
20
0.3035871
11
11.1326658
21
0.3001871
0
LINE
8
DEFAULT_255_2_778
10
11.1326658
20
0.3001871
11
11.1326658
21
1.4995871
0
LINE
8
DEFAULT_255_2_778
10
11.1326658
20
1.4995871
11
14.0380658
21
1.4995871
0
LINE
8
DEFAULT_255_2_778
10
14.0380658
20
1.4995871
11
14.0380658
21
1.2256871
0
LINE
8
DEFAULT_255_2_778
10
10.6328658
20
1.4129871
11
10.1373658
21
1.4129871
0
LINE
8
DEFAULT_255_2_778
10
10.1373658
20
1.4129871
11
1.8193658
21
1.4857871
0
LINE
8
DEFAULT_255_2_778
10
1.8193658
20
1.4857871
11
0.2331658
21
1.4857871
0
LINE
8
DEFAULT_255_2_778
10
0.2331658
20
1.4857871
11
0.2331658
21
66.1086871
0
LINE
8
DEFAULT_255_2_778
10
0.2331658
20
66.1086871
11
0.4832658
21
66.1086871
0
LINE
8
DEFAULT_255_2_778
10
0.4832658
20
66.1086871
11
0.4832658
21
66.3586871
0
LINE
8
DEFAULT_255_2_778
10
0.4832658
20
66.3586871
11
1.8193658
21
66.3586871
0
LINE
8
DEFAULT_255_2_778
10
1.8249658
20
66.6086871
11
0.2331658
21
66.6086871
0
LINE
8
DEFAULT_255_2_778
10
23.8432658
20
73.4696871
11
22.2515658
21
73.4696871
0
LINE
8
DEFAULT_255_2_778
10
7.0924658
20
66.6086871
11
6.9877658
21
66.6086871
0
LINE
8
DEFAULT_255_2_778
10
23.8432658
20
95.8996871
11
20.5380658
21
95.8996871
0
LINE
8
DEFAULT_255_2_778
10
3.5380658
20
95.8996871
11
0.2331658
21
95.8996871
0
LINE
8
DEFAULT_255_2_778
10
12.8432658
20
73.4696871
11
12.8432658
21
72.3895871
0
LINE
8
DEFAULT_255_2_778
10
23.8432658
20
72.9695871
11
23.8432658
21
98.5788871
0
LINE
8
DEFAULT_255_2_778
10
19.3432658
20
3.0195871
11
19.3432658
21
1.4600871
0
LINE
8
DEFAULT_255_2_778
10
19.3432658
20
1.4600871
11
19.3440658
21
1.1354871
0
LINE
8
DEFAULT_255_2_778
10
19.3440658
20
1.1354871
11
19.3445658
21
0.8319871
0
LINE
8
DEFAULT_255_2_778
10
19.3445658
20
0.8319871
11
19.3450658
21
0.3287871
0
LINE
8
DEFAULT_255_2_778
10
19.3450658
20
0.3287871
11
19.3445658
21
-0.0115129
0
LINE
8
DEFAULT_255_2_778
10
19.3445658
20
-0.0115129
11
19.3440658
21
-0.1067129
0
LINE
8
DEFAULT_255_2_778
10
19.3440658
20
-0.1067129
11
19.3432658
21
-0.1401129
0
LINE
8
DEFAULT_255_2_778
10
19.3432658
20
-0.1401129
11
22.2570658
21
-0.1147129
0
LINE
8
DEFAULT_255_2_778
10
22.2570658
20
1.4852871
11
22.2570658
21
72.9695871
0
LINE
8
DEFAULT_255_2_778
10
22.2570658
20
72.9695871
11
19.3432658
21
72.9695871
0
LINE
8
DEFAULT_255_2_778
10
9.5383658
20
73.4696871
11
9.5383658
21
73.2185871
0
LINE
8
DEFAULT_255_2_778
10
0.2331658
20
98.5788871
11
0.2331658
21
66.1086871
0
LINE
8
DEFAULT_255_2_778
10
10.6347658
20
3.0198871
11
10.6347658
21
1.4132871
0
LINE
8
DEFAULT_255_2_778
10
10.6347658
20
1.4132871
11
10.6347658
21
0.9907871
0
LINE
8
DEFAULT_255_2_778
10
10.6347658
20
0.9907871
11
10.6347658
21
0.6324871
0
LINE
8
DEFAULT_255_2_778
10
10.6347658
20
0.6324871
11
10.6347658
21
0.3930871
0
LINE
8
DEFAULT_255_2_778
10
10.6347658
20
0.3930871
11
10.6347658
21
0.3088871
0
LINE
8
DEFAULT_255_2_778
10
10.6347658
20
0.3088871
11
10.1391658
21
-0.1866129
0
LINE
8
DEFAULT_255_2_778
10
10.1391658
20
-0.1866129
11
10.1383658
21
-0.1533129
0
LINE
8
DEFAULT_255_2_778
10
10.1383658
20
-0.1533129
11
10.1378658
21
-0.0580129
0
LINE
8
DEFAULT_255_2_778
10
10.1378658
20
-0.0580129
11
10.1373658
21
0.2821871
0
LINE
8
DEFAULT_255_2_778
10
10.1373658
20
0.2821871
11
10.1378658
21
0.7853871
0
LINE
8
DEFAULT_255_2_778
10
10.1378658
20
0.7853871
11
10.1383658
21
1.0888871
0
LINE
8
DEFAULT_255_2_778
10
10.1383658
20
1.0888871
11
10.1391658
21
1.4137871
0
LINE
8
DEFAULT_255_2_778
10
10.1391658
20
1.4137871
11
10.1391658
21
3.0203871
0
LINE
8
DEFAULT_255_2_778
10
10.1373658
20
73.2193871
11
10.6328658
21
73.2193871
0
LINE
8
DEFAULT_255_2_778
10
10.6328658
20
73.2193871
11
10.6328658
21
72.3903871
0
LINE
8
DEFAULT_255_2_778
10
18.8431658
20
3.0203871
11
18.8431658
21
1.4608871
0
LINE
8
DEFAULT_255_2_778
10
18.8431658
20
1.4608871
11
18.8431658
21
1.0383871
0
LINE
8
DEFAULT_255_2_778
10
18.8431658
20
1.0383871
11
18.8431658
21
0.6800871
0
LINE
8
DEFAULT_255_2_778
10
18.8431658
20
0.6800871
11
18.8431658
21
0.4406871
0
LINE
8
DEFAULT_255_2_778
10
18.8431658
20
0.4406871
11
18.8431658
21
0.3565871
0
LINE
8
DEFAULT_255_2_778
10
18.8431658
20
0.3565871
11
19.3432658
21
-0.1390129
0
LINE
8
DEFAULT_255_2_778
10
19.3432658
20
-0.1390129
11
19.2675658
21
-0.1395129
0
LINE
8
DEFAULT_255_2_778
10
19.2675658
20
-0.1395129
11
19.0516658
21
-0.1414129
0
LINE
8
DEFAULT_255_2_778
10
19.0516658
20
-0.1414129
11
18.7286658
21
-0.1443129
0
LINE
8
DEFAULT_255_2_778
10
18.7286658
20
-0.1443129
11
18.3476658
21
-0.1477129
0
LINE
8
DEFAULT_255_2_778
10
18.3476658
20
-0.1477129
11
12.0383658
21
-0.2028129
0
LINE
8
DEFAULT_255_2_778
10
12.0383658
20
-0.2028129
11
11.1287658
21
-0.1948129
0
LINE
8
DEFAULT_255_2_778
10
11.1287658
20
-0.1948129
11
10.7493658
21
-0.1914129
0
LINE
8
DEFAULT_255_2_778
10
10.7493658
20
-0.1914129
11
10.4275658
21
-0.1885129
0
LINE
8
DEFAULT_255_2_778
10
10.4275658
20
-0.1885129
11
10.2127658
21
-0.1866129
0
LINE
8
DEFAULT_255_2_778
10
10.2127658
20
-0.1866129
11
10.1373658
21
-0.1861129
0
LINE
8
DEFAULT_255_2_778
10
10.1373658
20
-0.1861129
11
1.8193658
21
-0.1141129
0
LINE
8
DEFAULT_255_2_778
10
1.8193658
20
-0.1141129
11
1.8193658
21
1.4857871
0
LINE
8
DEFAULT_255_2_778
10
1.8193658
20
1.4857871
11
1.8193658
21
66.3586871
0
LINE
8
DEFAULT_255_2_778
10
1.8193658
20
66.3586871
11
7.1329658
21
66.3586871
0
LINE
8
DEFAULT_255_2_778
10
7.1329658
20
66.3586871
11
7.1329658
21
73.2187871
0
LINE
8
DEFAULT_255_2_778
10
7.1329658
20
73.2187871
11
10.1373658
21
73.2187871
0
LINE
8
DEFAULT_255_2_778
10
10.1373658
20
73.2187871
11
10.1373658
21
72.3898871
0
LINE
8
DEFAULT_255_2_778
10
18.2031658
20
72.3898871
11
18.2031658
21
73.4698871
0
LINE
8
DEFAULT_255_2_778
10
18.8190658
20
1.6497871
11
18.2031658
21
1.6497871
0
LINE
8
DEFAULT_255_2_778
10
18.2031658
20
1.6497871
11
18.2031658
21
3.0198871
0
LINE
8
DEFAULT_255_2_778
10
13.8523658
20
72.3895871
11
12.8530658
21
72.3895871
0
LINE
8
DEFAULT_255_2_778
10
12.8530658
20
72.3895871
11
12.8530658
21
70.3578871
0
ENDSEC
0
EOF