0
SECTION
2
HEADER
9
$MEASUREMENT
70
1
0
ENDSEC
0
SECTION
2
TABLES
0
TABLE
2
LTYPE
0
LTYPE
72
65
70
64
2
CONTINUOUS
3
______
73
0
40
0
0
ENDTAB
0
TABLE
2
LAYER
0
LAYER
2
DEFAULT_255_2_778
70
0
62
255
6
CONTINUOUS
0
ENDTAB
0
ENDSEC
0
SECTION
2
ENTITIES
0
ARC
8
DEFAULT_255_2_778
10
3.8629984
20
76.1739256
40
0.1994217
50
224.8820297
51
269.9993194
0
ARC
8
DEFAULT_255_2_778
10
3.8624183
20
76.1745068
40
0.1994223
50
180.000826
51
225.1179684
0
ARC
8
DEFAULT_255_2_778
10
3.8624179
20
92.524701
40
0.1994219
50
134.8819417
51
179.9991457
0
ARC
8
DEFAULT_255_2_778
10
3.8625105
20
92.5257792
40
0.1987251
50
89.9686547
51
135.1202254
0
LINE
8
DEFAULT_255_2_778
10
3.8626192
20
92.7245043
11
3.8629961
21
92.7245039
0
LINE
8
DEFAULT_255_2_778
10
20.2131961
20
92.7245039
11
20.2135729
21
92.7245043
0
ARC
8
DEFAULT_255_2_778
10
20.2136816
20
92.5257792
40
0.1987251
50
44.8797746
51
90.0313453
0
ARC
8
DEFAULT_255_2_778
10
20.2137736
20
92.5247009
40
0.1994226
50
0.0008817
51
45.1179579
0
ARC
8
DEFAULT_255_2_778
10
20.1808335
20
76.1736949
40
0.2323639
50
0.0153489
51
0.1994804
0
ARC
8
DEFAULT_255_2_778
10
20.2145618
20
76.1738826
40
0.1986357
50
314.9093517
51
359.9638269
0
ARC
8
DEFAULT_255_2_778
10
20.2134189
20
76.1741033
40
0.1996
50
270.3881615
51
315.0969883
0
ARC
8
DEFAULT_255_2_778
10
20.2134961
20
76.1777439
40
0.2032399
50
270.0000017
51
270.3594445
0
LINE
8
DEFAULT_255_2_778
10
3.5380961
20
92.8496039
11
3.5380961
21
75.8496039
0
LINE
8
DEFAULT_255_2_778
10
3.5380961
20
75.8496039
11
20.5380961
21
75.8496039
0
LINE
8
DEFAULT_255_2_778
10
20.5380961
20
75.8496039
11
20.5380961
21
92.8496039
0
LINE
8
DEFAULT_255_2_778
10
20.5380961
20
92.8496039
11
3.5380961
21
92.8496039
0
LINE
8
DEFAULT_255_2_778
10
3.6629961
20
76.1745039
11
3.6629961
21
92.5247039
0
LINE
8
DEFAULT_255_2_778
10
3.8629961
20
92.7245039
11
20.2131961
21
92.7245039
0
LINE
8
DEFAULT_255_2_778
10
20.4131961
20
92.5247039
11
20.4131961
21
76.1745039
0
LINE
8
DEFAULT_255_2_778
10
3.8632961
20
75.9747039
11
20.2131961
21
75.9747039
0
LINE
8
DEFAULT_255_2_778
10
12.8531
20
69.8215447
11
12.8531
21
66.5478447
0
LINE
8
DEFAULT_255_2_778
10
12.8531
20
20.2915447
11
12.8531
21
17.0178447
0
LINE
8
DEFAULT_255_2_778
10
12.8531
20
16.4815447
11
12.8531
21
13.2078447
0
LINE
8
DEFAULT_255_2_778
10
12.8531
20
27.9115447
11
12.8531
21
24.6378447
0
LINE
8
DEFAULT_255_2_778
10
12.8531
20
24.1015447
11
12.8531
21
20.8278447
0
LINE
8
DEFAULT_255_2_778
10
12.8531
20
35.5315447
11
12.8531
21
32.2578447
0
LINE
8
DEFAULT_255_2_778
10
12.8531
20
31.7215447
11
12.8531
21
28.4478447
0
LINE
8
DEFAULT_255_2_778
10
12.8531
20
43.1515447
11
12.8531
21
39.8778447
0
LINE
8
DEFAULT_255_2_778
10
12.8531
20
39.3415447
11
12.8531
21
36.0678447
0
LINE
8
DEFAULT_255_2_778
10
12.8531
20
50.7715447
11
12.8531
21
47.4978447
0
LINE
8
DEFAULT_255_2_778
10
12.8531
20
46.9615447
11
12.8531
21
43.6878447
0
LINE
8
DEFAULT_255_2_778
10
12.8531
20
58.3915447
11
12.8531
21
55.1178447
0
LINE
8
DEFAULT_255_2_778
10
12.8531
20
54.5815447
11
12.8531
21
51.3078447
0
LINE
8
DEFAULT_255_2_778
10
12.8531
20
66.0115447
11
12.8531
21
62.7378447
0
LINE
8
DEFAULT_255_2_778
10
12.8531
20
62.2015447
11
12.8531
21
58.9278447
0
LINE
8
DEFAULT_255_2_778
10
12.8531
20
12.6715447
11
12.8531
21
9.3978447
0
LINE
8
DEFAULT_255_2_778
10
12.8531
20
8.8615447
11
12.8531
21
5.5878447
0
ARC
8
DEFAULT_255_2_778
10
12.4370575
20
70.0895902
40
0.5514778
50
328.4038498
51
0.0119424
0
ARC
8
DEFAULT_255_2_778
10
12.4370572
20
70.08982
40
0.5514783
50
359.9880728
51
31.596145
0
ARC
8
DEFAULT_255_2_778
10
12.9882342
20
70.0899726
40
0.3000487
50
105.7506564
51
180.0224269
0
ARC
8
DEFAULT_255_2_778
10
12.9885875
20
70.0900049
40
0.300402
50
180.0285599
51
254.1983173
0
ARC
8
DEFAULT_255_2_778
10
9.0639829
20
71.310211
40
0.3705592
50
217.241949
51
270.0009231
0
ARC
8
DEFAULT_255_2_778
10
9.064033
20
71.2937953
40
0.3541436
50
269.9928542
51
270.2511718
0
ARC
8
DEFAULT_255_2_778
10
11.9862634
20
71.0883269
40
0.1640392
50
294.998518
51
359.1715532
0
ARC
8
DEFAULT_255_2_778
10
12.4405367
20
71.4213866
40
0.1956995
50
120.6449377
51
173.5251068
0
ARC
8
DEFAULT_255_2_778
10
12.4405369
20
68.7583238
40
0.1956997
50
186.4748879
51
239.3550213
0
ARC
8
DEFAULT_255_2_778
10
8.9054238
20
68.4747658
40
0.5022739
50
140.0842404
51
148.6267469
0
ARC
8
DEFAULT_255_2_778
10
8.906541
20
71.705215
40
0.5033686
50
211.3333413
51
219.8665123
0
ARC
8
DEFAULT_255_2_778
10
11.9861514
20
69.0910107
40
0.1641523
50
0.8532508
51
64.9767689
0
ARC
8
DEFAULT_255_2_778
10
9.0642406
20
68.8296156
40
0.4101417
50
89.8121196
51
89.991023
0
ARC
8
DEFAULT_255_2_778
10
9.0640643
20
68.8694915
40
0.370266
50
89.9627728
51
142.8386156
0
LINE
8
DEFAULT_255_2_778
10
12.9067855
20
69.8009552
11
12.9067855
21
69.8006552
0
LINE
8
DEFAULT_255_2_778
10
12.6873855
20
71.5897552
11
12.6873855
21
68.5896552
0
LINE
8
DEFAULT_255_2_778
10
12.6873855
20
68.5896552
11
8.4032855
21
68.5896552
0
LINE
8
DEFAULT_255_2_778
10
8.4032855
20
68.5896552
11
8.4032855
21
71.5897552
0
LINE
8
DEFAULT_255_2_778
10
8.4032855
20
71.5897552
11
12.6873855
21
71.5897552
0
LINE
8
DEFAULT_255_2_778
10
11.9640855
20
69.2397552
11
11.9640855
21
70.9396552
0
LINE
8
DEFAULT_255_2_778
10
9.2364855
20
69.2397552
11
9.2364855
21
70.9396552
0
LINE
8
DEFAULT_255_2_778
10
9.0655855
20
70.9396552
11
12.0555855
21
70.9396552
0
LINE
8
DEFAULT_255_2_778
10
9.3189855
20
70.9396552
11
9.3189855
21
69.2397552
0
LINE
8
DEFAULT_255_2_778
10
8.4032855
20
68.5899552
11
8.4765855
21
68.7362552
0
LINE
8
DEFAULT_255_2_778
10
8.4765855
20
68.7362552
11
12.2460855
21
68.7362552
0
LINE
8
DEFAULT_255_2_778
10
12.2460855
20
68.7362552
11
12.1502855
21
69.0934552
0
LINE
8
DEFAULT_255_2_778
10
12.1502855
20
69.0934552
11
8.7689855
21
69.0934552
0
LINE
8
DEFAULT_255_2_778
10
8.7689855
20
69.0934552
11
8.5201855
21
68.7970552
0
LINE
8
DEFAULT_255_2_778
10
8.5201855
20
68.7970552
11
8.5201855
21
71.3825552
0
LINE
8
DEFAULT_255_2_778
10
8.4765855
20
71.4434552
11
12.2460855
21
71.4434552
0
LINE
8
DEFAULT_255_2_778
10
12.2460855
20
71.4434552
11
12.1502855
21
71.0862552
0
LINE
8
DEFAULT_255_2_778
10
12.1502855
20
71.0862552
11
8.7689855
21
71.0862552
0
LINE
8
DEFAULT_255_2_778
10
8.7689855
20
71.0862552
11
8.5201855
21
71.3825552
0
LINE
8
DEFAULT_255_2_778
10
8.4032855
20
71.5897552
11
8.4765855
21
71.4434552
0
LINE
8
DEFAULT_255_2_778
10
12.0555855
20
69.2397552
11
9.0655855
21
69.2397552
0
ARC
8
DEFAULT_255_2_778
10
12.4370575
20
66.2795902
40
0.5514778
50
328.4038498
51
0.0119424
0
ARC
8
DEFAULT_255_2_778
10
12.4370572
20
66.27982
40
0.5514783
50
359.9880728
51
31.596145
0
ARC
8
DEFAULT_255_2_778
10
12.9882342
20
66.2799726
40
0.3000487
50
105.7506564
51
180.0224269
0
ARC
8
DEFAULT_255_2_778
10
12.9885875
20
66.2800049
40
0.300402
50
180.0285599
51
254.1983173
0
ARC
8
DEFAULT_255_2_778
10
9.0639829
20
67.500211
40
0.3705592
50
217.241949
51
270.0009231
0
ARC
8
DEFAULT_255_2_778
10
9.064033
20
67.4837953
40
0.3541436
50
269.9928542
51
270.2511718
0
ARC
8
DEFAULT_255_2_778
10
11.9862634
20
67.2783269
40
0.1640392
50
294.998518
51
359.1715532
0
ARC
8
DEFAULT_255_2_778
10
12.4405367
20
67.6113866
40
0.1956995
50
120.6449377
51
173.5251068
0
ARC
8
DEFAULT_255_2_778
10
12.4405369
20
64.9483238
40
0.1956997
50
186.4748879
51
239.3550213
0
ARC
8
DEFAULT_255_2_778
10
8.9054238
20
64.6647658
40
0.5022739
50
140.0842404
51
148.6267469
0
ARC
8
DEFAULT_255_2_778
10
8.906541
20
67.895215
40
0.5033686
50
211.3333413
51
219.8665123
0
ARC
8
DEFAULT_255_2_778
10
11.9861514
20
65.2810107
40
0.1641523
50
0.8532508
51
64.9767689
0
ARC
8
DEFAULT_255_2_778
10
9.0642406
20
65.0196156
40
0.4101417
50
89.8121196
51
89.991023
0
ARC
8
DEFAULT_255_2_778
10
9.0640643
20
65.0594915
40
0.370266
50
89.9627728
51
142.8386156
0
LINE
8
DEFAULT_255_2_778
10
12.9067855
20
65.9909552
11
12.9067855
21
65.9906552
0
LINE
8
DEFAULT_255_2_778
10
12.6873855
20
67.7797552
11
12.6873855
21
64.7796552
0
LINE
8
DEFAULT_255_2_778
10
12.6873855
20
64.7796552
11
8.4032855
21
64.7796552
0
LINE
8
DEFAULT_255_2_778
10
8.4032855
20
64.7796552
11
8.4032855
21
67.7797552
0
LINE
8
DEFAULT_255_2_778
10
8.4032855
20
67.7797552
11
12.6873855
21
67.7797552
0
LINE
8
DEFAULT_255_2_778
10
11.9640855
20
65.4297552
11
11.9640855
21
67.1296552
0
LINE
8
DEFAULT_255_2_778
10
9.2364855
20
65.4297552
11
9.2364855
21
67.1296552
0
LINE
8
DEFAULT_255_2_778
10
9.0655855
20
67.1296552
11
12.0555855
21
67.1296552
0
LINE
8
DEFAULT_255_2_778
10
9.3189855
20
67.1296552
11
9.3189855
21
65.4297552
0
LINE
8
DEFAULT_255_2_778
10
8.4032855
20
64.7799552
11
8.4765855
21
64.9262552
0
LINE
8
DEFAULT_255_2_778
10
8.4765855
20
64.9262552
11
12.2460855
21
64.9262552
0
LINE
8
DEFAULT_255_2_778
10
12.2460855
20
64.9262552
11
12.1502855
21
65.2834552
0
LINE
8
DEFAULT_255_2_778
10
12.1502855
20
65.2834552
11
8.7689855
21
65.2834552
0
LINE
8
DEFAULT_255_2_778
10
8.7689855
20
65.2834552
11
8.5201855
21
64.9870552
0
LINE
8
DEFAULT_255_2_778
10
8.5201855
20
64.9870552
11
8.5201855
21
67.5725552
0
LINE
8
DEFAULT_255_2_778
10
8.4765855
20
67.6334552
11
12.2460855
21
67.6334552
0
LINE
8
DEFAULT_255_2_778
10
12.2460855
20
67.6334552
11
12.1502855
21
67.2762552
0
LINE
8
DEFAULT_255_2_778
10
12.1502855
20
67.2762552
11
8.7689855
21
67.2762552
0
LINE
8
DEFAULT_255_2_778
10
8.7689855
20
67.2762552
11
8.5201855
21
67.5725552
0
LINE
8
DEFAULT_255_2_778
10
8.4032855
20
67.7797552
11
8.4765855
21
67.6334552
0
LINE
8
DEFAULT_255_2_778
10
12.0555855
20
65.4297552
11
9.0655855
21
65.4297552
0
ARC
8
DEFAULT_255_2_778
10
12.4370575
20
62.4695902
40
0.5514778
50
328.4038498
51
0.0119424
0
ARC
8
DEFAULT_255_2_778
10
12.4370572
20
62.46982
40
0.5514783
50
359.9880728
51
31.596145
0
ARC
8
DEFAULT_255_2_778
10
12.9882342
20
62.4699726
40
0.3000487
50
105.7506564
51
180.0224269
0
ARC
8
DEFAULT_255_2_778
10
12.9885875
20
62.4700049
40
0.300402
50
180.0285599
51
254.1983173
0
ARC
8
DEFAULT_255_2_778
10
9.0639829
20
63.690211
40
0.3705592
50
217.241949
51
270.0009231
0
ARC
8
DEFAULT_255_2_778
10
9.064033
20
63.6737953
40
0.3541436
50
269.9928542
51
270.2511718
0
ARC
8
DEFAULT_255_2_778
10
11.9862634
20
63.4683269
40
0.1640392
50
294.998518
51
359.1715532
0
ARC
8
DEFAULT_255_2_778
10
12.4405367
20
63.8013866
40
0.1956995
50
120.6449377
51
173.5251068
0
ARC
8
DEFAULT_255_2_778
10
12.4405369
20
61.1383238
40
0.1956997
50
186.4748879
51
239.3550213
0
ARC
8
DEFAULT_255_2_778
10
8.9054238
20
60.8547658
40
0.5022739
50
140.0842404
51
148.6267469
0
ARC
8
DEFAULT_255_2_778
10
8.906541
20
64.085215
40
0.5033686
50
211.3333413
51
219.8665123
0
ARC
8
DEFAULT_255_2_778
10
11.9861514
20
61.4710107
40
0.1641523
50
0.8532508
51
64.9767689
0
ARC
8
DEFAULT_255_2_778
10
9.0642406
20
61.2096156
40
0.4101417
50
89.8121196
51
89.991023
0
ARC
8
DEFAULT_255_2_778
10
9.0640643
20
61.2494915
40
0.370266
50
89.9627728
51
142.8386156
0
LINE
8
DEFAULT_255_2_778
10
12.9067855
20
62.1809552
11
12.9067855
21
62.1806552
0
LINE
8
DEFAULT_255_2_778
10
12.6873855
20
63.9697552
11
12.6873855
21
60.9696552
0
LINE
8
DEFAULT_255_2_778
10
12.6873855
20
60.9696552
11
8.4032855
21
60.9696552
0
LINE
8
DEFAULT_255_2_778
10
8.4032855
20
60.9696552
11
8.4032855
21
63.9697552
0
LINE
8
DEFAULT_255_2_778
10
8.4032855
20
63.9697552
11
12.6873855
21
63.9697552
0
LINE
8
DEFAULT_255_2_778
10
11.9640855
20
61.6197552
11
11.9640855
21
63.3196552
0
LINE
8
DEFAULT_255_2_778
10
9.2364855
20
61.6197552
11
9.2364855
21
63.3196552
0
LINE
8
DEFAULT_255_2_778
10
9.0655855
20
63.3196552
11
12.0555855
21
63.3196552
0
LINE
8
DEFAULT_255_2_778
10
9.3189855
20
63.3196552
11
9.3189855
21
61.6197552
0
LINE
8
DEFAULT_255_2_778
10
8.4032855
20
60.9699552
11
8.4765855
21
61.1162552
0
LINE
8
DEFAULT_255_2_778
10
8.4765855
20
61.1162552
11
12.2460855
21
61.1162552
0
LINE
8
DEFAULT_255_2_778
10
12.2460855
20
61.1162552
11
12.1502855
21
61.4734552
0
LINE
8
DEFAULT_255_2_778
10
12.1502855
20
61.4734552
11
8.7689855
21
61.4734552
0
LINE
8
DEFAULT_255_2_778
10
8.7689855
20
61.4734552
11
8.5201855
21
61.1770552
0
LINE
8
DEFAULT_255_2_778
10
8.5201855
20
61.1770552
11
8.5201855
21
63.7625552
0
LINE
8
DEFAULT_255_2_778
10
8.4765855
20
63.8234552
11
12.2460855
21
63.8234552
0
LINE
8
DEFAULT_255_2_778
10
12.2460855
20
63.8234552
11
12.1502855
21
63.4662552
0
LINE
8
DEFAULT_255_2_778
10
12.1502855
20
63.4662552
11
8.7689855
21
63.4662552
0
LINE
8
DEFAULT_255_2_778
10
8.7689855
20
63.4662552
11
8.5201855
21
63.7625552
0
LINE
8
DEFAULT_255_2_778
10
8.4032855
20
63.9697552
11
8.4765855
21
63.8234552
0
LINE
8
DEFAULT_255_2_778
10
12.0555855
20
61.6197552
11
9.0655855
21
61.6197552
0
ARC
8
DEFAULT_255_2_778
10
12.4370249
20
58.6596579
40
0.5514782
50
328.403855
51
0.0119272
0
ARC
8
DEFAULT_255_2_778
10
12.4370252
20
58.6598876
40
0.551478
50
359.9880576
51
31.5961502
0
ARC
8
DEFAULT_255_2_778
10
12.9883299
20
58.6600472
40
0.3000767
50
105.7745541
51
180.023771
0
ARC
8
DEFAULT_255_2_778
10
12.9885652
20
58.6599761
40
0.300312
50
180.0102015
51
254.1914805
0
ARC
8
DEFAULT_255_2_778
10
9.0640213
20
59.8804209
40
0.3707017
50
217.2528531
51
269.9902023
0
ARC
8
DEFAULT_255_2_778
10
9.064002
20
59.8632954
40
0.3535762
50
269.9928486
51
270.2513605
0
ARC
8
DEFAULT_255_2_778
10
11.9863313
20
59.6583944
40
0.1640391
50
294.998445
51
359.1715576
0
ARC
8
DEFAULT_255_2_778
10
12.4406047
20
59.9914539
40
0.1956998
50
120.6449921
51
173.5250749
0
ARC
8
DEFAULT_255_2_778
10
12.4406048
20
57.3283915
40
0.1956999
50
186.4749481
51
239.3549997
0
ARC
8
DEFAULT_255_2_778
10
8.9054916
20
57.0448333
40
0.5022739
50
140.0842404
51
148.6267469
0
ARC
8
DEFAULT_255_2_778
10
8.9066087
20
60.2752825
40
0.5033686
50
211.3333413
51
219.8665123
0
ARC
8
DEFAULT_255_2_778
10
11.9862187
20
57.6610779
40
0.1641527
50
0.8533356
51
64.9766753
0
ARC
8
DEFAULT_255_2_778
10
9.0642096
20
57.4004946
40
0.4093302
50
89.8119351
51
89.9910399
0
ARC
8
DEFAULT_255_2_778
10
9.0641738
20
57.4392732
40
0.3705517
50
89.9845613
51
142.8166504
0
ARC
8
DEFAULT_255_2_778
10
8.9054916
20
53.2348333
40
0.5022739
50
140.0842404
51
148.6267469
0
ARC
8
DEFAULT_255_2_778
10
8.9066087
20
56.4652825
40
0.5033686
50
211.3333413
51
219.8665123
0
ARC
8
DEFAULT_255_2_778
10
12.4373149
20
54.8498758
40
0.5511882
50
328.395328
51
0.0165644
0
LINE
8
DEFAULT_255_2_778
10
12.9885032
20
54.8500352
11
12.9885031
21
54.8503595
0
ARC
8
DEFAULT_255_2_778
10
12.43693
20
54.8501605
40
0.5515731
50
0.0206755
51
31.5933707
0
ARC
8
DEFAULT_255_2_778
10
12.9883596
20
54.8503247
40
0.3001064
50
105.7788345
51
180.0385707
0
ARC
8
DEFAULT_255_2_778
10
12.9885651
20
54.850176
40
0.3003119
50
180.010185
51
254.1914868
0
ARC
8
DEFAULT_255_2_778
10
9.0637307
20
56.0705853
40
0.370366
50
217.2077034
51
270.0040011
0
ARC
8
DEFAULT_255_2_778
10
9.0638007
20
56.0543628
40
0.3541436
50
269.9928542
51
270.2511718
0
ARC
8
DEFAULT_255_2_778
10
11.9858855
20
55.8489871
40
0.1641847
50
295.0308831
51
359.174851
0
ARC
8
DEFAULT_255_2_778
10
12.4403043
20
56.1819541
40
0.1956994
50
120.6449074
51
173.5251176
0
ARC
8
DEFAULT_255_2_778
10
12.4403048
20
53.5188915
40
0.1956999
50
186.4749481
51
239.3549997
0
ARC
8
DEFAULT_255_2_778
10
11.9860313
20
53.8516508
40
0.164039
50
0.8284865
51
65.001578
0
ARC
8
DEFAULT_255_2_778
10
9.0642096
20
53.5909946
40
0.4093302
50
89.8119351
51
89.9910399
0
ARC
8
DEFAULT_255_2_778
10
9.0641738
20
53.6297732
40
0.3705517
50
89.9845613
51
142.8166504
0
ARC
8
DEFAULT_255_2_778
10
8.9054916
20
49.4248333
40
0.5022739
50
140.0842404
51
148.6267469
0
ARC
8
DEFAULT_255_2_778
10
8.9066087
20
52.6552825
40
0.5033686
50
211.3333413
51
219.8665123
0
ARC
8
DEFAULT_255_2_778
10
12.4373149
20
51.0398758
40
0.5511882
50
328.395328
51
0.0165644
0
LINE
8
DEFAULT_255_2_778
10
12.9885032
20
51.0400352
11
12.9885031
21
51.0403595
0
ARC
8
DEFAULT_255_2_778
10
12.43693
20
51.0401605
40
0.5515731
50
0.0206755
51
31.5933707
0
ARC
8
DEFAULT_255_2_778
10
12.9883596
20
51.0403247
40
0.3001064
50
105.7788345
51
180.0385707
0
ARC
8
DEFAULT_255_2_778
10
12.988565
20
51.040176
40
0.3003118
50
180.0101851
51
254.191505
0
ARC
8
DEFAULT_255_2_778
10
9.0640014
20
52.2607275
40
0.3705083
50
217.2186096
51
269.9932783
0
ARC
8
DEFAULT_255_2_778
10
9.064002
20
52.2437954
40
0.3535762
50
269.9928486
51
270.2513605
0
ARC
8
DEFAULT_255_2_778
10
11.9861851
20
52.0389874
40
0.1641852
50
295.0309938
51
359.1747448
0
ARC
8
DEFAULT_255_2_778
10
12.4406046
20
52.3719539
40
0.1956997
50
120.644951
51
173.5250696
0
ARC
8
DEFAULT_255_2_778
10
12.4406044
20
49.7088913
40
0.1956995
50
186.4748932
51
239.3550623
0
ARC
8
DEFAULT_255_2_778
10
11.9863308
20
50.0416505
40
0.1640396
50
0.828574
51
65.0014441
0
ARC
8
DEFAULT_255_2_778
10
9.0640036
20
49.8374525
40
0.3528735
50
89.748387
51
90.0071583
0
ARC
8
DEFAULT_255_2_778
10
9.0640355
20
49.8200547
40
0.3702714
50
90.0117608
51
142.8384197
0
ARC
8
DEFAULT_255_2_778
10
12.4370249
20
47.2296579
40
0.5514782
50
328.403855
51
0.0119272
0
ARC
8
DEFAULT_255_2_778
10
12.4370252
20
47.2298876
40
0.551478
50
359.9880576
51
31.5961502
0
ARC
8
DEFAULT_255_2_778
10
12.98833
20
47.2300471
40
0.3000768
50
105.7745755
51
180.0237628
0
ARC
8
DEFAULT_255_2_778
10
12.9885651
20
47.229976
40
0.3003119
50
180.010185
51
254.1914868
0
ARC
8
DEFAULT_255_2_778
10
9.0637506
20
48.4502785
40
0.3705592
50
217.241949
51
270.0009231
0
ARC
8
DEFAULT_255_2_778
10
9.0638007
20
48.4338628
40
0.3541436
50
269.9928542
51
270.2511718
0
ARC
8
DEFAULT_255_2_778
10
11.9860314
20
48.2283943
40
0.1640389
50
294.9984288
51
359.1716015
0
ARC
8
DEFAULT_255_2_778
10
12.4403039
20
48.5614543
40
0.1956991
50
120.6448499
51
173.5251583
0
ARC
8
DEFAULT_255_2_778
10
12.4403039
20
45.898391
40
0.195699
50
186.4748417
51
239.3551501
0
ARC
8
DEFAULT_255_2_778
10
11.9859191
20
46.2310782
40
0.1641523
50
0.8532508
51
64.9767689
0
ARC
8
DEFAULT_255_2_778
10
9.0642096
20
45.9704946
40
0.4093302
50
89.8119351
51
89.9910399
0
ARC
8
DEFAULT_255_2_778
10
9.0641738
20
46.0092732
40
0.3705517
50
89.9845613
51
142.8166504
0
ARC
8
DEFAULT_255_2_778
10
8.9054916
20
45.6148333
40
0.5022739
50
140.0842404
51
148.6267469
0
ARC
8
DEFAULT_255_2_778
10
8.9066087
20
48.8452825
40
0.5033686
50
211.3333413
51
219.8665123
0
ARC
8
DEFAULT_255_2_778
10
8.9054916
20
41.8048333
40
0.5022739
50
140.0842404
51
148.6267469
0
ARC
8
DEFAULT_255_2_778
10
8.9066087
20
45.0352825
40
0.5033686
50
211.3333413
51
219.8665123
0
ARC
8
DEFAULT_255_2_778
10
12.4373149
20
43.4198758
40
0.5511882
50
328.395328
51
0.0165644
0
LINE
8
DEFAULT_255_2_778
10
12.9885032
20
43.4200352
11
12.9885031
21
43.4203595
0
ARC
8
DEFAULT_255_2_778
10
12.43693
20
43.4201605
40
0.5515731
50
0.0206755
51
31.5933707
0
ARC
8
DEFAULT_255_2_778
10
12.9883596
20
43.4203247
40
0.3001064
50
105.7788345
51
180.0385707
0
ARC
8
DEFAULT_255_2_778
10
12.9885654
20
43.4201761
40
0.3003122
50
180.0101933
51
254.1914471
0
ARC
8
DEFAULT_255_2_778
10
9.0640213
20
44.6407209
40
0.3707017
50
217.2528531
51
269.9902023
0
ARC
8
DEFAULT_255_2_778
10
9.064002
20
44.6235954
40
0.3535762
50
269.9928486
51
270.2513605
0
ARC
8
DEFAULT_255_2_778
10
11.9863315
20
44.4186943
40
0.1640389
50
294.9983928
51
359.1715922
0
ARC
8
DEFAULT_255_2_778
10
12.4407681
20
44.7516481
40
0.1958741
50
120.6703226
51
173.4997076
0
ARC
8
DEFAULT_255_2_778
10
12.4407681
20
42.0886972
40
0.1958741
50
186.5002924
51
239.3296774
0
ARC
8
DEFAULT_255_2_778
10
11.9864426
20
42.4214229
40
0.1639267
50
0.803836
51
65.0261749
0
ARC
8
DEFAULT_255_2_778
10
9.0640035
20
42.2171448
40
0.3528812
50
89.748387
51
90.0071583
0
ARC
8
DEFAULT_255_2_778
10
9.0640551
20
42.1995628
40
0.3704633
50
90.0147987
51
142.8042786
0
LINE
8
DEFAULT_255_2_778
10
12.9067532
20
58.3710227
11
12.9067532
21
58.3707227
0
LINE
8
DEFAULT_255_2_778
10
12.6874532
20
57.1597227
11
8.4033532
21
57.1597227
0
LINE
8
DEFAULT_255_2_778
10
8.4033532
20
57.1597227
11
8.4033532
21
60.1598227
0
LINE
8
DEFAULT_255_2_778
10
8.4033532
20
60.1598227
11
12.6871532
21
60.1598227
0
LINE
8
DEFAULT_255_2_778
10
12.6871532
20
60.1598227
11
12.6874532
21
57.1597227
0
LINE
8
DEFAULT_255_2_778
10
11.9640532
20
57.8098227
11
11.9640532
21
59.5097227
0
LINE
8
DEFAULT_255_2_778
10
9.2364532
20
57.8098227
11
9.2364532
21
59.5097227
0
LINE
8
DEFAULT_255_2_778
10
9.0655532
20
59.5097227
11
12.0556532
21
59.5097227
0
LINE
8
DEFAULT_255_2_778
10
9.3190532
20
59.5097227
11
9.3190532
21
57.8098227
0
LINE
8
DEFAULT_255_2_778
10
8.4033532
20
57.1600227
11
8.4766532
21
57.3063227
0
LINE
8
DEFAULT_255_2_778
10
8.4766532
20
57.3063227
11
12.2461532
21
57.3063227
0
LINE
8
DEFAULT_255_2_778
10
12.2461532
20
57.3063227
11
12.1503532
21
57.6635227
0
LINE
8
DEFAULT_255_2_778
10
12.1503532
20
57.6635227
11
8.7689532
21
57.6635227
0
LINE
8
DEFAULT_255_2_778
10
8.7689532
20
57.6635227
11
8.5202532
21
57.3671227
0
LINE
8
DEFAULT_255_2_778
10
8.5202532
20
57.3671227
11
8.5202532
21
59.9526227
0
LINE
8
DEFAULT_255_2_778
10
8.4766532
20
60.0135227
11
12.2461532
21
60.0135227
0
LINE
8
DEFAULT_255_2_778
10
12.2461532
20
60.0135227
11
12.1503532
21
59.6563227
0
LINE
8
DEFAULT_255_2_778
10
12.1503532
20
59.6563227
11
8.7689532
21
59.6563227
0
LINE
8
DEFAULT_255_2_778
10
8.7689532
20
59.6563227
11
8.5202532
21
59.9526227
0
LINE
8
DEFAULT_255_2_778
10
8.4033532
20
60.1598227
11
8.4766532
21
60.0135227
0
LINE
8
DEFAULT_255_2_778
10
12.0556532
20
57.8098227
11
9.0655532
21
57.8098227
0
LINE
8
DEFAULT_255_2_778
10
8.4766532
20
53.4963227
11
12.2461532
21
53.4963227
0
LINE
8
DEFAULT_255_2_778
10
12.2461532
20
53.4963227
11
12.1503532
21
53.8535227
0
LINE
8
DEFAULT_255_2_778
10
12.1503532
20
53.8535227
11
8.7689532
21
53.8535227
0
LINE
8
DEFAULT_255_2_778
10
8.7689532
20
53.8535227
11
8.5202532
21
53.5571227
0
LINE
8
DEFAULT_255_2_778
10
8.5202532
20
53.5571227
11
8.5202532
21
56.1426227
0
LINE
8
DEFAULT_255_2_778
10
8.4766532
20
56.2035227
11
12.2461532
21
56.2035227
0
LINE
8
DEFAULT_255_2_778
10
12.2461532
20
56.2035227
11
12.1503532
21
55.8463227
0
LINE
8
DEFAULT_255_2_778
10
12.1503532
20
55.8463227
11
8.7689532
21
55.8463227
0
LINE
8
DEFAULT_255_2_778
10
8.7689532
20
55.8463227
11
8.5202532
21
56.1426227
0
LINE
8
DEFAULT_255_2_778
10
8.4033532
20
56.3498227
11
8.4766532
21
56.2035227
0
LINE
8
DEFAULT_255_2_778
10
12.9067532
20
54.5612227
11
12.9067532
21
54.5610227
0
LINE
8
DEFAULT_255_2_778
10
11.9638532
20
54.0000227
11
11.9638532
21
55.7000227
0
LINE
8
DEFAULT_255_2_778
10
9.2362532
20
54.0000227
11
9.2362532
21
55.7000227
0
LINE
8
DEFAULT_255_2_778
10
9.0653532
20
55.7002227
11
12.0553532
21
55.7002227
0
LINE
8
DEFAULT_255_2_778
10
9.3187532
20
55.7002227
11
9.3187532
21
54.0003227
0
LINE
8
DEFAULT_255_2_778
10
8.4030532
20
53.3505227
11
8.4763532
21
53.4968227
0
LINE
8
DEFAULT_255_2_778
10
12.0553532
20
54.0003227
11
9.0655532
21
54.0003227
0
LINE
8
DEFAULT_255_2_778
10
12.6874532
20
53.3502227
11
8.4033532
21
53.3502227
0
LINE
8
DEFAULT_255_2_778
10
8.4033532
20
53.3502227
11
8.4033532
21
56.3503227
0
LINE
8
DEFAULT_255_2_778
10
8.4033532
20
56.3503227
11
12.6871532
21
56.3503227
0
LINE
8
DEFAULT_255_2_778
10
12.6871532
20
56.3503227
11
12.6874532
21
53.3502227
0
LINE
8
DEFAULT_255_2_778
10
8.4766532
20
49.6863227
11
12.2461532
21
49.6863227
0
LINE
8
DEFAULT_255_2_778
10
12.2461532
20
49.6863227
11
12.1503532
21
50.0435227
0
LINE
8
DEFAULT_255_2_778
10
12.1503532
20
50.0435227
11
8.7689532
21
50.0435227
0
LINE
8
DEFAULT_255_2_778
10
8.7689532
20
50.0435227
11
8.5202532
21
49.7471227
0
LINE
8
DEFAULT_255_2_778
10
8.5202532
20
49.7471227
11
8.5202532
21
52.3326227
0
LINE
8
DEFAULT_255_2_778
10
8.4766532
20
52.3935227
11
12.2461532
21
52.3935227
0
LINE
8
DEFAULT_255_2_778
10
12.2461532
20
52.3935227
11
12.1503532
21
52.0363227
0
LINE
8
DEFAULT_255_2_778
10
12.1503532
20
52.0363227
11
8.7689532
21
52.0363227
0
LINE
8
DEFAULT_255_2_778
10
8.7689532
20
52.0363227
11
8.5202532
21
52.3326227
0
LINE
8
DEFAULT_255_2_778
10
8.4033532
20
52.5398227
11
8.4766532
21
52.3935227
0
LINE
8
DEFAULT_255_2_778
10
12.9067532
20
50.7512227
11
12.9067532
21
50.7510227
0
LINE
8
DEFAULT_255_2_778
10
12.6874532
20
49.5400227
11
8.4033532
21
49.5400227
0
LINE
8
DEFAULT_255_2_778
10
8.4033532
20
49.5400227
11
8.4033532
21
52.5401227
0
LINE
8
DEFAULT_255_2_778
10
8.4033532
20
52.5401227
11
12.6871532
21
52.5401227
0
LINE
8
DEFAULT_255_2_778
10
12.6871532
20
52.5401227
11
12.6874532
21
49.5400227
0
LINE
8
DEFAULT_255_2_778
10
11.9640532
20
50.1900227
11
11.9640532
21
51.8900227
0
LINE
8
DEFAULT_255_2_778
10
9.2364532
20
50.1900227
11
9.2364532
21
51.8900227
0
LINE
8
DEFAULT_255_2_778
10
9.0655532
20
51.8902227
11
12.0556532
21
51.8902227
0
LINE
8
DEFAULT_255_2_778
10
9.3190532
20
51.8902227
11
9.3190532
21
50.1903227
0
LINE
8
DEFAULT_255_2_778
10
8.4033532
20
49.5405227
11
8.4766532
21
49.6868227
0
LINE
8
DEFAULT_255_2_778
10
12.0556532
20
50.1903227
11
9.0655532
21
50.1903227
0
LINE
8
DEFAULT_255_2_778
10
12.9067532
20
46.9410227
11
12.9067532
21
46.9407227
0
LINE
8
DEFAULT_255_2_778
10
11.9638532
20
46.3798227
11
11.9638532
21
48.0797227
0
LINE
8
DEFAULT_255_2_778
10
9.2362532
20
46.3798227
11
9.2362532
21
48.0797227
0
LINE
8
DEFAULT_255_2_778
10
9.0653532
20
48.0797227
11
12.0553532
21
48.0797227
0
LINE
8
DEFAULT_255_2_778
10
9.3187532
20
48.0797227
11
9.3187532
21
46.3798227
0
LINE
8
DEFAULT_255_2_778
10
8.4030532
20
45.7300227
11
8.4763532
21
45.8763227
0
LINE
8
DEFAULT_255_2_778
10
12.0553532
20
46.3798227
11
9.0655532
21
46.3798227
0
LINE
8
DEFAULT_255_2_778
10
8.5202532
20
48.5224227
11
8.7689532
21
48.2260227
0
LINE
8
DEFAULT_255_2_778
10
8.7689532
20
48.2260227
11
12.1506532
21
48.2260227
0
LINE
8
DEFAULT_255_2_778
10
12.1506532
20
48.2260227
11
12.2463532
21
48.5832227
0
LINE
8
DEFAULT_255_2_778
10
12.2463532
20
48.5832227
11
8.4766532
21
48.5832227
0
LINE
8
DEFAULT_255_2_778
10
8.4766532
20
48.5832227
11
8.4033532
21
48.7295227
0
LINE
8
DEFAULT_255_2_778
10
12.6871532
20
48.7295227
11
12.6871532
21
45.7294227
0
LINE
8
DEFAULT_255_2_778
10
12.6871532
20
45.7294227
11
8.4033532
21
45.7294227
0
LINE
8
DEFAULT_255_2_778
10
8.4033532
20
45.7294227
11
8.4033532
21
48.7295227
0
LINE
8
DEFAULT_255_2_778
10
8.4033532
20
48.7295227
11
12.6871532
21
48.7295227
0
LINE
8
DEFAULT_255_2_778
10
8.4766532
20
45.8763227
11
12.2461532
21
45.8763227
0
LINE
8
DEFAULT_255_2_778
10
12.2461532
20
45.8763227
11
12.1503532
21
46.2335227
0
LINE
8
DEFAULT_255_2_778
10
12.1503532
20
46.2335227
11
8.7689532
21
46.2335227
0
LINE
8
DEFAULT_255_2_778
10
8.7689532
20
46.2335227
11
8.5202532
21
45.9371227
0
LINE
8
DEFAULT_255_2_778
10
8.5202532
20
45.9371227
11
8.5202532
21
48.5226227
0
LINE
8
DEFAULT_255_2_778
10
8.4766532
20
42.0663227
11
12.2461532
21
42.0663227
0
LINE
8
DEFAULT_255_2_778
10
12.2461532
20
42.0663227
11
12.1503532
21
42.4235227
0
LINE
8
DEFAULT_255_2_778
10
12.1503532
20
42.4235227
11
8.7689532
21
42.4235227
0
LINE
8
DEFAULT_255_2_778
10
8.7689532
20
42.4235227
11
8.5202532
21
42.1271227
0
LINE
8
DEFAULT_255_2_778
10
8.5202532
20
42.1271227
11
8.5202532
21
44.7126227
0
LINE
8
DEFAULT_255_2_778
10
8.4766532
20
44.7735227
11
12.2461532
21
44.7735227
0
LINE
8
DEFAULT_255_2_778
10
12.2461532
20
44.7735227
11
12.1503532
21
44.4163227
0
LINE
8
DEFAULT_255_2_778
10
12.1503532
20
44.4163227
11
8.7689532
21
44.4163227
0
LINE
8
DEFAULT_255_2_778
10
8.7689532
20
44.4163227
11
8.5202532
21
44.7126227
0
LINE
8
DEFAULT_255_2_778
10
8.4033532
20
44.9198227
11
8.4766532
21
44.7735227
0
LINE
8
DEFAULT_255_2_778
10
12.9067532
20
43.1312227
11
12.9067532
21
43.1310227
0
LINE
8
DEFAULT_255_2_778
10
12.6874532
20
41.9200227
11
8.4033532
21
41.9200227
0
LINE
8
DEFAULT_255_2_778
10
8.4033532
20
41.9200227
11
8.4033532
21
44.9201227
0
LINE
8
DEFAULT_255_2_778
10
8.4033532
20
44.9201227
11
12.6871532
21
44.9201227
0
LINE
8
DEFAULT_255_2_778
10
12.6871532
20
44.9201227
11
12.6874532
21
41.9200227
0
LINE
8
DEFAULT_255_2_778
10
11.9640532
20
42.5700227
11
11.9640532
21
44.2700227
0
LINE
8
DEFAULT_255_2_778
10
9.2364532
20
42.5700227
11
9.2364532
21
44.2700227
0
LINE
8
DEFAULT_255_2_778
10
9.0655532
20
44.2700227
11
12.0556532
21
44.2700227
0
LINE
8
DEFAULT_255_2_778
10
9.3190532
20
44.2700227
11
9.3190532
21
42.5700227
0
LINE
8
DEFAULT_255_2_778
10
8.4033532
20
41.9202227
11
8.4766532
21
42.0665227
0
LINE
8
DEFAULT_255_2_778
10
12.0556532
20
42.5700227
11
9.0655532
21
42.5700227
0
ARC
8
DEFAULT_255_2_778
10
12.4370249
20
39.6096227
40
0.5514782
50
328.403855
51
0.0119272
0
ARC
8
DEFAULT_255_2_778
10
12.4370252
20
39.6098524
40
0.551478
50
359.9880576
51
31.5961502
0
ARC
8
DEFAULT_255_2_778
10
12.9883298
20
39.610012
40
0.3000766
50
105.7745294
51
180.0237876
0
ARC
8
DEFAULT_255_2_778
10
12.9885653
20
39.6099409
40
0.3003121
50
180.0101933
51
254.1914653
0
ARC
8
DEFAULT_255_2_778
10
9.0637506
20
40.8302433
40
0.3705592
50
217.241949
51
270.0009231
0
ARC
8
DEFAULT_255_2_778
10
9.0638007
20
40.8138276
40
0.3541436
50
269.9928542
51
270.2511718
0
ARC
8
DEFAULT_255_2_778
10
11.9860311
20
40.6083592
40
0.1640392
50
294.998518
51
359.1715532
0
ARC
8
DEFAULT_255_2_778
10
12.4403039
20
40.9414191
40
0.1956991
50
120.6448499
51
173.5251583
0
ARC
8
DEFAULT_255_2_778
10
12.4403046
20
38.2783561
40
0.1956997
50
186.4748879
51
239.3550213
0
ARC
8
DEFAULT_255_2_778
10
11.9859191
20
38.611043
40
0.1641523
50
0.8532508
51
64.9767689
0
ARC
8
DEFAULT_255_2_778
10
9.0642096
20
38.3504594
40
0.4093302
50
89.8119351
51
89.9910399
0
ARC
8
DEFAULT_255_2_778
10
9.0641738
20
38.389238
40
0.3705517
50
89.9845613
51
142.8166504
0
ARC
8
DEFAULT_255_2_778
10
8.9066087
20
37.9942276
40
0.5033686
50
140.1334877
51
148.6666587
0
ARC
8
DEFAULT_255_2_778
10
8.9054916
20
41.2246768
40
0.5022739
50
211.3732531
51
219.9157596
0
LINE
8
DEFAULT_255_2_778
10
12.9067532
20
39.3209875
11
12.9067532
21
39.3206875
0
LINE
8
DEFAULT_255_2_778
10
11.9638532
20
38.7597875
11
11.9638532
21
40.4596875
0
LINE
8
DEFAULT_255_2_778
10
9.2362532
20
38.7597875
11
9.2362532
21
40.4596875
0
LINE
8
DEFAULT_255_2_778
10
9.0653532
20
40.4596875
11
12.0553532
21
40.4596875
0
LINE
8
DEFAULT_255_2_778
10
9.3187532
20
40.4596875
11
9.3187532
21
38.7597875
0
LINE
8
DEFAULT_255_2_778
10
8.4030532
20
38.1099875
11
8.4763532
21
38.2562875
0
LINE
8
DEFAULT_255_2_778
10
12.0553532
20
38.7597875
11
9.0655532
21
38.7597875
0
LINE
8
DEFAULT_255_2_778
10
8.4766532
20
38.2559875
11
12.2461532
21
38.2559875
0
LINE
8
DEFAULT_255_2_778
10
12.2461532
20
38.2559875
11
12.1503532
21
38.6131875
0
LINE
8
DEFAULT_255_2_778
10
12.1503532
20
38.6131875
11
8.7689532
21
38.6131875
0
LINE
8
DEFAULT_255_2_778
10
8.7689532
20
38.6131875
11
8.5202532
21
38.3168875
0
LINE
8
DEFAULT_255_2_778
10
8.5202532
20
38.3168875
11
8.5202532
21
40.9023875
0
LINE
8
DEFAULT_255_2_778
10
8.4766532
20
40.9631875
11
12.2461532
21
40.9631875
0
LINE
8
DEFAULT_255_2_778
10
12.2461532
20
40.9631875
11
12.1503532
21
40.6059875
0
LINE
8
DEFAULT_255_2_778
10
12.1503532
20
40.6059875
11
8.7689532
21
40.6059875
0
LINE
8
DEFAULT_255_2_778
10
8.7689532
20
40.6059875
11
8.5202532
21
40.9023875
0
LINE
8
DEFAULT_255_2_778
10
8.4033532
20
41.1094875
11
8.4766532
21
40.9631875
0
LINE
8
DEFAULT_255_2_778
10
12.6871532
20
41.1094875
11
12.6871532
21
38.1093875
0
LINE
8
DEFAULT_255_2_778
10
12.6871532
20
38.1093875
11
8.4033532
21
38.1093875
0
LINE
8
DEFAULT_255_2_778
10
8.4033532
20
38.1093875
11
8.4033532
21
41.1094875
0
LINE
8
DEFAULT_255_2_778
10
8.4033532
20
41.1094875
11
12.6871532
21
41.1094875
0
ARC
8
DEFAULT_255_2_778
10
8.9054916
20
34.1848334
40
0.5022739
50
140.0842404
51
148.6267469
0
ARC
8
DEFAULT_255_2_778
10
8.9066087
20
37.4152826
40
0.5033686
50
211.3333413
51
219.8665123
0
ARC
8
DEFAULT_255_2_778
10
12.4373149
20
35.7998759
40
0.5511882
50
328.395328
51
0.0165644
0
LINE
8
DEFAULT_255_2_778
10
12.9885032
20
35.8000353
11
12.9885031
21
35.8003596
0
ARC
8
DEFAULT_255_2_778
10
12.43693
20
35.8001606
40
0.5515731
50
0.0206755
51
31.5933707
0
ARC
8
DEFAULT_255_2_778
10
12.9883596
20
35.8003248
40
0.3001064
50
105.7788345
51
180.0385707
0
ARC
8
DEFAULT_255_2_778
10
12.9885651
20
35.8001762
40
0.3003119
50
180.0101933
51
254.1915018
0
ARC
8
DEFAULT_255_2_778
10
9.0639757
20
37.0202764
40
0.3705558
50
217.1836804
51
270.015329
0
ARC
8
DEFAULT_255_2_778
10
9.0640107
20
37.0583457
40
0.4086251
50
270.0089939
51
270.188233
0
ARC
8
DEFAULT_255_2_778
10
11.9860315
20
36.7983944
40
0.1640389
50
294.9984235
51
359.1716157
0
ARC
8
DEFAULT_255_2_778
10
12.4403043
20
37.1314542
40
0.1956994
50
120.6449074
51
173.5251176
0
ARC
8
DEFAULT_255_2_778
10
12.4403044
20
34.4683914
40
0.1956995
50
186.4748932
51
239.3550623
0
ARC
8
DEFAULT_255_2_778
10
11.9859191
20
34.8010783
40
0.1641523
50
0.8532508
51
64.9767689
0
ARC
8
DEFAULT_255_2_778
10
9.0642096
20
34.5404948
40
0.4093302
50
89.8119351
51
89.9910399
0
ARC
8
DEFAULT_255_2_778
10
9.0641738
20
34.5792733
40
0.3705517
50
89.9845613
51
142.8166504
0
ARC
8
DEFAULT_255_2_778
10
12.4370249
20
31.989658
40
0.5514782
50
328.403855
51
0.0119272
0
ARC
8
DEFAULT_255_2_778
10
12.4370252
20
31.9898877
40
0.551478
50
359.9880576
51
31.5961502
0
ARC
8
DEFAULT_255_2_778
10
12.9883297
20
31.9900474
40
0.3000766
50
105.7745262
51
180.0237959
0
ARC
8
DEFAULT_255_2_778
10
12.9885653
20
31.9899762
40
0.3003121
50
180.0102016
51
254.1914621
0
ARC
8
DEFAULT_255_2_778
10
9.0638767
20
33.2104296
40
0.3704103
50
217.2305219
51
270.0121099
0
ARC
8
DEFAULT_255_2_778
10
9.0639992
20
33.1948585
40
0.3548392
50
269.9928611
51
270.2509202
0
ARC
8
DEFAULT_255_2_778
10
11.9864431
20
32.9886221
40
0.1639262
50
294.9737142
51
359.1962956
0
ARC
8
DEFAULT_255_2_778
10
12.4407681
20
33.3216482
40
0.1958741
50
120.6703226
51
173.4997076
0
ARC
8
DEFAULT_255_2_778
10
12.4407681
20
30.6586973
40
0.1958741
50
186.5002924
51
239.3296774
0
ARC
8
DEFAULT_255_2_778
10
11.9864426
20
30.991423
40
0.1639267
50
0.803836
51
65.0261749
0
ARC
8
DEFAULT_255_2_778
10
9.0640035
20
30.7871449
40
0.3528812
50
89.748387
51
90.0071583
0
ARC
8
DEFAULT_255_2_778
10
9.0640551
20
30.7695629
40
0.3704633
50
90.0147987
51
142.8042786
0
ARC
8
DEFAULT_255_2_778
10
8.9054916
20
30.3748334
40
0.5022739
50
140.0842404
51
148.6267469
0
ARC
8
DEFAULT_255_2_778
10
8.9066087
20
33.6052826
40
0.5033686
50
211.3333413
51
219.8665123
0
ARC
8
DEFAULT_255_2_778
10
8.9054916
20
26.5648334
40
0.5022739
50
140.0842404
51
148.6267469
0
ARC
8
DEFAULT_255_2_778
10
8.9066087
20
29.7952826
40
0.5033686
50
211.3333413
51
219.8665123
0
ARC
8
DEFAULT_255_2_778
10
12.4373149
20
28.1798759
40
0.5511882
50
328.395328
51
0.0165644
0
LINE
8
DEFAULT_255_2_778
10
12.9885032
20
28.1800353
11
12.9885031
21
28.1803596
0
ARC
8
DEFAULT_255_2_778
10
12.43693
20
28.1801606
40
0.5515731
50
0.0206755
51
31.5933707
0
ARC
8
DEFAULT_255_2_778
10
12.9883596
20
28.1803248
40
0.3001064
50
105.7788345
51
180.0385707
0
ARC
8
DEFAULT_255_2_778
10
12.9885654
20
28.1801763
40
0.3003123
50
180.0102181
51
254.1914376
0
ARC
8
DEFAULT_255_2_778
10
9.0640014
20
29.4007276
40
0.3705083
50
217.2186096
51
269.9932783
0
ARC
8
DEFAULT_255_2_778
10
9.064002
20
29.3837955
40
0.3535762
50
269.9928486
51
270.2513605
0
ARC
8
DEFAULT_255_2_778
10
11.9861848
20
29.1789877
40
0.1641854
50
295.0310513
51
359.174696
0
ARC
8
DEFAULT_255_2_778
10
12.440604
20
29.5119543
40
0.1956992
50
120.6448582
51
173.5251353
0
ARC
8
DEFAULT_255_2_778
10
12.4406048
20
26.8488916
40
0.1956999
50
186.4749481
51
239.3549997
0
ARC
8
DEFAULT_255_2_778
10
11.986331
20
27.1816507
40
0.1640393
50
0.8285394
51
65.0014963
0
ARC
8
DEFAULT_255_2_778
10
9.0640036
20
26.9774527
40
0.3528735
50
89.748387
51
90.0071583
0
ARC
8
DEFAULT_255_2_778
10
9.0640355
20
26.9600548
40
0.3702714
50
90.0117608
51
142.8384197
0
LINE
8
DEFAULT_255_2_778
10
8.4766532
20
34.4463228
11
12.2461532
21
34.4463228
0
LINE
8
DEFAULT_255_2_778
10
12.2461532
20
34.4463228
11
12.1503532
21
34.8035228
0
LINE
8
DEFAULT_255_2_778
10
12.1503532
20
34.8035228
11
8.7689532
21
34.8035228
0
LINE
8
DEFAULT_255_2_778
10
8.7689532
20
34.8035228
11
8.5202532
21
34.5071228
0
LINE
8
DEFAULT_255_2_778
10
8.5202532
20
34.5071228
11
8.5202532
21
37.0926228
0
LINE
8
DEFAULT_255_2_778
10
8.4766532
20
37.1535228
11
12.2461532
21
37.1535228
0
LINE
8
DEFAULT_255_2_778
10
12.2461532
20
37.1535228
11
12.1503532
21
36.7963228
0
LINE
8
DEFAULT_255_2_778
10
12.1503532
20
36.7963228
11
8.7689532
21
36.7963228
0
LINE
8
DEFAULT_255_2_778
10
8.7689532
20
36.7963228
11
8.5202532
21
37.0926228
0
LINE
8
DEFAULT_255_2_778
10
8.4033532
20
37.2998228
11
8.4766532
21
37.1535228
0
LINE
8
DEFAULT_255_2_778
10
12.9067532
20
35.5112228
11
12.9067532
21
35.5110228
0
LINE
8
DEFAULT_255_2_778
10
11.9638532
20
34.9500228
11
11.9638532
21
36.6500228
0
LINE
8
DEFAULT_255_2_778
10
9.2362532
20
34.9500228
11
9.2362532
21
36.6500228
0
LINE
8
DEFAULT_255_2_778
10
9.0653532
20
36.6497228
11
12.0553532
21
36.6497228
0
LINE
8
DEFAULT_255_2_778
10
9.3187532
20
36.6497228
11
9.3187532
21
34.9498228
0
LINE
8
DEFAULT_255_2_778
10
8.4030532
20
34.3000228
11
8.4763532
21
34.4463228
0
LINE
8
DEFAULT_255_2_778
10
12.0553532
20
34.9498228
11
9.0655532
21
34.9498228
0
LINE
8
DEFAULT_255_2_778
10
12.6874532
20
37.2995228
11
12.6874532
21
34.2994228
0
LINE
8
DEFAULT_255_2_778
10
12.6874532
20
34.2994228
11
8.4033532
21
34.2994228
0
LINE
8
DEFAULT_255_2_778
10
8.4033532
20
34.2994228
11
8.4033532
21
37.2995228
0
LINE
8
DEFAULT_255_2_778
10
8.4033532
20
37.2995228
11
12.6874532
21
37.2995228
0
LINE
8
DEFAULT_255_2_778
10
12.9067532
20
31.7010228
11
12.9067532
21
31.7007228
0
LINE
8
DEFAULT_255_2_778
10
12.6874532
20
30.4897228
11
8.4033532
21
30.4897228
0
LINE
8
DEFAULT_255_2_778
10
8.4033532
20
30.4897228
11
8.4033532
21
33.4898228
0
LINE
8
DEFAULT_255_2_778
10
8.4033532
20
33.4898228
11
12.6871532
21
33.4898228
0
LINE
8
DEFAULT_255_2_778
10
12.6871532
20
33.4898228
11
12.6874532
21
30.4897228
0
LINE
8
DEFAULT_255_2_778
10
11.9640532
20
31.1398228
11
11.9640532
21
32.8397228
0
LINE
8
DEFAULT_255_2_778
10
9.2364532
20
31.1398228
11
9.2364532
21
32.8397228
0
LINE
8
DEFAULT_255_2_778
10
9.0655532
20
32.8400228
11
12.0556532
21
32.8400228
0
LINE
8
DEFAULT_255_2_778
10
9.3190532
20
32.8400228
11
9.3190532
21
31.1400228
0
LINE
8
DEFAULT_255_2_778
10
8.4033532
20
30.4902228
11
8.4766532
21
30.6365228
0
LINE
8
DEFAULT_255_2_778
10
12.0556532
20
31.1400228
11
9.0655532
21
31.1400228
0
LINE
8
DEFAULT_255_2_778
10
8.4766532
20
30.6363228
11
12.2461532
21
30.6363228
0
LINE
8
DEFAULT_255_2_778
10
12.2461532
20
30.6363228
11
12.1503532
21
30.9935228
0
LINE
8
DEFAULT_255_2_778
10
12.1503532
20
30.9935228
11
8.7689532
21
30.9935228
0
LINE
8
DEFAULT_255_2_778
10
8.7689532
20
30.9935228
11
8.5202532
21
30.6971228
0
LINE
8
DEFAULT_255_2_778
10
8.5202532
20
30.6971228
11
8.5202532
21
33.2826228
0
LINE
8
DEFAULT_255_2_778
10
8.4766532
20
33.3435228
11
12.2461532
21
33.3435228
0
LINE
8
DEFAULT_255_2_778
10
12.2461532
20
33.3435228
11
12.1503532
21
32.9863228
0
LINE
8
DEFAULT_255_2_778
10
12.1503532
20
32.9863228
11
8.7689532
21
32.9863228
0
LINE
8
DEFAULT_255_2_778
10
8.7689532
20
32.9863228
11
8.5202532
21
33.2826228
0
LINE
8
DEFAULT_255_2_778
10
8.4033532
20
33.4898228
11
8.4766532
21
33.3435228
0
LINE
8
DEFAULT_255_2_778
10
8.4766532
20
26.8263228
11
12.2461532
21
26.8263228
0
LINE
8
DEFAULT_255_2_778
10
12.2461532
20
26.8263228
11
12.1503532
21
27.1835228
0
LINE
8
DEFAULT_255_2_778
10
12.1503532
20
27.1835228
11
8.7689532
21
27.1835228
0
LINE
8
DEFAULT_255_2_778
10
8.7689532
20
27.1835228
11
8.5202532
21
26.8871228
0
LINE
8
DEFAULT_255_2_778
10
8.5202532
20
26.8871228
11
8.5202532
21
29.4726228
0
LINE
8
DEFAULT_255_2_778
10
8.4766532
20
29.5335228
11
12.2461532
21
29.5335228
0
LINE
8
DEFAULT_255_2_778
10
12.2461532
20
29.5335228
11
12.1503532
21
29.1763228
0
LINE
8
DEFAULT_255_2_778
10
12.1503532
20
29.1763228
11
8.7689532
21
29.1763228
0
LINE
8
DEFAULT_255_2_778
10
8.7689532
20
29.1763228
11
8.5202532
21
29.4726228
0
LINE
8
DEFAULT_255_2_778
10
8.4033532
20
29.6798228
11
8.4766532
21
29.5335228
0
LINE
8
DEFAULT_255_2_778
10
12.9067532
20
27.8912228
11
12.9067532
21
27.8910228
0
LINE
8
DEFAULT_255_2_778
10
12.6874532
20
29.6801228
11
12.6874532
21
26.6800228
0
LINE
8
DEFAULT_255_2_778
10
12.6874532
20
26.6800228
11
8.4033532
21
26.6800228
0
LINE
8
DEFAULT_255_2_778
10
8.4033532
20
26.6800228
11
8.4033532
21
29.6801228
0
LINE
8
DEFAULT_255_2_778
10
8.4033532
20
29.6801228
11
12.6874532
21
29.6801228
0
LINE
8
DEFAULT_255_2_778
10
11.9640532
20
27.3300228
11
11.9640532
21
29.0300228
0
LINE
8
DEFAULT_255_2_778
10
9.2364532
20
27.3300228
11
9.2364532
21
29.0300228
0
LINE
8
DEFAULT_255_2_778
10
9.0655532
20
29.0302228
11
12.0556532
21
29.0302228
0
LINE
8
DEFAULT_255_2_778
10
9.3190532
20
29.0302228
11
9.3190532
21
27.3303228
0
LINE
8
DEFAULT_255_2_778
10
8.4033532
20
26.6805228
11
8.4766532
21
26.8268228
0
LINE
8
DEFAULT_255_2_778
10
12.0556532
20
27.3303228
11
9.0655532
21
27.3303228
0
ARC
8
DEFAULT_255_2_778
10
12.4370249
20
24.3696227
40
0.5514782
50
328.403855
51
0.0119272
0
ARC
8
DEFAULT_255_2_778
10
12.4370252
20
24.3698524
40
0.551478
50
359.9880576
51
31.5961502
0
ARC
8
DEFAULT_255_2_778
10
12.9883298
20
24.370012
40
0.3000766
50
105.7745294
51
180.0237876
0
ARC
8
DEFAULT_255_2_778
10
12.9885653
20
24.3699409
40
0.3003121
50
180.0101933
51
254.1914653
0
ARC
8
DEFAULT_255_2_778
10
9.0637506
20
25.5902433
40
0.3705592
50
217.241949
51
270.0009231
0
ARC
8
DEFAULT_255_2_778
10
9.0638007
20
25.5738276
40
0.3541436
50
269.9928542
51
270.2511718
0
ARC
8
DEFAULT_255_2_778
10
11.9860311
20
25.3683592
40
0.1640392
50
294.998518
51
359.1715532
0
ARC
8
DEFAULT_255_2_778
10
12.4403039
20
25.7014191
40
0.1956991
50
120.6448499
51
173.5251583
0
ARC
8
DEFAULT_255_2_778
10
12.4403046
20
23.0383561
40
0.1956997
50
186.4748879
51
239.3550213
0
ARC
8
DEFAULT_255_2_778
10
11.9859191
20
23.371043
40
0.1641523
50
0.8532508
51
64.9767689
0
ARC
8
DEFAULT_255_2_778
10
9.0642096
20
23.1104594
40
0.4093302
50
89.8119351
51
89.9910399
0
ARC
8
DEFAULT_255_2_778
10
9.0641738
20
23.149238
40
0.3705517
50
89.9845613
51
142.8166504
0
ARC
8
DEFAULT_255_2_778
10
8.9066087
20
22.7542276
40
0.5033686
50
140.1334877
51
148.6666587
0
ARC
8
DEFAULT_255_2_778
10
8.9054916
20
25.9846768
40
0.5022739
50
211.3732531
51
219.9157596
0
LINE
8
DEFAULT_255_2_778
10
12.9067532
20
24.0809875
11
12.9067532
21
24.0806875
0
LINE
8
DEFAULT_255_2_778
10
11.9638532
20
23.5197875
11
11.9638532
21
25.2196875
0
LINE
8
DEFAULT_255_2_778
10
9.2362532
20
23.5197875
11
9.2362532
21
25.2196875
0
LINE
8
DEFAULT_255_2_778
10
9.0653532
20
25.2196875
11
12.0553532
21
25.2196875
0
LINE
8
DEFAULT_255_2_778
10
9.3187532
20
25.2196875
11
9.3187532
21
23.5197875
0
LINE
8
DEFAULT_255_2_778
10
8.4030532
20
22.8699875
11
8.4763532
21
23.0162875
0
LINE
8
DEFAULT_255_2_778
10
12.0553532
20
23.5197875
11
9.0655532
21
23.5197875
0
LINE
8
DEFAULT_255_2_778
10
8.4766532
20
23.0159875
11
12.2461532
21
23.0159875
0
LINE
8
DEFAULT_255_2_778
10
12.2461532
20
23.0159875
11
12.1503532
21
23.3731875
0
LINE
8
DEFAULT_255_2_778
10
12.1503532
20
23.3731875
11
8.7689532
21
23.3731875
0
LINE
8
DEFAULT_255_2_778
10
8.7689532
20
23.3731875
11
8.5202532
21
23.0768875
0
LINE
8
DEFAULT_255_2_778
10
8.5202532
20
23.0768875
11
8.5202532
21
25.6623875
0
LINE
8
DEFAULT_255_2_778
10
8.4766532
20
25.7231875
11
12.2461532
21
25.7231875
0
LINE
8
DEFAULT_255_2_778
10
12.2461532
20
25.7231875
11
12.1503532
21
25.3659875
0
LINE
8
DEFAULT_255_2_778
10
12.1503532
20
25.3659875
11
8.7689532
21
25.3659875
0
LINE
8
DEFAULT_255_2_778
10
8.7689532
20
25.3659875
11
8.5202532
21
25.6623875
0
LINE
8
DEFAULT_255_2_778
10
8.4033532
20
25.8694875
11
8.4766532
21
25.7231875
0
LINE
8
DEFAULT_255_2_778
10
12.6871532
20
25.8694875
11
12.6871532
21
22.8693875
0
LINE
8
DEFAULT_255_2_778
10
12.6871532
20
22.8693875
11
8.4033532
21
22.8693875
0
LINE
8
DEFAULT_255_2_778
10
8.4033532
20
22.8693875
11
8.4033532
21
25.8694875
0
LINE
8
DEFAULT_255_2_778
10
8.4033532
20
25.8694875
11
12.6871532
21
25.8694875
0
ARC
8
DEFAULT_255_2_778
10
8.906541
20
18.9444953
40
0.5033686
50
140.1334877
51
148.6666587
0
ARC
8
DEFAULT_255_2_778
10
8.9054238
20
22.1749445
40
0.5022739
50
211.3732531
51
219.9157596
0
ARC
8
DEFAULT_255_2_778
10
12.4370575
20
20.5598902
40
0.5514778
50
328.4038498
51
0.0119424
0
ARC
8
DEFAULT_255_2_778
10
12.4370572
20
20.56012
40
0.5514783
50
359.9880728
51
31.596145
0
ARC
8
DEFAULT_255_2_778
10
12.9882342
20
20.5602726
40
0.3000487
50
105.7506564
51
180.0224269
0
ARC
8
DEFAULT_255_2_778
10
12.9885875
20
20.5603049
40
0.300402
50
180.0285599
51
254.1983173
0
ARC
8
DEFAULT_255_2_778
10
9.0639829
20
21.780511
40
0.3705592
50
217.241949
51
270.0009231
0
ARC
8
DEFAULT_255_2_778
10
9.064033
20
21.7640953
40
0.3541436
50
269.9928542
51
270.2511718
0
ARC
8
DEFAULT_255_2_778
10
11.9862634
20
21.5586269
40
0.1640392
50
294.998518
51
359.1715532
0
ARC
8
DEFAULT_255_2_778
10
12.4405367
20
21.8916866
40
0.1956995
50
120.6449377
51
173.5251068
0
ARC
8
DEFAULT_255_2_778
10
12.4405369
20
19.2286238
40
0.1956997
50
186.4748879
51
239.3550213
0
ARC
8
DEFAULT_255_2_778
10
11.9861514
20
19.5613107
40
0.1641523
50
0.8532508
51
64.9767689
0
ARC
8
DEFAULT_255_2_778
10
9.0642406
20
19.2999156
40
0.4101417
50
89.8121196
51
89.991023
0
ARC
8
DEFAULT_255_2_778
10
9.0640643
20
19.3397915
40
0.370266
50
89.9627728
51
142.8386156
0
LINE
8
DEFAULT_255_2_778
10
8.4765855
20
19.2062552
11
12.2460855
21
19.2062552
0
LINE
8
DEFAULT_255_2_778
10
12.2460855
20
19.2062552
11
12.1502855
21
19.5634552
0
LINE
8
DEFAULT_255_2_778
10
12.1502855
20
19.5634552
11
8.7689855
21
19.5634552
0
LINE
8
DEFAULT_255_2_778
10
8.7689855
20
19.5634552
11
8.5201855
21
19.2671552
0
LINE
8
DEFAULT_255_2_778
10
8.5201855
20
19.2671552
11
8.5201855
21
21.8526552
0
LINE
8
DEFAULT_255_2_778
10
8.4765855
20
21.9134552
11
12.2460855
21
21.9134552
0
LINE
8
DEFAULT_255_2_778
10
12.2460855
20
21.9134552
11
12.1502855
21
21.5562552
0
LINE
8
DEFAULT_255_2_778
10
12.1502855
20
21.5562552
11
8.7689855
21
21.5562552
0
LINE
8
DEFAULT_255_2_778
10
8.7689855
20
21.5562552
11
8.5201855
21
21.8526552
0
LINE
8
DEFAULT_255_2_778
10
8.4032855
20
22.0597552
11
8.4765855
21
21.9134552
0
LINE
8
DEFAULT_255_2_778
10
12.9067855
20
20.2712552
11
12.9067855
21
20.2709552
0
LINE
8
DEFAULT_255_2_778
10
12.6873855
20
22.0600552
11
12.6873855
21
19.0599552
0
LINE
8
DEFAULT_255_2_778
10
12.6873855
20
19.0599552
11
8.4032855
21
19.0599552
0
LINE
8
DEFAULT_255_2_778
10
8.4032855
20
19.0599552
11
8.4032855
21
22.0600552
0
LINE
8
DEFAULT_255_2_778
10
8.4032855
20
22.0600552
11
12.6873855
21
22.0600552
0
LINE
8
DEFAULT_255_2_778
10
11.9640855
20
19.7100552
11
11.9640855
21
21.4099552
0
LINE
8
DEFAULT_255_2_778
10
9.2364855
20
19.7100552
11
9.2364855
21
21.4099552
0
LINE
8
DEFAULT_255_2_778
10
9.0655855
20
21.4099552
11
12.0555855
21
21.4099552
0
LINE
8
DEFAULT_255_2_778
10
9.3189855
20
21.4099552
11
9.3189855
21
19.7100552
0
LINE
8
DEFAULT_255_2_778
10
8.4032855
20
19.0602552
11
8.4765855
21
19.2065552
0
LINE
8
DEFAULT_255_2_778
10
12.0555855
20
19.7100552
11
9.0655855
21
19.7100552
0
ARC
8
DEFAULT_255_2_778
10
12.4370249
20
16.7496227
40
0.5514782
50
328.403855
51
0.0119272
0
ARC
8
DEFAULT_255_2_778
10
12.4370252
20
16.7498524
40
0.551478
50
359.9880576
51
31.5961502
0
ARC
8
DEFAULT_255_2_778
10
12.9883298
20
16.750012
40
0.3000766
50
105.7745294
51
180.0237876
0
ARC
8
DEFAULT_255_2_778
10
12.9885653
20
16.7499409
40
0.3003121
50
180.0101933
51
254.1914653
0
ARC
8
DEFAULT_255_2_778
10
9.0637506
20
17.9702433
40
0.3705592
50
217.241949
51
270.0009231
0
ARC
8
DEFAULT_255_2_778
10
9.0638007
20
17.9538276
40
0.3541436
50
269.9928542
51
270.2511718
0
ARC
8
DEFAULT_255_2_778
10
11.9860311
20
17.7483592
40
0.1640392
50
294.998518
51
359.1715532
0
ARC
8
DEFAULT_255_2_778
10
12.4403039
20
18.0814191
40
0.1956991
50
120.6448499
51
173.5251583
0
ARC
8
DEFAULT_255_2_778
10
12.4403046
20
15.4183561
40
0.1956997
50
186.4748879
51
239.3550213
0
ARC
8
DEFAULT_255_2_778
10
11.9859191
20
15.751043
40
0.1641523
50
0.8532508
51
64.9767689
0
ARC
8
DEFAULT_255_2_778
10
9.0642096
20
15.4904594
40
0.4093302
50
89.8119351
51
89.9910399
0
ARC
8
DEFAULT_255_2_778
10
9.0641738
20
15.529238
40
0.3705517
50
89.9845613
51
142.8166504
0
ARC
8
DEFAULT_255_2_778
10
8.9066087
20
15.1342276
40
0.5033686
50
140.1334877
51
148.6666587
0
ARC
8
DEFAULT_255_2_778
10
8.9054916
20
18.3646768
40
0.5022739
50
211.3732531
51
219.9157596
0
LINE
8
DEFAULT_255_2_778
10
12.9067532
20
16.4609875
11
12.9067532
21
16.4606875
0
LINE
8
DEFAULT_255_2_778
10
11.9638532
20
15.8997875
11
11.9638532
21
17.5996875
0
LINE
8
DEFAULT_255_2_778
10
9.2362532
20
15.8997875
11
9.2362532
21
17.5996875
0
LINE
8
DEFAULT_255_2_778
10
9.0653532
20
17.5996875
11
12.0553532
21
17.5996875
0
LINE
8
DEFAULT_255_2_778
10
9.3187532
20
17.5996875
11
9.3187532
21
15.8997875
0
LINE
8
DEFAULT_255_2_778
10
8.4030532
20
15.2499875
11
8.4763532
21
15.3962875
0
LINE
8
DEFAULT_255_2_778
10
12.0553532
20
15.8997875
11
9.0655532
21
15.8997875
0
LINE
8
DEFAULT_255_2_778
10
8.4766532
20
15.3959875
11
12.2461532
21
15.3959875
0
LINE
8
DEFAULT_255_2_778
10
12.2461532
20
15.3959875
11
12.1503532
21
15.7531875
0
LINE
8
DEFAULT_255_2_778
10
12.1503532
20
15.7531875
11
8.7689532
21
15.7531875
0
LINE
8
DEFAULT_255_2_778
10
8.7689532
20
15.7531875
11
8.5202532
21
15.4568875
0
LINE
8
DEFAULT_255_2_778
10
8.5202532
20
15.4568875
11
8.5202532
21
18.0423875
0
LINE
8
DEFAULT_255_2_778
10
8.4766532
20
18.1031875
11
12.2461532
21
18.1031875
0
LINE
8
DEFAULT_255_2_778
10
12.2461532
20
18.1031875
11
12.1503532
21
17.7459875
0
LINE
8
DEFAULT_255_2_778
10
12.1503532
20
17.7459875
11
8.7689532
21
17.7459875
0
LINE
8
DEFAULT_255_2_778
10
8.7689532
20
17.7459875
11
8.5202532
21
18.0423875
0
LINE
8
DEFAULT_255_2_778
10
8.4033532
20
18.2494875
11
8.4766532
21
18.1031875
0
LINE
8
DEFAULT_255_2_778
10
12.6871532
20
18.2494875
11
12.6871532
21
15.2493875
0
LINE
8
DEFAULT_255_2_778
10
12.6871532
20
15.2493875
11
8.4033532
21
15.2493875
0
LINE
8
DEFAULT_255_2_778
10
8.4033532
20
15.2493875
11
8.4033532
21
18.2494875
0
LINE
8
DEFAULT_255_2_778
10
8.4033532
20
18.2494875
11
12.6871532
21
18.2494875
0
ARC
8
DEFAULT_255_2_778
10
8.9066087
20
11.3245275
40
0.5033686
50
140.1334877
51
148.6666587
0
ARC
8
DEFAULT_255_2_778
10
8.9054916
20
14.5549767
40
0.5022739
50
211.3732531
51
219.9157596
0
ARC
8
DEFAULT_255_2_778
10
12.4370249
20
12.9399226
40
0.5514782
50
328.403855
51
0.0119272
0
ARC
8
DEFAULT_255_2_778
10
12.4370252
20
12.9401523
40
0.551478
50
359.9880576
51
31.5961502
0
ARC
8
DEFAULT_255_2_778
10
12.9883298
20
12.9403119
40
0.3000767
50
105.7745326
51
180.0237794
0
ARC
8
DEFAULT_255_2_778
10
12.9885653
20
12.9402409
40
0.3003121
50
180.0102098
51
254.1914589
0
ARC
8
DEFAULT_255_2_778
10
9.0640551
20
14.1602472
40
0.3704634
50
217.1957214
51
269.9852013
0
ARC
8
DEFAULT_255_2_778
10
9.0640035
20
14.1426652
40
0.3528813
50
269.9928417
51
270.251613
0
ARC
8
DEFAULT_255_2_778
10
11.9864431
20
13.9383867
40
0.1639262
50
294.9737142
51
359.1962956
0
ARC
8
DEFAULT_255_2_778
10
12.4406043
20
14.2714188
40
0.1956994
50
120.6449074
51
173.5251176
0
ARC
8
DEFAULT_255_2_778
10
12.4406044
20
11.608356
40
0.1956995
50
186.4748932
51
239.3550623
0
ARC
8
DEFAULT_255_2_778
10
11.9863304
20
11.941115
40
0.1640399
50
0.8286365
51
65.0013496
0
ARC
8
DEFAULT_255_2_778
10
9.0640036
20
11.7369172
40
0.3528735
50
89.748387
51
90.0071583
0
ARC
8
DEFAULT_255_2_778
10
9.0640355
20
11.7195194
40
0.3702714
50
90.0117608
51
142.8384197
0
ARC
8
DEFAULT_255_2_778
10
12.43693
20
9.1296496
40
0.5515732
50
328.4066293
51
359.9793245
0
LINE
8
DEFAULT_255_2_778
10
12.9885031
20
9.1294505
11
12.9885032
21
9.1297749
0
ARC
8
DEFAULT_255_2_778
10
12.4373152
20
9.1299343
40
0.551188
50
359.9834205
51
31.6046772
0
ARC
8
DEFAULT_255_2_778
10
12.9883299
20
9.1300119
40
0.3000767
50
105.774551
51
180.0237793
0
ARC
8
DEFAULT_255_2_778
10
12.9885654
20
9.1299409
40
0.3003123
50
180.0102181
51
254.1914376
0
ARC
8
DEFAULT_255_2_778
10
9.0637506
20
10.3505432
40
0.3705592
50
217.241949
51
270.0009231
0
ARC
8
DEFAULT_255_2_778
10
9.0638007
20
10.3341275
40
0.3541436
50
269.9928542
51
270.2511718
0
ARC
8
DEFAULT_255_2_778
10
11.9860317
20
10.1286588
40
0.1640387
50
294.9983712
51
359.1716502
0
ARC
8
DEFAULT_255_2_778
10
12.4403043
20
10.4617187
40
0.1956995
50
120.6449125
51
173.5251035
0
ARC
8
DEFAULT_255_2_778
10
12.4403043
20
7.798656
40
0.1956994
50
186.4748965
51
239.3550875
0
ARC
8
DEFAULT_255_2_778
10
11.9859191
20
8.1313429
40
0.1641523
50
0.8532508
51
64.9767689
0
ARC
8
DEFAULT_255_2_778
10
9.0642096
20
7.8707593
40
0.4093302
50
89.8119351
51
89.9910399
0
ARC
8
DEFAULT_255_2_778
10
9.0641738
20
7.9095379
40
0.3705517
50
89.9845613
51
142.8166504
0
ARC
8
DEFAULT_255_2_778
10
8.9066087
20
7.5145275
40
0.5033686
50
140.1334877
51
148.6666587
0
ARC
8
DEFAULT_255_2_778
10
8.9054916
20
10.7449767
40
0.5022739
50
211.3732531
51
219.9157596
0
ARC
8
DEFAULT_255_2_778
10
12.43693
20
5.3196496
40
0.5515732
50
328.4066293
51
359.9793245
0
LINE
8
DEFAULT_255_2_778
10
12.9885031
20
5.3194505
11
12.9885032
21
5.3197749
0
ARC
8
DEFAULT_255_2_778
10
12.4373152
20
5.3199343
40
0.551188
50
359.9834205
51
31.6046772
0
ARC
8
DEFAULT_255_2_778
10
12.9883296
20
5.3200121
40
0.3000764
50
105.7745017
51
180.0238123
0
ARC
8
DEFAULT_255_2_778
10
12.9885654
20
5.3199409
40
0.3003123
50
180.0102181
51
254.1914376
0
ARC
8
DEFAULT_255_2_778
10
9.0637506
20
6.5405432
40
0.3705592
50
217.241949
51
270.0009231
0
ARC
8
DEFAULT_255_2_778
10
9.0638007
20
6.5241275
40
0.3541436
50
269.9928542
51
270.2511718
0
ARC
8
DEFAULT_255_2_778
10
11.9860313
20
6.318659
40
0.1640389
50
294.9984604
51
359.171602
0
ARC
8
DEFAULT_255_2_778
10
12.4403044
20
6.6517187
40
0.1956995
50
120.6449377
51
173.5251068
0
ARC
8
DEFAULT_255_2_778
10
12.4403046
20
3.988656
40
0.1956997
50
186.4748879
51
239.3550213
0
ARC
8
DEFAULT_255_2_778
10
8.9051916
20
3.705098
40
0.5022739
50
140.0842404
51
148.6267469
0
ARC
8
DEFAULT_255_2_778
10
8.9066087
20
6.9355472
40
0.5033686
50
211.3333413
51
219.8665123
0
ARC
8
DEFAULT_255_2_778
10
11.9862187
20
4.3213426
40
0.1641527
50
0.8533356
51
64.9766753
0
ARC
8
DEFAULT_255_2_778
10
9.0642121
20
4.0622738
40
0.4078158
50
89.8115817
51
89.991023
0
ARC
8
DEFAULT_255_2_778
10
9.0643179
20
4.0992473
40
0.3708422
50
90.0064848
51
142.7943431
0
LINE
8
DEFAULT_255_2_778
10
8.4766532
20
11.5862874
11
12.2461532
21
11.5862874
0
LINE
8
DEFAULT_255_2_778
10
12.2461532
20
11.5862874
11
12.1503532
21
11.9434874
0
LINE
8
DEFAULT_255_2_778
10
12.1503532
20
11.9434874
11
8.7689532
21
11.9434874
0
LINE
8
DEFAULT_255_2_778
10
8.7689532
20
11.9434874
11
8.5202532
21
11.6471874
0
LINE
8
DEFAULT_255_2_778
10
8.5202532
20
11.6471874
11
8.5202532
21
14.2326874
0
LINE
8
DEFAULT_255_2_778
10
8.4766532
20
14.2934874
11
12.2461532
21
14.2934874
0
LINE
8
DEFAULT_255_2_778
10
12.2461532
20
14.2934874
11
12.1503532
21
13.9362874
0
LINE
8
DEFAULT_255_2_778
10
12.1503532
20
13.9362874
11
8.7689532
21
13.9362874
0
LINE
8
DEFAULT_255_2_778
10
8.7689532
20
13.9362874
11
8.5202532
21
14.2326874
0
LINE
8
DEFAULT_255_2_778
10
8.4033532
20
14.4397874
11
8.4766532
21
14.2934874
0
LINE
8
DEFAULT_255_2_778
10
12.9067532
20
12.6512874
11
12.9067532
21
12.6509874
0
LINE
8
DEFAULT_255_2_778
10
12.6874532
20
14.4400874
11
12.6874532
21
11.4399874
0
LINE
8
DEFAULT_255_2_778
10
12.6874532
20
11.4399874
11
8.4033532
21
11.4399874
0
LINE
8
DEFAULT_255_2_778
10
8.4033532
20
11.4399874
11
8.4033532
21
14.4400874
0
LINE
8
DEFAULT_255_2_778
10
8.4033532
20
14.4400874
11
12.6874532
21
14.4400874
0
LINE
8
DEFAULT_255_2_778
10
11.9640532
20
12.0900874
11
11.9640532
21
13.7899874
0
LINE
8
DEFAULT_255_2_778
10
9.2364532
20
12.0900874
11
9.2364532
21
13.7899874
0
LINE
8
DEFAULT_255_2_778
10
9.0655532
20
13.7897874
11
12.0556532
21
13.7897874
0
LINE
8
DEFAULT_255_2_778
10
9.3190532
20
13.7897874
11
9.3190532
21
12.0897874
0
LINE
8
DEFAULT_255_2_778
10
8.4033532
20
11.4399874
11
8.4766532
21
11.5862874
0
LINE
8
DEFAULT_255_2_778
10
12.0556532
20
12.0897874
11
9.0655532
21
12.0897874
0
LINE
8
DEFAULT_255_2_778
10
12.9067532
20
8.8409874
11
12.9067532
21
8.8406874
0
LINE
8
DEFAULT_255_2_778
10
11.9638532
20
8.2797874
11
11.9638532
21
9.9797874
0
LINE
8
DEFAULT_255_2_778
10
9.2362532
20
8.2797874
11
9.2362532
21
9.9797874
0
LINE
8
DEFAULT_255_2_778
10
9.0653532
20
9.9799874
11
12.0553532
21
9.9799874
0
LINE
8
DEFAULT_255_2_778
10
9.3187532
20
9.9799874
11
9.3187532
21
8.2800874
0
LINE
8
DEFAULT_255_2_778
10
8.4030532
20
7.6302874
11
8.4763532
21
7.7765874
0
LINE
8
DEFAULT_255_2_778
10
12.0553532
20
8.2800874
11
9.0655532
21
8.2800874
0
LINE
8
DEFAULT_255_2_778
10
8.4766532
20
7.7762874
11
12.2461532
21
7.7762874
0
LINE
8
DEFAULT_255_2_778
10
12.2461532
20
7.7762874
11
12.1503532
21
8.1334874
0
LINE
8
DEFAULT_255_2_778
10
12.1503532
20
8.1334874
11
8.7689532
21
8.1334874
0
LINE
8
DEFAULT_255_2_778
10
8.7689532
20
8.1334874
11
8.5202532
21
7.8371874
0
LINE
8
DEFAULT_255_2_778
10
8.5202532
20
7.8371874
11
8.5202532
21
10.4226874
0
LINE
8
DEFAULT_255_2_778
10
8.4766532
20
10.4834874
11
12.2461532
21
10.4834874
0
LINE
8
DEFAULT_255_2_778
10
12.2461532
20
10.4834874
11
12.1503532
21
10.1262874
0
LINE
8
DEFAULT_255_2_778
10
12.1503532
20
10.1262874
11
8.7689532
21
10.1262874
0
LINE
8
DEFAULT_255_2_778
10
8.7689532
20
10.1262874
11
8.5202532
21
10.4226874
0
LINE
8
DEFAULT_255_2_778
10
8.4033532
20
10.6297874
11
8.4766532
21
10.4834874
0
LINE
8
DEFAULT_255_2_778
10
12.6871532
20
7.6299874
11
8.4033532
21
7.6299874
0
LINE
8
DEFAULT_255_2_778
10
8.4033532
20
7.6299874
11
8.4033532
21
10.6300874
0
LINE
8
DEFAULT_255_2_778
10
8.4033532
20
10.6300874
11
12.6871532
21
10.6300874
0
LINE
8
DEFAULT_255_2_778
10
12.6871532
20
10.6300874
11
12.6871532
21
7.6299874
0
LINE
8
DEFAULT_255_2_778
10
12.9067532
20
5.0309874
11
12.9067532
21
5.0306874
0
LINE
8
DEFAULT_255_2_778
10
11.9638532
20
4.4697874
11
11.9638532
21
6.1697874
0
LINE
8
DEFAULT_255_2_778
10
9.2362532
20
4.4697874
11
9.2362532
21
6.1697874
0
LINE
8
DEFAULT_255_2_778
10
9.0653532
20
6.1699874
11
12.0553532
21
6.1699874
0
LINE
8
DEFAULT_255_2_778
10
9.3187532
20
6.1699874
11
9.3187532
21
4.4700874
0
LINE
8
DEFAULT_255_2_778
10
8.4030532
20
3.8202874
11
8.4763532
21
3.9665874
0
LINE
8
DEFAULT_255_2_778
10
8.4763532
20
3.9665874
11
12.2458532
21
3.9665874
0
LINE
8
DEFAULT_255_2_778
10
12.2458532
20
3.9665874
11
12.1500532
21
4.3237874
0
LINE
8
DEFAULT_255_2_778
10
12.1500532
20
4.3237874
11
8.7689532
21
4.3237874
0
LINE
8
DEFAULT_255_2_778
10
8.7689532
20
4.3237874
11
8.5202532
21
4.0273874
0
LINE
8
DEFAULT_255_2_778
10
8.5202532
20
4.0273874
11
8.5202532
21
6.6128874
0
LINE
8
DEFAULT_255_2_778
10
8.4766532
20
6.6737874
11
12.2461532
21
6.6737874
0
LINE
8
DEFAULT_255_2_778
10
12.2461532
20
6.6737874
11
12.1503532
21
6.3165874
0
LINE
8
DEFAULT_255_2_778
10
12.1503532
20
6.3165874
11
8.7689532
21
6.3165874
0
LINE
8
DEFAULT_255_2_778
10
8.7689532
20
6.3165874
11
8.5202532
21
6.6128874
0
LINE
8
DEFAULT_255_2_778
10
8.4033532
20
6.8200874
11
8.4766532
21
6.6737874
0
LINE
8
DEFAULT_255_2_778
10
12.0556532
20
4.4700874
11
9.0655532
21
4.4700874
0
LINE
8
DEFAULT_255_2_778
10
12.6874532
20
6.8197874
11
12.6874532
21
3.8196874
0
LINE
8
DEFAULT_255_2_778
10
12.6874532
20
3.8196874
11
8.4033532
21
3.8196874
0
LINE
8
DEFAULT_255_2_778
10
8.4033532
20
3.8196874
11
8.4033532
21
6.8197874
0
LINE
8
DEFAULT_255_2_778
10
8.4033532
20
6.8197874
11
12.6874532
21
6.8197874
0
ARC
8
DEFAULT_255_2_778
10
16.1004967
20
24.3728955
40
1.297198
50
148.2770855
51
180.1324007
0
ARC
8
DEFAULT_255_2_778
10
16.0996449
20
24.3734122
40
1.2962017
50
97.0226393
51
148.276717
0
ARC
8
DEFAULT_255_2_778
10
16.1028539
20
24.3456442
40
1.3241537
50
89.9849309
51
97.0135513
0
ARC
8
DEFAULT_255_2_778
10
16.1061997
20
24.3726033
40
1.297198
50
58.2770855
51
90.1324007
0
ARC
8
DEFAULT_255_2_778
10
16.1067165
20
24.3734551
40
1.2962017
50
7.0226393
51
58.276717
0
ARC
8
DEFAULT_255_2_778
10
16.0789484
20
24.3702461
40
1.3241537
50
359.9849309
51
7.0135513
0
ARC
8
DEFAULT_255_2_778
10
16.1059076
20
24.3669003
40
1.297198
50
328.2770855
51
0.1324007
0
ARC
8
DEFAULT_255_2_778
10
16.1067594
20
24.3663835
40
1.2962017
50
277.0226393
51
328.276717
0
ARC
8
DEFAULT_255_2_778
10
16.1035504
20
24.3941516
40
1.3241537
50
269.9849309
51
277.0135513
0
ARC
8
DEFAULT_255_2_778
10
16.1002045
20
24.3671924
40
1.297198
50
238.2770855
51
270.1324007
0
ARC
8
DEFAULT_255_2_778
10
16.0996878
20
24.3663406
40
1.2962017
50
187.0226393
51
238.276717
0
ARC
8
DEFAULT_255_2_778
10
16.1274558
20
24.3695496
40
1.3241537
50
179.9849309
51
187.0135513
0
LINE
8
DEFAULT_255_2_778
10
14.8033021
20
24.3698979
11
14.8033021
21
24.3698979
0
ARC
8
DEFAULT_255_2_778
10
16.1004967
20
5.3228955
40
1.297198
50
148.2770855
51
180.1324007
0
ARC
8
DEFAULT_255_2_778
10
16.0996449
20
5.3234122
40
1.2962017
50
97.0226393
51
148.276717
0
ARC
8
DEFAULT_255_2_778
10
16.1028539
20
5.2956442
40
1.3241537
50
89.9849309
51
97.0135513
0
ARC
8
DEFAULT_255_2_778
10
16.1061997
20
5.3226033
40
1.297198
50
58.2770855
51
90.1324007
0
ARC
8
DEFAULT_255_2_778
10
16.1067165
20
5.3234551
40
1.2962017
50
7.0226393
51
58.276717
0
ARC
8
DEFAULT_255_2_778
10
16.0789484
20
5.3202461
40
1.3241537
50
359.9849309
51
7.0135513
0
ARC
8
DEFAULT_255_2_778
10
16.1059076
20
5.3169003
40
1.297198
50
328.2770855
51
0.1324007
0
ARC
8
DEFAULT_255_2_778
10
16.1067594
20
5.3163835
40
1.2962017
50
277.0226393
51
328.276717
0
ARC
8
DEFAULT_255_2_778
10
16.1035504
20
5.3441516
40
1.3241537
50
269.9849309
51
277.0135513
0
ARC
8
DEFAULT_255_2_778
10
16.1002045
20
5.3171924
40
1.297198
50
238.2770855
51
270.1324007
0
ARC
8
DEFAULT_255_2_778
10
16.0996878
20
5.3163406
40
1.2962017
50
187.0226393
51
238.276717
0
ARC
8
DEFAULT_255_2_778
10
16.1274558
20
5.3195496
40
1.3241537
50
179.9849309
51
187.0135513
0
LINE
8
DEFAULT_255_2_778
10
14.8033021
20
5.3198979
11
14.8033021
21
5.3198979
0
LINE
8
DEFAULT_255_2_778
10
15.0245021
20
4.5946979
11
16.8287021
21
6.3988979
0
LINE
8
DEFAULT_255_2_778
10
17.1822021
20
6.0453979
11
15.3780021
21
4.2411979
0
ARC
8
DEFAULT_255_2_778
10
16.1004967
20
9.1328955
40
1.297198
50
148.2770855
51
180.1324007
0
ARC
8
DEFAULT_255_2_778
10
16.0996449
20
9.1334122
40
1.2962017
50
97.0226393
51
148.276717
0
ARC
8
DEFAULT_255_2_778
10
16.1028539
20
9.1056442
40
1.3241537
50
89.9849309
51
97.0135513
0
ARC
8
DEFAULT_255_2_778
10
16.1061997
20
9.1326033
40
1.297198
50
58.2770855
51
90.1324007
0
ARC
8
DEFAULT_255_2_778
10
16.1067165
20
9.1334551
40
1.2962017
50
7.0226393
51
58.276717
0
ARC
8
DEFAULT_255_2_778
10
16.0789484
20
9.1302461
40
1.3241537
50
359.9849309
51
7.0135513
0
ARC
8
DEFAULT_255_2_778
10
16.1059076
20
9.1269003
40
1.297198
50
328.2770855
51
0.1324007
0
ARC
8
DEFAULT_255_2_778
10
16.1067594
20
9.1263835
40
1.2962017
50
277.0226393
51
328.276717
0
ARC
8
DEFAULT_255_2_778
10
16.1035504
20
9.1541516
40
1.3241537
50
269.9849309
51
277.0135513
0
ARC
8
DEFAULT_255_2_778
10
16.1002045
20
9.1271924
40
1.297198
50
238.2770855
51
270.1324007
0
ARC
8
DEFAULT_255_2_778
10
16.0996878
20
9.1263406
40
1.2962017
50
187.0226393
51
238.276717
0
ARC
8
DEFAULT_255_2_778
10
16.1274558
20
9.1295496
40
1.3241537
50
179.9849309
51
187.0135513
0
LINE
8
DEFAULT_255_2_778
10
14.8033021
20
9.1298979
11
14.8033021
21
9.1298979
0
LINE
8
DEFAULT_255_2_778
10
15.0245021
20
8.4046979
11
16.8287021
21
10.2088979
0
LINE
8
DEFAULT_255_2_778
10
17.1822021
20
9.8553979
11
15.3780021
21
8.0511979
0
ARC
8
DEFAULT_255_2_778
10
16.1004967
20
12.9428955
40
1.297198
50
148.2770855
51
180.1324007
0
ARC
8
DEFAULT_255_2_778
10
16.0996449
20
12.9434122
40
1.2962017
50
97.0226393
51
148.276717
0
ARC
8
DEFAULT_255_2_778
10
16.1028539
20
12.9156442
40
1.3241537
50
89.9849309
51
97.0135513
0
ARC
8
DEFAULT_255_2_778
10
16.1061997
20
12.9426033
40
1.297198
50
58.2770855
51
90.1324007
0
ARC
8
DEFAULT_255_2_778
10
16.1067165
20
12.9434551
40
1.2962017
50
7.0226393
51
58.276717
0
ARC
8
DEFAULT_255_2_778
10
16.0789484
20
12.9402461
40
1.3241537
50
359.9849309
51
7.0135513
0
ARC
8
DEFAULT_255_2_778
10
16.1059076
20
12.9369003
40
1.297198
50
328.2770855
51
0.1324007
0
ARC
8
DEFAULT_255_2_778
10
16.1067594
20
12.9363835
40
1.2962017
50
277.0226393
51
328.276717
0
ARC
8
DEFAULT_255_2_778
10
16.1035504
20
12.9641516
40
1.3241537
50
269.9849309
51
277.0135513
0
ARC
8
DEFAULT_255_2_778
10
16.1002045
20
12.9371924
40
1.297198
50
238.2770855
51
270.1324007
0
ARC
8
DEFAULT_255_2_778
10
16.0996878
20
12.9363406
40
1.2962017
50
187.0226393
51
238.276717
0
ARC
8
DEFAULT_255_2_778
10
16.1274558
20
12.9395496
40
1.3241537
50
179.9849309
51
187.0135513
0
LINE
8
DEFAULT_255_2_778
10
14.8033021
20
12.9398979
11
14.8033021
21
12.9398979
0
LINE
8
DEFAULT_255_2_778
10
15.0245021
20
12.2146979
11
16.8287021
21
14.0188979
0
LINE
8
DEFAULT_255_2_778
10
17.1822021
20
13.6653979
11
15.3780021
21
11.8611979
0
ARC
8
DEFAULT_255_2_778
10
16.1004967
20
16.7528955
40
1.297198
50
148.2770855
51
180.1324007
0
ARC
8
DEFAULT_255_2_778
10
16.0996449
20
16.7534122
40
1.2962017
50
97.0226393
51
148.276717
0
ARC
8
DEFAULT_255_2_778
10
16.1028539
20
16.7256442
40
1.3241537
50
89.9849309
51
97.0135513
0
ARC
8
DEFAULT_255_2_778
10
16.1061997
20
16.7526033
40
1.297198
50
58.2770855
51
90.1324007
0
ARC
8
DEFAULT_255_2_778
10
16.1067165
20
16.7534551
40
1.2962017
50
7.0226393
51
58.276717
0
ARC
8
DEFAULT_255_2_778
10
16.0789484
20
16.7502461
40
1.3241537
50
359.9849309
51
7.0135513
0
ARC
8
DEFAULT_255_2_778
10
16.1059076
20
16.7469003
40
1.297198
50
328.2770855
51
0.1324007
0
ARC
8
DEFAULT_255_2_778
10
16.1067594
20
16.7463835
40
1.2962017
50
277.0226393
51
328.276717
0
ARC
8
DEFAULT_255_2_778
10
16.1035504
20
16.7741516
40
1.3241537
50
269.9849309
51
277.0135513
0
ARC
8
DEFAULT_255_2_778
10
16.1002045
20
16.7471924
40
1.297198
50
238.2770855
51
270.1324007
0
ARC
8
DEFAULT_255_2_778
10
16.0996878
20
16.7463406
40
1.2962017
50
187.0226393
51
238.276717
0
ARC
8
DEFAULT_255_2_778
10
16.1274558
20
16.7495496
40
1.3241537
50
179.9849309
51
187.0135513
0
LINE
8
DEFAULT_255_2_778
10
14.8033021
20
16.7498979
11
14.8033021
21
16.7498979
0
LINE
8
DEFAULT_255_2_778
10
15.0245021
20
16.0246979
11
16.8287021
21
17.8288979
0
LINE
8
DEFAULT_255_2_778
10
17.1822021
20
17.4753979
11
15.3780021
21
15.6711979
0
ARC
8
DEFAULT_255_2_778
10
16.1004967
20
20.5628955
40
1.297198
50
148.2770855
51
180.1324007
0
ARC
8
DEFAULT_255_2_778
10
16.0996449
20
20.5634122
40
1.2962017
50
97.0226393
51
148.276717
0
ARC
8
DEFAULT_255_2_778
10
16.1028539
20
20.5356442
40
1.3241537
50
89.9849309
51
97.0135513
0
ARC
8
DEFAULT_255_2_778
10
16.1061997
20
20.5626033
40
1.297198
50
58.2770855
51
90.1324007
0
ARC
8
DEFAULT_255_2_778
10
16.1067165
20
20.5634551
40
1.2962017
50
7.0226393
51
58.276717
0
ARC
8
DEFAULT_255_2_778
10
16.0789484
20
20.5602461
40
1.3241537
50
359.9849309
51
7.0135513
0
ARC
8
DEFAULT_255_2_778
10
16.1059076
20
20.5569003
40
1.297198
50
328.2770855
51
0.1324007
0
ARC
8
DEFAULT_255_2_778
10
16.1067594
20
20.5563835
40
1.2962017
50
277.0226393
51
328.276717
0
ARC
8
DEFAULT_255_2_778
10
16.1035504
20
20.5841516
40
1.3241537
50
269.9849309
51
277.0135513
0
ARC
8
DEFAULT_255_2_778
10
16.1002045
20
20.5571924
40
1.297198
50
238.2770855
51
270.1324007
0
ARC
8
DEFAULT_255_2_778
10
16.0996878
20
20.5563406
40
1.2962017
50
187.0226393
51
238.276717
0
ARC
8
DEFAULT_255_2_778
10
16.1274558
20
20.5595496
40
1.3241537
50
179.9849309
51
187.0135513
0
LINE
8
DEFAULT_255_2_778
10
14.8033021
20
20.5598979
11
14.8033021
21
20.5598979
0
LINE
8
DEFAULT_255_2_778
10
15.0245021
20
19.8346979
11
16.8287021
21
21.6388979
0
LINE
8
DEFAULT_255_2_778
10
17.1822021
20
21.2853979
11
15.3780021
21
19.4811979
0
LINE
8
DEFAULT_255_2_778
10
15.0244615
20
23.6443385
11
16.8286615
21
25.4485385
0
LINE
8
DEFAULT_255_2_778
10
17.1821615
20
25.0950385
11
15.3779615
21
23.2908385
0
ARC
8
DEFAULT_255_2_778
10
16.1004967
20
28.1828955
40
1.297198
50
148.2770855
51
180.1324007
0
ARC
8
DEFAULT_255_2_778
10
16.0996449
20
28.1834122
40
1.2962017
50
97.0226393
51
148.276717
0
ARC
8
DEFAULT_255_2_778
10
16.1028539
20
28.1556442
40
1.3241537
50
89.9849309
51
97.0135513
0
ARC
8
DEFAULT_255_2_778
10
16.1061997
20
28.1826033
40
1.297198
50
58.2770855
51
90.1324007
0
ARC
8
DEFAULT_255_2_778
10
16.1067165
20
28.1834551
40
1.2962017
50
7.0226393
51
58.276717
0
ARC
8
DEFAULT_255_2_778
10
16.0789484
20
28.1802461
40
1.3241537
50
359.9849309
51
7.0135513
0
ARC
8
DEFAULT_255_2_778
10
16.1059076
20
28.1769003
40
1.297198
50
328.2770855
51
0.1324007
0
ARC
8
DEFAULT_255_2_778
10
16.1067594
20
28.1763835
40
1.2962017
50
277.0226393
51
328.276717
0
ARC
8
DEFAULT_255_2_778
10
16.1035504
20
28.2041516
40
1.3241537
50
269.9849309
51
277.0135513
0
ARC
8
DEFAULT_255_2_778
10
16.1002045
20
28.1771924
40
1.297198
50
238.2770855
51
270.1324007
0
ARC
8
DEFAULT_255_2_778
10
16.0996878
20
28.1763406
40
1.2962017
50
187.0226393
51
238.276717
0
ARC
8
DEFAULT_255_2_778
10
16.1274558
20
28.1795496
40
1.3241537
50
179.9849309
51
187.0135513
0
LINE
8
DEFAULT_255_2_778
10
14.8033021
20
28.1798979
11
14.8033021
21
28.1798979
0
LINE
8
DEFAULT_255_2_778
10
15.0245021
20
27.4546979
11
16.8287021
21
29.2588979
0
LINE
8
DEFAULT_255_2_778
10
17.1822021
20
28.9053979
11
15.3780021
21
27.1011979
0
ARC
8
DEFAULT_255_2_778
10
16.1004967
20
31.9928955
40
1.297198
50
148.2770855
51
180.1324007
0
ARC
8
DEFAULT_255_2_778
10
16.0996449
20
31.9934122
40
1.2962017
50
97.0226393
51
148.276717
0
ARC
8
DEFAULT_255_2_778
10
16.1028539
20
31.9656442
40
1.3241537
50
89.9849309
51
97.0135513
0
ARC
8
DEFAULT_255_2_778
10
16.1061997
20
31.9926033
40
1.297198
50
58.2770855
51
90.1324007
0
ARC
8
DEFAULT_255_2_778
10
16.1067165
20
31.9934551
40
1.2962017
50
7.0226393
51
58.276717
0
ARC
8
DEFAULT_255_2_778
10
16.0789484
20
31.9902461
40
1.3241537
50
359.9849309
51
7.0135513
0
ARC
8
DEFAULT_255_2_778
10
16.1059076
20
31.9869003
40
1.297198
50
328.2770855
51
0.1324007
0
ARC
8
DEFAULT_255_2_778
10
16.1067594
20
31.9863835
40
1.2962017
50
277.0226393
51
328.276717
0
ARC
8
DEFAULT_255_2_778
10
16.1035504
20
32.0141516
40
1.3241537
50
269.9849309
51
277.0135513
0
ARC
8
DEFAULT_255_2_778
10
16.1002045
20
31.9871924
40
1.297198
50
238.2770855
51
270.1324007
0
ARC
8
DEFAULT_255_2_778
10
16.0996878
20
31.9863406
40
1.2962017
50
187.0226393
51
238.276717
0
ARC
8
DEFAULT_255_2_778
10
16.1274558
20
31.9895496
40
1.3241537
50
179.9849309
51
187.0135513
0
LINE
8
DEFAULT_255_2_778
10
14.8033021
20
31.9898979
11
14.8033021
21
31.9898979
0
LINE
8
DEFAULT_255_2_778
10
15.0245021
20
31.2646979
11
16.8287021
21
33.0688979
0
LINE
8
DEFAULT_255_2_778
10
17.1822021
20
32.7153979
11
15.3780021
21
30.9111979
0
ARC
8
DEFAULT_255_2_778
10
16.1004967
20
35.8028955
40
1.297198
50
148.2770855
51
180.1324007
0
ARC
8
DEFAULT_255_2_778
10
16.0996449
20
35.8034122
40
1.2962017
50
97.0226393
51
148.276717
0
ARC
8
DEFAULT_255_2_778
10
16.1028539
20
35.7756442
40
1.3241537
50
89.9849309
51
97.0135513
0
ARC
8
DEFAULT_255_2_778
10
16.1061997
20
35.8026033
40
1.297198
50
58.2770855
51
90.1324007
0
ARC
8
DEFAULT_255_2_778
10
16.1067165
20
35.8034551
40
1.2962017
50
7.0226393
51
58.276717
0
ARC
8
DEFAULT_255_2_778
10
16.0789484
20
35.8002461
40
1.3241537
50
359.9849309
51
7.0135513
0
ARC
8
DEFAULT_255_2_778
10
16.1059076
20
35.7969003
40
1.297198
50
328.2770855
51
0.1324007
0
ARC
8
DEFAULT_255_2_778
10
16.1067594
20
35.7963835
40
1.2962017
50
277.0226393
51
328.276717
0
ARC
8
DEFAULT_255_2_778
10
16.1035504
20
35.8241516
40
1.3241537
50
269.9849309
51
277.0135513
0
ARC
8
DEFAULT_255_2_778
10
16.1002045
20
35.7971924
40
1.297198
50
238.2770855
51
270.1324007
0
ARC
8
DEFAULT_255_2_778
10
16.0996878
20
35.7963406
40
1.2962017
50
187.0226393
51
238.276717
0
ARC
8
DEFAULT_255_2_778
10
16.1274558
20
35.7995496
40
1.3241537
50
179.9849309
51
187.0135513
0
LINE
8
DEFAULT_255_2_778
10
14.8033021
20
35.7998979
11
14.8033021
21
35.7998979
0
LINE
8
DEFAULT_255_2_778
10
15.0245021
20
35.0746979
11
16.8287021
21
36.8788979
0
LINE
8
DEFAULT_255_2_778
10
17.1822021
20
36.5253979
11
15.3780021
21
34.7211979
0
ARC
8
DEFAULT_255_2_778
10
16.1004967
20
39.6128955
40
1.297198
50
148.2770855
51
180.1324007
0
ARC
8
DEFAULT_255_2_778
10
16.0996449
20
39.6134122
40
1.2962017
50
97.0226393
51
148.276717
0
ARC
8
DEFAULT_255_2_778
10
16.1028539
20
39.5856442
40
1.3241537
50
89.9849309
51
97.0135513
0
ARC
8
DEFAULT_255_2_778
10
16.1061997
20
39.6126033
40
1.297198
50
58.2770855
51
90.1324007
0
ARC
8
DEFAULT_255_2_778
10
16.1067165
20
39.6134551
40
1.2962017
50
7.0226393
51
58.276717
0
ARC
8
DEFAULT_255_2_778
10
16.0789484
20
39.6102461
40
1.3241537
50
359.9849309
51
7.0135513
0
ARC
8
DEFAULT_255_2_778
10
16.1059076
20
39.6069003
40
1.297198
50
328.2770855
51
0.1324007
0
ARC
8
DEFAULT_255_2_778
10
16.1067594
20
39.6063835
40
1.2962017
50
277.0226393
51
328.276717
0
ARC
8
DEFAULT_255_2_778
10
16.1035504
20
39.6341516
40
1.3241537
50
269.9849309
51
277.0135513
0
ARC
8
DEFAULT_255_2_778
10
16.1002045
20
39.6071924
40
1.297198
50
238.2770855
51
270.1324007
0
ARC
8
DEFAULT_255_2_778
10
16.0996878
20
39.6063406
40
1.2962017
50
187.0226393
51
238.276717
0
ARC
8
DEFAULT_255_2_778
10
16.1274558
20
39.6095496
40
1.3241537
50
179.9849309
51
187.0135513
0
LINE
8
DEFAULT_255_2_778
10
14.8033021
20
39.6098979
11
14.8033021
21
39.6098979
0
LINE
8
DEFAULT_255_2_778
10
15.0245021
20
38.8846979
11
16.8287021
21
40.6888979
0
LINE
8
DEFAULT_255_2_778
10
17.1822021
20
40.3353979
11
15.3780021
21
38.5311979
0
ARC
8
DEFAULT_255_2_778
10
16.1004967
20
47.2328955
40
1.297198
50
148.2770855
51
180.1324007
0
ARC
8
DEFAULT_255_2_778
10
16.0996449
20
47.2334122
40
1.2962017
50
97.0226393
51
148.276717
0
ARC
8
DEFAULT_255_2_778
10
16.1028539
20
47.2056442
40
1.3241537
50
89.9849309
51
97.0135513
0
ARC
8
DEFAULT_255_2_778
10
16.1061997
20
47.2326033
40
1.297198
50
58.2770855
51
90.1324007
0
ARC
8
DEFAULT_255_2_778
10
16.1067165
20
47.2334551
40
1.2962017
50
7.0226393
51
58.276717
0
ARC
8
DEFAULT_255_2_778
10
16.0789484
20
47.2302461
40
1.3241537
50
359.9849309
51
7.0135513
0
ARC
8
DEFAULT_255_2_778
10
16.1059076
20
47.2269003
40
1.297198
50
328.2770855
51
0.1324007
0
ARC
8
DEFAULT_255_2_778
10
16.1067594
20
47.2263835
40
1.2962017
50
277.0226393
51
328.276717
0
ARC
8
DEFAULT_255_2_778
10
16.1035504
20
47.2541516
40
1.3241537
50
269.9849309
51
277.0135513
0
ARC
8
DEFAULT_255_2_778
10
16.1002045
20
47.2271924
40
1.297198
50
238.2770855
51
270.1324007
0
ARC
8
DEFAULT_255_2_778
10
16.0996878
20
47.2263406
40
1.2962017
50
187.0226393
51
238.276717
0
ARC
8
DEFAULT_255_2_778
10
16.1274558
20
47.2295496
40
1.3241537
50
179.9849309
51
187.0135513
0
LINE
8
DEFAULT_255_2_778
10
14.8033021
20
47.2298979
11
14.8033021
21
47.2298979
0
LINE
8
DEFAULT_255_2_778
10
15.0245021
20
46.5046979
11
16.8287021
21
48.3088979
0
LINE
8
DEFAULT_255_2_778
10
17.1822021
20
47.9553979
11
15.3780021
21
46.1511979
0
ARC
8
DEFAULT_255_2_778
10
16.1004967
20
43.4228955
40
1.297198
50
148.2770855
51
180.1324007
0
ARC
8
DEFAULT_255_2_778
10
16.0996449
20
43.4234122
40
1.2962017
50
97.0226393
51
148.276717
0
ARC
8
DEFAULT_255_2_778
10
16.1028539
20
43.3956442
40
1.3241537
50
89.9849309
51
97.0135513
0
ARC
8
DEFAULT_255_2_778
10
16.1061997
20
43.4226033
40
1.297198
50
58.2770855
51
90.1324007
0
ARC
8
DEFAULT_255_2_778
10
16.1067165
20
43.4234551
40
1.2962017
50
7.0226393
51
58.276717
0
ARC
8
DEFAULT_255_2_778
10
16.0789484
20
43.4202461
40
1.3241537
50
359.9849309
51
7.0135513
0
ARC
8
DEFAULT_255_2_778
10
16.1059076
20
43.4169003
40
1.297198
50
328.2770855
51
0.1324007
0
ARC
8
DEFAULT_255_2_778
10
16.1067594
20
43.4163835
40
1.2962017
50
277.0226393
51
328.276717
0
ARC
8
DEFAULT_255_2_778
10
16.1035504
20
43.4441516
40
1.3241537
50
269.9849309
51
277.0135513
0
ARC
8
DEFAULT_255_2_778
10
16.1002045
20
43.4171924
40
1.297198
50
238.2770855
51
270.1324007
0
ARC
8
DEFAULT_255_2_778
10
16.0996878
20
43.4163406
40
1.2962017
50
187.0226393
51
238.276717
0
ARC
8
DEFAULT_255_2_778
10
16.1274558
20
43.4195496
40
1.3241537
50
179.9849309
51
187.0135513
0
LINE
8
DEFAULT_255_2_778
10
14.8033021
20
43.4198979
11
14.8033021
21
43.4198979
0
LINE
8
DEFAULT_255_2_778
10
15.0245021
20
42.6946979
11
16.8287021
21
44.4988979
0
LINE
8
DEFAULT_255_2_778
10
17.1822021
20
44.1453979
11
15.3780021
21
42.3411979
0
ARC
8
DEFAULT_255_2_778
10
16.1004967
20
51.0428955
40
1.297198
50
148.2770855
51
180.1324007
0
ARC
8
DEFAULT_255_2_778
10
16.0996449
20
51.0434122
40
1.2962017
50
97.0226393
51
148.276717
0
ARC
8
DEFAULT_255_2_778
10
16.1028539
20
51.0156442
40
1.3241537
50
89.9849309
51
97.0135513
0
ARC
8
DEFAULT_255_2_778
10
16.1061997
20
51.0426033
40
1.297198
50
58.2770855
51
90.1324007
0
ARC
8
DEFAULT_255_2_778
10
16.1067165
20
51.0434551
40
1.2962017
50
7.0226393
51
58.276717
0
ARC
8
DEFAULT_255_2_778
10
16.0789484
20
51.0402461
40
1.3241537
50
359.9849309
51
7.0135513
0
ARC
8
DEFAULT_255_2_778
10
16.1059076
20
51.0369003
40
1.297198
50
328.2770855
51
0.1324007
0
ARC
8
DEFAULT_255_2_778
10
16.1067594
20
51.0363835
40
1.2962017
50
277.0226393
51
328.276717
0
ARC
8
DEFAULT_255_2_778
10
16.1035504
20
51.0641516
40
1.3241537
50
269.9849309
51
277.0135513
0
ARC
8
DEFAULT_255_2_778
10
16.1002045
20
51.0371924
40
1.297198
50
238.2770855
51
270.1324007
0
ARC
8
DEFAULT_255_2_778
10
16.0996878
20
51.0363406
40
1.2962017
50
187.0226393
51
238.276717
0
ARC
8
DEFAULT_255_2_778
10
16.1274558
20
51.0395496
40
1.3241537
50
179.9849309
51
187.0135513
0
LINE
8
DEFAULT_255_2_778
10
14.8033021
20
51.0398979
11
14.8033021
21
51.0398979
0
LINE
8
DEFAULT_255_2_778
10
15.0245021
20
50.3146979
11
16.8287021
21
52.1188979
0
LINE
8
DEFAULT_255_2_778
10
17.1822021
20
51.7653979
11
15.3780021
21
49.9611979
0
ARC
8
DEFAULT_255_2_778
10
16.1004967
20
54.8528955
40
1.297198
50
148.2770855
51
180.1324007
0
ARC
8
DEFAULT_255_2_778
10
16.0996449
20
54.8534122
40
1.2962017
50
97.0226393
51
148.276717
0
ARC
8
DEFAULT_255_2_778
10
16.1028539
20
54.8256442
40
1.3241537
50
89.9849309
51
97.0135513
0
ARC
8
DEFAULT_255_2_778
10
16.1061997
20
54.8526033
40
1.297198
50
58.2770855
51
90.1324007
0
ARC
8
DEFAULT_255_2_778
10
16.1067165
20
54.8534551
40
1.2962017
50
7.0226393
51
58.276717
0
ARC
8
DEFAULT_255_2_778
10
16.0789484
20
54.8502461
40
1.3241537
50
359.9849309
51
7.0135513
0
ARC
8
DEFAULT_255_2_778
10
16.1059076
20
54.8469003
40
1.297198
50
328.2770855
51
0.1324007
0
ARC
8
DEFAULT_255_2_778
10
16.1067594
20
54.8463835
40
1.2962017
50
277.0226393
51
328.276717
0
ARC
8
DEFAULT_255_2_778
10
16.1035504
20
54.8741516
40
1.3241537
50
269.9849309
51
277.0135513
0
ARC
8
DEFAULT_255_2_778
10
16.1002045
20
54.8471924
40
1.297198
50
238.2770855
51
270.1324007
0
ARC
8
DEFAULT_255_2_778
10
16.0996878
20
54.8463406
40
1.2962017
50
187.0226393
51
238.276717
0
ARC
8
DEFAULT_255_2_778
10
16.1274558
20
54.8495496
40
1.3241537
50
179.9849309
51
187.0135513
0
LINE
8
DEFAULT_255_2_778
10
14.8033021
20
54.8498979
11
14.8033021
21
54.8498979
0
LINE
8
DEFAULT_255_2_778
10
15.0245021
20
54.1246979
11
16.8287021
21
55.9288979
0
LINE
8
DEFAULT_255_2_778
10
17.1822021
20
55.5753979
11
15.3780021
21
53.7711979
0
ARC
8
DEFAULT_255_2_778
10
16.1004967
20
58.6628955
40
1.297198
50
148.2770855
51
180.1324007
0
ARC
8
DEFAULT_255_2_778
10
16.0996449
20
58.6634122
40
1.2962017
50
97.0226393
51
148.276717
0
ARC
8
DEFAULT_255_2_778
10
16.1028539
20
58.6356442
40
1.3241537
50
89.9849309
51
97.0135513
0
ARC
8
DEFAULT_255_2_778
10
16.1061997
20
58.6626033
40
1.297198
50
58.2770855
51
90.1324007
0
ARC
8
DEFAULT_255_2_778
10
16.1067165
20
58.6634551
40
1.2962017
50
7.0226393
51
58.276717
0
ARC
8
DEFAULT_255_2_778
10
16.0789484
20
58.6602461
40
1.3241537
50
359.9849309
51
7.0135513
0
ARC
8
DEFAULT_255_2_778
10
16.1059076
20
58.6569003
40
1.297198
50
328.2770855
51
0.1324007
0
ARC
8
DEFAULT_255_2_778
10
16.1067594
20
58.6563835
40
1.2962017
50
277.0226393
51
328.276717
0
ARC
8
DEFAULT_255_2_778
10
16.1035504
20
58.6841516
40
1.3241537
50
269.9849309
51
277.0135513
0
ARC
8
DEFAULT_255_2_778
10
16.1002045
20
58.6571924
40
1.297198
50
238.2770855
51
270.1324007
0
ARC
8
DEFAULT_255_2_778
10
16.0996878
20
58.6563406
40
1.2962017
50
187.0226393
51
238.276717
0
ARC
8
DEFAULT_255_2_778
10
16.1274558
20
58.6595496
40
1.3241537
50
179.9849309
51
187.0135513
0
LINE
8
DEFAULT_255_2_778
10
14.8033021
20
58.6598979
11
14.8033021
21
58.6598979
0
LINE
8
DEFAULT_255_2_778
10
15.0245021
20
57.9346979
11
16.8287021
21
59.7388979
0
LINE
8
DEFAULT_255_2_778
10
17.1822021
20
59.3853979
11
15.3780021
21
57.5811979
0
ARC
8
DEFAULT_255_2_778
10
16.1004967
20
62.4728955
40
1.297198
50
148.2770855
51
180.1324007
0
ARC
8
DEFAULT_255_2_778
10
16.0996449
20
62.4734122
40
1.2962017
50
97.0226393
51
148.276717
0
ARC
8
DEFAULT_255_2_778
10
16.1028539
20
62.4456442
40
1.3241537
50
89.9849309
51
97.0135513
0
ARC
8
DEFAULT_255_2_778
10
16.1061997
20
62.4726033
40
1.297198
50
58.2770855
51
90.1324007
0
ARC
8
DEFAULT_255_2_778
10
16.1067165
20
62.4734551
40
1.2962017
50
7.0226393
51
58.276717
0
ARC
8
DEFAULT_255_2_778
10
16.0789484
20
62.4702461
40
1.3241537
50
359.9849309
51
7.0135513
0
ARC
8
DEFAULT_255_2_778
10
16.1059076
20
62.4669003
40
1.297198
50
328.2770855
51
0.1324007
0
ARC
8
DEFAULT_255_2_778
10
16.1067594
20
62.4663835
40
1.2962017
50
277.0226393
51
328.276717
0
ARC
8
DEFAULT_255_2_778
10
16.1035504
20
62.4941516
40
1.3241537
50
269.9849309
51
277.0135513
0
ARC
8
DEFAULT_255_2_778
10
16.1002045
20
62.4671924
40
1.297198
50
238.2770855
51
270.1324007
0
ARC
8
DEFAULT_255_2_778
10
16.0996878
20
62.4663406
40
1.2962017
50
187.0226393
51
238.276717
0
ARC
8
DEFAULT_255_2_778
10
16.1274558
20
62.4695496
40
1.3241537
50
179.9849309
51
187.0135513
0
LINE
8
DEFAULT_255_2_778
10
14.8033021
20
62.4698979
11
14.8033021
21
62.4698979
0
LINE
8
DEFAULT_255_2_778
10
15.0245021
20
61.7446979
11
16.8287021
21
63.5488979
0
LINE
8
DEFAULT_255_2_778
10
17.1822021
20
63.1953979
11
15.3780021
21
61.3911979
0
ARC
8
DEFAULT_255_2_778
10
16.1004967
20
66.2828955
40
1.297198
50
148.2770855
51
180.1324007
0
ARC
8
DEFAULT_255_2_778
10
16.0996449
20
66.2834122
40
1.2962017
50
97.0226393
51
148.276717
0
ARC
8
DEFAULT_255_2_778
10
16.1028539
20
66.2556442
40
1.3241537
50
89.9849309
51
97.0135513
0
ARC
8
DEFAULT_255_2_778
10
16.1061997
20
66.2826033
40
1.297198
50
58.2770855
51
90.1324007
0
ARC
8
DEFAULT_255_2_778
10
16.1067165
20
66.2834551
40
1.2962017
50
7.0226393
51
58.276717
0
ARC
8
DEFAULT_255_2_778
10
16.0789484
20
66.2802461
40
1.3241537
50
359.9849309
51
7.0135513
0
ARC
8
DEFAULT_255_2_778
10
16.1059076
20
66.2769003
40
1.297198
50
328.2770855
51
0.1324007
0
ARC
8
DEFAULT_255_2_778
10
16.1067594
20
66.2763835
40
1.2962017
50
277.0226393
51
328.276717
0
ARC
8
DEFAULT_255_2_778
10
16.1035504
20
66.3041516
40
1.3241537
50
269.9849309
51
277.0135513
0
ARC
8
DEFAULT_255_2_778
10
16.1002045
20
66.2771924
40
1.297198
50
238.2770855
51
270.1324007
0
ARC
8
DEFAULT_255_2_778
10
16.0996878
20
66.2763406
40
1.2962017
50
187.0226393
51
238.276717
0
ARC
8
DEFAULT_255_2_778
10
16.1274558
20
66.2795496
40
1.3241537
50
179.9849309
51
187.0135513
0
LINE
8
DEFAULT_255_2_778
10
14.8033021
20
66.2798979
11
14.8033021
21
66.2798979
0
LINE
8
DEFAULT_255_2_778
10
15.0245021
20
65.5546979
11
16.8287021
21
67.3588979
0
LINE
8
DEFAULT_255_2_778
10
17.1822021
20
67.0053979
11
15.3780021
21
65.2011979
0
ARC
8
DEFAULT_255_2_778
10
16.1004967
20
70.0928955
40
1.297198
50
148.2770855
51
180.1324007
0
ARC
8
DEFAULT_255_2_778
10
16.0996449
20
70.0934122
40
1.2962017
50
97.0226393
51
148.276717
0
ARC
8
DEFAULT_255_2_778
10
16.1028539
20
70.0656442
40
1.3241537
50
89.9849309
51
97.0135513
0
ARC
8
DEFAULT_255_2_778
10
16.1061997
20
70.0926033
40
1.297198
50
58.2770855
51
90.1324007
0
ARC
8
DEFAULT_255_2_778
10
16.1067165
20
70.0934551
40
1.2962017
50
7.0226393
51
58.276717
0
ARC
8
DEFAULT_255_2_778
10
16.0789484
20
70.0902461
40
1.3241537
50
359.9849309
51
7.0135513
0
ARC
8
DEFAULT_255_2_778
10
16.1059076
20
70.0869003
40
1.297198
50
328.2770855
51
0.1324007
0
ARC
8
DEFAULT_255_2_778
10
16.1067594
20
70.0863835
40
1.2962017
50
277.0226393
51
328.276717
0
ARC
8
DEFAULT_255_2_778
10
16.1035504
20
70.1141516
40
1.3241537
50
269.9849309
51
277.0135513
0
ARC
8
DEFAULT_255_2_778
10
16.1002045
20
70.0871924
40
1.297198
50
238.2770855
51
270.1324007
0
ARC
8
DEFAULT_255_2_778
10
16.0996878
20
70.0863406
40
1.2962017
50
187.0226393
51
238.276717
0
ARC
8
DEFAULT_255_2_778
10
16.1274558
20
70.0895496
40
1.3241537
50
179.9849309
51
187.0135513
0
LINE
8
DEFAULT_255_2_778
10
14.8033021
20
70.0898979
11
14.8033021
21
70.0898979
0
LINE
8
DEFAULT_255_2_778
10
15.0245021
20
69.3646979
11
16.8287021
21
71.1688979
0
LINE
8
DEFAULT_255_2_778
10
17.1822021
20
70.8153979
11
15.3780021
21
69.0111979
0
ARC
8
DEFAULT_255_2_778
10
6.536133
20
95.4810118
40
0.6882221
50
70.6313466
51
91.0764067
0
ARC
8
DEFAULT_255_2_778
10
6.6100216
20
95.7069317
40
0.4506138
50
48.2112649
51
69.9678105
0
ARC
8
DEFAULT_255_2_778
10
6.6225712
20
95.7260977
40
0.4279741
50
357.7120779
51
47.7540932
0
ARC
8
DEFAULT_255_2_778
10
6.5694526
20
95.6953695
40
0.4809452
50
332.6635747
51
1.6255259
0
ARC
8
DEFAULT_255_2_778
10
6.671924
20
95.6526831
40
0.3704279
50
310.6438742
51
331.2501854
0
ARC
8
DEFAULT_255_2_778
10
6.6042732
20
95.7469067
40
0.4860907
50
278.657387
51
309.4601934
0
ARC
8
DEFAULT_255_2_778
10
6.5268534
20
96.1279641
40
0.8746703
50
269.6233929
51
279.9138051
0
ARC
8
DEFAULT_255_2_778
10
6.5358225
20
95.8479468
40
0.4320186
50
268.3262865
51
292.5982953
0
ARC
8
DEFAULT_255_2_778
10
6.5962477
20
95.6857612
40
0.2591485
50
294.0436857
51
311.2464631
0
ARC
8
DEFAULT_255_2_778
10
6.5836376
20
95.686401
40
0.2680965
50
313.1829758
51
1.6849611
0
ARC
8
DEFAULT_255_2_778
10
6.3934503
20
95.7073477
40
0.458354
50
358.3667712
51
0.0080915
0
ARC
8
DEFAULT_255_2_778
10
6.5698607
20
95.7203359
40
0.2822395
50
357.3755744
51
45.665074
0
ARC
8
DEFAULT_255_2_778
10
6.5510631
20
95.6818938
40
0.3231514
50
48.0451703
51
89.2860571
0
ARC
8
DEFAULT_255_2_778
10
6.52437
20
95.4760326
40
0.5298787
50
86.6764125
51
88.8933037
0
ARC
8
DEFAULT_255_2_778
10
6.4116932
20
96.600544
40
1.8292162
50
318.1706035
51
323.5099663
0
ARC
8
DEFAULT_255_2_778
10
7.3120757
20
95.9359257
40
0.7101082
50
323.4199637
51
331.2261412
0
ARC
8
DEFAULT_255_2_778
10
7.6211802
20
95.7656903
40
0.3572266
50
331.2946586
51
359.7790074
0
ARC
8
DEFAULT_255_2_778
10
7.7091138
20
95.7744909
40
0.2694828
50
357.8354195
51
42.7489932
0
ARC
8
DEFAULT_255_2_778
10
7.7278504
20
95.7830974
40
0.2499637
50
44.2157001
51
92.555724
0
ARC
8
DEFAULT_255_2_778
10
7.7026787
20
95.7206375
40
0.3124899
50
87.4275177
51
125.1733766
0
ARC
8
DEFAULT_255_2_778
10
7.6716526
20
95.7796841
40
0.2465036
50
127.1850162
51
135.7757917
0
ARC
8
DEFAULT_255_2_778
10
7.7161788
20
95.7492295
40
0.2997951
50
137.5403279
51
180.2665324
0
ARC
8
DEFAULT_255_2_778
10
7.9189589
20
95.7258041
40
0.5030545
50
177.4899888
51
180.0218302
0
ARC
8
DEFAULT_255_2_778
10
7.668398
20
95.7434358
40
0.4441515
50
134.2444288
51
182.2998303
0
ARC
8
DEFAULT_255_2_778
10
7.6813084
20
95.7129542
40
0.4751475
50
92.3239131
51
132.7949647
0
ARC
8
DEFAULT_255_2_778
10
7.7160381
20
95.4605001
40
0.7292127
50
89.9476648
51
94.2464994
0
ARC
8
DEFAULT_255_2_778
10
7.7299945
20
95.6358256
40
0.5540463
50
66.7301469
51
91.3745215
0
ARC
8
DEFAULT_255_2_778
10
7.7879438
20
95.7901322
40
0.3894747
50
48.0097004
51
65.5935925
0
ARC
8
DEFAULT_255_2_778
10
7.7957017
20
95.8024561
40
0.375133
50
357.5947027
51
47.6311366
0
ARC
8
DEFAULT_255_2_778
10
7.6860605
20
95.7997091
40
0.4846181
50
333.65666
51
358.4632472
0
ARC
8
DEFAULT_255_2_778
10
7.1815582
20
96.0338124
40
1.0407068
50
322.2954777
51
334.4318791
0
ARC
8
DEFAULT_255_2_778
10
6.5275474
20
96.5208909
40
1.8560935
50
317.1085583
51
322.7468394
0
ARC
8
DEFAULT_255_2_778
10
9.5892983
20
95.7712257
40
0.349449
50
326.0585599
51
0.8996558
0
ARC
8
DEFAULT_255_2_778
10
9.5427192
20
95.8063192
40
0.4076976
50
295.5571137
51
325.6219672
0
ARC
8
DEFAULT_255_2_778
10
9.5549642
20
95.0406274
40
0.4302216
50
35.525217
51
67.6438749
0
ARC
8
DEFAULT_255_2_778
10
9.6025139
20
95.0752243
40
0.3714202
50
359.2731298
51
35.4438127
0
ARC
8
DEFAULT_255_2_778
10
9.5807912
20
95.0535889
40
0.3934772
50
311.614266
51
2.4650687
0
ARC
8
DEFAULT_255_2_778
10
9.5304922
20
95.1270694
40
0.4819478
50
272.4351009
51
310.2833436
0
ARC
8
DEFAULT_255_2_778
10
9.4960008
20
95.3834606
40
0.7399483
50
269.9460652
51
274.260237
0
ARC
8
DEFAULT_255_2_778
10
9.4818315
20
95.21507
40
0.5717163
50
245.8204455
51
271.3503183
0
ARC
8
DEFAULT_255_2_778
10
9.4286631
20
95.0762705
40
0.4233987
50
228.408431
51
244.6906786
0
ARC
8
DEFAULT_255_2_778
10
9.4115671
20
95.0534868
40
0.3950171
50
177.5732812
51
228.0692845
0
ARC
8
DEFAULT_255_2_778
10
9.3998935
20
95.0744045
40
0.3830122
50
145.6690953
51
180.6271066
0
ARC
8
DEFAULT_255_2_778
10
9.4250945
20
95.0556224
40
0.4144176
50
112.2756365
51
145.4897124
0
ARC
8
DEFAULT_255_2_778
10
9.4374619
20
95.7936816
40
0.3929824
50
213.5118182
51
244.455663
0
ARC
8
DEFAULT_255_2_778
10
9.4055271
20
95.7708681
40
0.3537633
50
179.134393
51
213.2867361
0
ARC
8
DEFAULT_255_2_778
10
9.4492693
20
95.7923917
40
0.3977943
50
139.8502785
51
182.3309987
0
ARC
8
DEFAULT_255_2_778
10
9.4270269
20
95.8008351
40
0.3754316
50
132.4140799
51
138.6464019
0
ARC
8
DEFAULT_255_2_778
10
9.4667867
20
95.7460307
40
0.442776
50
91.0621277
51
131.4292298
0
ARC
8
DEFAULT_255_2_778
10
9.4949743
20
95.514696
40
0.6750167
50
89.971999
51
93.0907439
0
ARC
8
DEFAULT_255_2_778
10
9.5093799
20
95.6983244
40
0.4915896
50
60.6658717
51
91.6407679
0
ARC
8
DEFAULT_255_2_778
10
9.5459129
20
95.7819965
40
0.4008528
50
47.6008932
51
59.3589984
0
ARC
8
DEFAULT_255_2_778
10
9.5511628
20
95.794694
40
0.3879643
50
357.3244736
51
46.908989
0
LINE
8
DEFAULT_255_2_778
10
9.9387041
20
95.7765839
11
9.9387042
21
95.7762125
0
ARC
8
DEFAULT_255_2_778
10
9.5061144
20
95.085602
40
0.2766926
50
357.806644
51
44.8126634
0
ARC
8
DEFAULT_255_2_778
10
9.5049603
20
95.0764204
40
0.2840397
50
45.9625753
51
92.3922705
0
ARC
8
DEFAULT_255_2_778
10
9.4802965
20
95.0815648
40
0.2789419
50
87.3683105
51
134.1495086
0
ARC
8
DEFAULT_255_2_778
10
9.4880983
20
95.087248
40
0.2804611
50
136.1022157
51
182.5004143
0
ARC
8
DEFAULT_255_2_778
10
9.4750808
20
95.0606084
40
0.2675646
50
176.9140492
51
224.397244
0
ARC
8
DEFAULT_255_2_778
10
9.4738446
20
95.0838101
40
0.283451
50
227.9252604
51
270.9611897
0
ARC
8
DEFAULT_255_2_778
10
9.4951908
20
95.2808079
40
0.4806955
50
268.022032
51
270.0135148
0
ARC
8
DEFAULT_255_2_778
10
9.509273
20
95.1033215
40
0.3035306
50
267.3622552
51
305.6308289
0
ARC
8
DEFAULT_255_2_778
10
9.5400854
20
95.0457162
40
0.2389115
50
307.6732405
51
314.0189491
0
ARC
8
DEFAULT_255_2_778
10
9.5166102
20
95.0610981
40
0.2663577
50
315.3511207
51
2.9944731
0
ARC
8
DEFAULT_255_2_778
10
9.4848924
20
95.7875963
40
0.2457368
50
87.5716665
51
134.3853676
0
ARC
8
DEFAULT_255_2_778
10
9.4988713
20
95.7869966
40
0.2561223
50
136.5268342
51
183.0178484
0
ARC
8
DEFAULT_255_2_778
10
9.4975359
20
95.7623699
40
0.2546755
50
177.4923908
51
223.2061848
0
ARC
8
DEFAULT_255_2_778
10
9.4840607
20
95.7606827
40
0.2438296
50
225.085354
51
272.6429687
0
ARC
8
DEFAULT_255_2_778
10
9.5067428
20
95.7599355
40
0.2430923
50
267.302977
51
314.9897243
0
ARC
8
DEFAULT_255_2_778
10
9.4925369
20
95.7625315
40
0.2551037
50
316.8343508
51
2.4670736
0
ARC
8
DEFAULT_255_2_778
10
9.4926964
20
95.783486
40
0.254903
50
357.7576304
51
44.0174897
0
ARC
8
DEFAULT_255_2_778
10
9.5026055
20
95.7888916
40
0.2440392
50
44.7214483
51
91.7849299
0
LINE
8
DEFAULT_255_2_778
10
6.5211042
20
95.2536125
11
6.1665042
21
95.2536125
0
LINE
8
DEFAULT_255_2_778
10
6.1665042
20
95.2536125
11
6.1665042
21
94.6644125
0
LINE
8
DEFAULT_255_2_778
10
6.1665042
20
94.6644125
11
5.9681042
21
94.6644125
0
LINE
8
DEFAULT_255_2_778
10
5.9681042
20
94.6644125
11
5.9681042
21
96.1691125
0
LINE
8
DEFAULT_255_2_778
10
5.9681042
20
96.1691125
11
6.5232042
21
96.1691125
0
LINE
8
DEFAULT_255_2_778
10
6.5211042
20
95.2533125
11
6.5211042
21
95.2536125
0
LINE
8
DEFAULT_255_2_778
10
6.1665042
20
96.0061125
11
6.1665042
21
95.4161125
0
LINE
8
DEFAULT_255_2_778
10
6.1665042
20
95.4161125
11
6.5232042
21
95.4161125
0
LINE
8
DEFAULT_255_2_778
10
6.5346042
20
96.0058125
11
6.1665042
21
96.0058125
0
LINE
8
DEFAULT_255_2_778
10
6.1665042
20
96.0058125
11
6.1665042
21
96.0061125
0
LINE
8
DEFAULT_255_2_778
10
8.2398042
20
94.8205125
11
8.2398042
21
94.6644125
0
LINE
8
DEFAULT_255_2_778
10
8.2398042
20
94.6644125
11
7.2537042
21
94.6644125
0
LINE
8
DEFAULT_255_2_778
10
7.2537042
20
94.6644125
11
7.2537042
21
94.8020125
0
LINE
8
DEFAULT_255_2_778
10
7.2537042
20
94.8020125
11
7.7747042
21
95.3806125
0
LINE
8
DEFAULT_255_2_778
10
7.4159042
20
95.7256125
11
7.2246042
21
95.7256125
0
LINE
8
DEFAULT_255_2_778
10
7.8874042
20
95.2576125
11
7.4844042
21
94.8205125
0
LINE
8
DEFAULT_255_2_778
10
7.4844042
20
94.8205125
11
8.2398042
21
94.8205125
0
LINE
8
DEFAULT_255_2_778
10
8.2398042
20
94.8205125
11
8.2398042
21
94.8205125
0
LINE
8
DEFAULT_255_2_778
10
8.8597042
20
95.3817125
11
8.8597042
21
95.2256125
0
LINE
8
DEFAULT_255_2_778
10
8.8597042
20
95.2256125
11
8.3554042
21
95.2256125
0
LINE
8
DEFAULT_255_2_778
10
8.3554042
20
95.2256125
11
8.3554042
21
95.3817125
0
LINE
8
DEFAULT_255_2_778
10
8.3554042
20
95.3817125
11
8.8597042
21
95.3817125
0
LINE
8
DEFAULT_255_2_778
10
8.8597042
20
95.3817125
11
8.8597042
21
95.3817125
0
LINE
8
DEFAULT_255_2_778
10
9.9387042
20
95.7762125
11
9.9387042
21
95.7767125
0
LINE
8
DEFAULT_255_2_778
10
9.7826042
20
95.0750125
11
9.7826042
21
95.0750125
0
LINE
8
DEFAULT_255_2_778
10
9.4950042
20
96.0328125
11
9.4953042
21
96.0331125
0
LINE
8
DEFAULT_255_2_778
10
11.2390125
20
94.664375
11
11.0954125
21
95.057075
0
LINE
8
DEFAULT_255_2_778
10
11.0954125
20
95.057075
11
10.4649125
21
95.057075
0
LINE
8
DEFAULT_255_2_778
10
10.4649125
20
95.057075
11
10.3233125
21
94.664375
0
LINE
8
DEFAULT_255_2_778
10
10.3233125
20
94.664375
11
10.1188125
21
94.664375
0
LINE
8
DEFAULT_255_2_778
10
10.1188125
20
94.664375
11
10.6935125
21
96.169075
0
LINE
8
DEFAULT_255_2_778
10
10.6935125
20
96.169075
11
10.8670125
21
96.169075
0
LINE
8
DEFAULT_255_2_778
10
10.8670125
20
96.169075
11
11.4428125
21
94.664175
0
LINE
8
DEFAULT_255_2_778
10
11.4428125
20
94.664175
11
11.2390125
21
94.664175
0
LINE
8
DEFAULT_255_2_778
10
11.2390125
20
94.664175
11
11.2390125
21
94.664375
0
LINE
8
DEFAULT_255_2_778
10
10.7803125
20
95.924375
11
10.5249125
21
95.220575
0
LINE
8
DEFAULT_255_2_778
10
10.5249125
20
95.220575
11
11.0366125
21
95.220575
0
LINE
8
DEFAULT_255_2_778
10
11.0366125
20
95.220575
11
10.7803125
21
95.924375
0
LINE
8
DEFAULT_255_2_778
10
10.7803125
20
95.924375
11
10.7803125
21
95.924375
0
ARC
8
DEFAULT_255_2_778
10
12.0834365
20
95.484314
40
0.6848931
50
60.8176109
51
91.1254253
0
ARC
8
DEFAULT_255_2_778
10
12.1244962
20
95.5724844
40
0.587937
50
26.5385939
51
60.1214904
0
ARC
8
DEFAULT_255_2_778
10
11.9380364
20
95.4816899
40
0.79532
50
359.887052
51
26.3885684
0
ARC
8
DEFAULT_255_2_778
10
11.686554
20
95.4631855
40
1.0469379
50
0.2183326
51
0.926927
0
ARC
8
DEFAULT_255_2_778
10
11.8967495
20
95.3572761
40
0.8368487
50
338.4115849
51
0.944798
0
ARC
8
DEFAULT_255_2_778
10
12.0509608
20
95.3066413
40
0.6748937
50
332.7929524
51
337.5916986
0
ARC
8
DEFAULT_255_2_778
10
12.1327208
20
95.2574426
40
0.5797207
50
299.3179603
51
333.4229417
0
ARC
8
DEFAULT_255_2_778
10
12.0717938
20
95.3867922
40
0.7224081
50
270.1832328
51
298.507876
0
ARC
8
DEFAULT_255_2_778
10
12.0514991
20
95.6306252
40
0.9665017
50
270.5919534
51
271.340177
0
ARC
8
DEFAULT_255_2_778
10
12.0662105
20
95.3417494
40
0.5150573
50
268.4729001
51
296.9382406
0
ARC
8
DEFAULT_255_2_778
10
12.1086734
20
95.2377454
40
0.4032078
50
298.2544041
51
318.2915706
0
ARC
8
DEFAULT_255_2_778
10
12.0294329
20
95.2948816
40
0.5004804
50
319.4441823
51
351.5030831
0
ARC
8
DEFAULT_255_2_778
10
11.6589309
20
95.370218
40
0.8782696
50
350.2135292
51
0.349476
0
ARC
8
DEFAULT_255_2_778
10
11.7608085
20
95.4762305
40
0.7764807
50
359.0587379
51
16.7877921
0
ARC
8
DEFAULT_255_2_778
10
12.057911
20
95.5631225
40
0.4669509
50
17.1096142
51
39.7764798
0
ARC
8
DEFAULT_255_2_778
10
12.1029778
20
95.5888059
40
0.4159823
50
41.0292327
51
88.6940272
0
ARC
8
DEFAULT_255_2_778
10
12.0693102
20
95.3504366
40
0.6556648
50
86.2267036
51
89.4866688
0
LINE
8
DEFAULT_255_2_778
10
12.0617844
20
94.664375
11
11.6452844
21
94.664375
0
LINE
8
DEFAULT_255_2_778
10
11.6452844
20
94.664375
11
11.6452844
21
96.169075
0
LINE
8
DEFAULT_255_2_778
10
11.6452844
20
96.169075
11
12.0699844
21
96.169075
0
LINE
8
DEFAULT_255_2_778
10
12.7334844
20
95.467175
11
12.7334844
21
95.371075
0
LINE
8
DEFAULT_255_2_778
10
12.0614844
20
94.664175
11
12.0617844
21
94.664375
0
LINE
8
DEFAULT_255_2_778
10
12.0751844
20
96.005875
11
11.8436844
21
96.005875
0
LINE
8
DEFAULT_255_2_778
10
11.8436844
20
96.005875
11
11.8436844
21
94.826875
0
LINE
8
DEFAULT_255_2_778
10
11.8436844
20
94.826875
11
12.0524844
21
94.826875
0
LINE
8
DEFAULT_255_2_778
10
12.5371844
20
95.375575
11
12.5371844
21
95.463475
0
LINE
8
DEFAULT_255_2_778
10
12.0751844
20
96.006075
11
12.0751844
21
96.005875
0
LINE
8
DEFAULT_255_2_778
10
13.7907104
20
96.1693427
11
13.7907104
21
95.1700427
0
LINE
8
DEFAULT_255_2_778
10
13.7907104
20
95.1700427
11
13.9995104
21
95.1700427
0
LINE
8
DEFAULT_255_2_778
10
13.9995104
20
95.1700427
11
13.9995104
21
95.0139427
0
LINE
8
DEFAULT_255_2_778
10
13.9995104
20
95.0139427
11
13.7907104
21
95.0139427
0
LINE
8
DEFAULT_255_2_778
10
13.7907104
20
95.0139427
11
13.7907104
21
94.6646427
0
LINE
8
DEFAULT_255_2_778
10
13.7907104
20
94.6646427
11
13.5984104
21
94.6646427
0
LINE
8
DEFAULT_255_2_778
10
13.5984104
20
94.6646427
11
13.5984104
21
95.0139427
0
LINE
8
DEFAULT_255_2_778
10
13.5984104
20
95.0139427
11
12.9131104
21
95.0139427
0
LINE
8
DEFAULT_255_2_778
10
12.9131104
20
95.0139427
11
12.9131104
21
95.1266427
0
LINE
8
DEFAULT_255_2_778
10
12.9131104
20
95.1266427
11
13.5870104
21
96.1693427
0
LINE
8
DEFAULT_255_2_778
10
13.5870104
20
96.1693427
11
13.7907104
21
96.1693427
0
LINE
8
DEFAULT_255_2_778
10
13.7907104
20
96.1693427
11
13.7907104
21
96.1693427
0
LINE
8
DEFAULT_255_2_778
10
13.5759104
20
95.8664427
11
13.1303104
21
95.1697427
0
LINE
8
DEFAULT_255_2_778
10
13.1303104
20
95.1697427
11
13.5986104
21
95.1697427
0
LINE
8
DEFAULT_255_2_778
10
13.5986104
20
95.1697427
11
13.5986104
21
95.9076427
0
LINE
8
DEFAULT_255_2_778
10
13.5986104
20
95.9076427
11
13.5759104
21
95.8664427
0
LINE
8
DEFAULT_255_2_778
10
13.5759104
20
95.8664427
11
13.5759104
21
95.8664427
0
ARC
8
DEFAULT_255_2_778
10
14.6599365
20
95.484314
40
0.6848931
50
60.8176109
51
91.1254253
0
ARC
8
DEFAULT_255_2_778
10
14.7009962
20
95.5724844
40
0.587937
50
26.5385939
51
60.1214904
0
ARC
8
DEFAULT_255_2_778
10
14.5145364
20
95.4816899
40
0.79532
50
359.887052
51
26.3885684
0
ARC
8
DEFAULT_255_2_778
10
14.263054
20
95.4631855
40
1.0469379
50
0.2183326
51
0.926927
0
ARC
8
DEFAULT_255_2_778
10
14.4732495
20
95.3572761
40
0.8368487
50
338.4115849
51
0.944798
0
ARC
8
DEFAULT_255_2_778
10
14.6274608
20
95.3066413
40
0.6748937
50
332.7929524
51
337.5916986
0
ARC
8
DEFAULT_255_2_778
10
14.7092208
20
95.2574426
40
0.5797207
50
299.3179603
51
333.4229417
0
ARC
8
DEFAULT_255_2_778
10
14.6482938
20
95.3867922
40
0.7224081
50
270.1832328
51
298.507876
0
ARC
8
DEFAULT_255_2_778
10
14.6279991
20
95.6306252
40
0.9665017
50
270.5919534
51
271.340177
0
ARC
8
DEFAULT_255_2_778
10
14.6427105
20
95.3417494
40
0.5150573
50
268.4729001
51
296.9382406
0
ARC
8
DEFAULT_255_2_778
10
14.6851734
20
95.2377454
40
0.4032078
50
298.2544041
51
318.2915706
0
ARC
8
DEFAULT_255_2_778
10
14.6059329
20
95.2948816
40
0.5004804
50
319.4441823
51
351.5030831
0
ARC
8
DEFAULT_255_2_778
10
14.2354309
20
95.370218
40
0.8782696
50
350.2135292
51
0.349476
0
ARC
8
DEFAULT_255_2_778
10
14.3373085
20
95.4762305
40
0.7764807
50
359.0587379
51
16.7877921
0
ARC
8
DEFAULT_255_2_778
10
14.634411
20
95.5631225
40
0.4669509
50
17.1096142
51
39.7764798
0
ARC
8
DEFAULT_255_2_778
10
14.6794778
20
95.5888059
40
0.4159823
50
41.0292327
51
88.6940272
0
ARC
8
DEFAULT_255_2_778
10
14.6458102
20
95.3504366
40
0.6556648
50
86.2267036
51
89.4866688
0
LINE
8
DEFAULT_255_2_778
10
14.6382844
20
94.664375
11
14.2217844
21
94.664375
0
LINE
8
DEFAULT_255_2_778
10
14.2217844
20
94.664375
11
14.2217844
21
96.169075
0
LINE
8
DEFAULT_255_2_778
10
14.2217844
20
96.169075
11
14.6464844
21
96.169075
0
LINE
8
DEFAULT_255_2_778
10
15.3099844
20
95.467175
11
15.3099844
21
95.371075
0
LINE
8
DEFAULT_255_2_778
10
14.6379844
20
94.664175
11
14.6382844
21
94.664375
0
LINE
8
DEFAULT_255_2_778
10
14.6516844
20
96.005875
11
14.4201844
21
96.005875
0
LINE
8
DEFAULT_255_2_778
10
14.4201844
20
96.005875
11
14.4201844
21
94.826875
0
LINE
8
DEFAULT_255_2_778
10
14.4201844
20
94.826875
11
14.6289844
21
94.826875
0
LINE
8
DEFAULT_255_2_778
10
15.1136844
20
95.375575
11
15.1136844
21
95.463475
0
LINE
8
DEFAULT_255_2_778
10
14.6516844
20
96.006075
11
14.6516844
21
96.005875
0
LINE
8
DEFAULT_255_2_778
10
16.5627125
20
94.664375
11
16.4191125
21
95.057075
0
LINE
8
DEFAULT_255_2_778
10
16.4191125
20
95.057075
11
15.7886125
21
95.057075
0
LINE
8
DEFAULT_255_2_778
10
15.7886125
20
95.057075
11
15.6470125
21
94.664375
0
LINE
8
DEFAULT_255_2_778
10
15.6470125
20
94.664375
11
15.4425125
21
94.664375
0
LINE
8
DEFAULT_255_2_778
10
15.4425125
20
94.664375
11
16.0172125
21
96.169075
0
LINE
8
DEFAULT_255_2_778
10
16.0172125
20
96.169075
11
16.1907125
21
96.169075
0
LINE
8
DEFAULT_255_2_778
10
16.1907125
20
96.169075
11
16.7665125
21
94.664175
0
LINE
8
DEFAULT_255_2_778
10
16.7665125
20
94.664175
11
16.5627125
21
94.664175
0
LINE
8
DEFAULT_255_2_778
10
16.5627125
20
94.664175
11
16.5627125
21
94.664375
0
LINE
8
DEFAULT_255_2_778
10
16.1040125
20
95.924375
11
15.8486125
21
95.220575
0
LINE
8
DEFAULT_255_2_778
10
15.8486125
20
95.220575
11
16.3603125
21
95.220575
0
LINE
8
DEFAULT_255_2_778
10
16.3603125
20
95.220575
11
16.1040125
21
95.924375
0
LINE
8
DEFAULT_255_2_778
10
16.1040125
20
95.924375
11
16.1040125
21
95.924375
0
LINE
8
DEFAULT_255_2_778
10
17.3367156
20
95.3816469
11
17.3367156
21
95.2255469
0
LINE
8
DEFAULT_255_2_778
10
17.3367156
20
95.2255469
11
16.8324156
21
95.2255469
0
LINE
8
DEFAULT_255_2_778
10
16.8324156
20
95.2255469
11
16.8324156
21
95.3816469
0
LINE
8
DEFAULT_255_2_778
10
16.8324156
20
95.3816469
11
17.3367156
21
95.3816469
0
LINE
8
DEFAULT_255_2_778
10
17.3367156
20
95.3816469
11
17.3367156
21
95.3816469
0
LINE
8
DEFAULT_255_2_778
10
18.1318156
20
96.1764469
11
18.1318156
21
94.6643469
0
LINE
8
DEFAULT_255_2_778
10
18.1318156
20
94.6643469
11
17.9394156
21
94.6643469
0
LINE
8
DEFAULT_255_2_778
10
17.9394156
20
94.6643469
11
17.9394156
21
95.9385469
0
LINE
8
DEFAULT_255_2_778
10
17.9394156
20
95.9385469
11
17.5539156
21
95.7970469
0
LINE
8
DEFAULT_255_2_778
10
17.5539156
20
95.7970469
11
17.5539156
21
95.9706469
0
LINE
8
DEFAULT_255_2_778
10
17.5539156
20
95.9706469
11
18.1016156
21
96.1761469
0
LINE
8
DEFAULT_255_2_778
10
18.1016156
20
96.1761469
11
18.1315156
21
96.1761469
0
LINE
8
DEFAULT_255_2_778
10
18.1315156
20
96.1761469
11
18.1318156
21
96.1764469
0
LINE
8
DEFAULT_255_2_778
10
3.5380815
20
93.4097708
11
20.5380815
21
93.4097708
0
LINE
8
DEFAULT_255_2_778
10
20.5380815
20
93.4097708
11
20.5380815
21
95.8997708
0
LINE
8
DEFAULT_255_2_778
10
20.5380815
20
95.8997708
11
20.5446815
21
97.1170708
0
LINE
8
DEFAULT_255_2_778
10
3.5520815
20
93.4237708
11
3.5380815
21
93.4097708
0
LINE
8
DEFAULT_255_2_778
10
3.5380815
20
93.4097708
11
3.5380815
21
95.8997708
0
LINE
8
DEFAULT_255_2_778
10
3.5380815
20
95.8997708
11
3.5314815
21
97.1170708
0
LINE
8
DEFAULT_255_2_778
10
3.5314815
20
97.1170708
11
20.5446815
21
97.1162708
0
LINE
8
DEFAULT_255_2_778
10
20.5446815
20
97.1162708
11
3.5314815
21
97.1162708
0
LINE
8
DEFAULT_255_2_778
10
3.5314815
20
97.1162708
11
20.5446815
21
97.1162708
0
LINE
8
DEFAULT_255_2_778
10
20.5446815
20
97.1162708
11
20.5240815
21
97.0956708
0
LINE
8
DEFAULT_255_2_778
10
2.1073
20
14.9186583
11
2.1073
21
14.7387583
0
LINE
8
DEFAULT_255_2_778
10
7.6032053
20
14.9186583
11
2.1070053
21
14.9186583
0
LINE
8
DEFAULT_255_2_778
10
2.1070053
20
14.9186583
11
2.1070053
21
14.7387583
0
LINE
8
DEFAULT_255_2_778
10
2.1070053
20
14.7387583
11
7.6032053
21
14.7387583
0
LINE
8
DEFAULT_255_2_778
10
2.1073
20
11.1086583
11
2.1073
21
10.9287583
0
LINE
8
DEFAULT_255_2_778
10
7.6032053
20
11.1086583
11
2.1070053
21
11.1086583
0
LINE
8
DEFAULT_255_2_778
10
2.1070053
20
11.1086583
11
2.1070053
21
10.9287583
0
LINE
8
DEFAULT_255_2_778
10
2.1070053
20
10.9287583
11
7.6032053
21
10.9287583
0
LINE
8
DEFAULT_255_2_778
10
2.1073
20
26.3486583
11
2.1073
21
26.1687583
0
LINE
8
DEFAULT_255_2_778
10
7.6032053
20
26.3486583
11
2.1070053
21
26.3486583
0
LINE
8
DEFAULT_255_2_778
10
2.1070053
20
26.3486583
11
2.1070053
21
26.1687583
0
LINE
8
DEFAULT_255_2_778
10
2.1070053
20
26.1687583
11
7.6032053
21
26.1687583
0
LINE
8
DEFAULT_255_2_778
10
2.1073
20
22.5386583
11
2.1073
21
22.3587583
0
LINE
8
DEFAULT_255_2_778
10
7.6032053
20
22.5386583
11
2.1070053
21
22.5386583
0
LINE
8
DEFAULT_255_2_778
10
2.1070053
20
22.5386583
11
2.1070053
21
22.3587583
0
LINE
8
DEFAULT_255_2_778
10
2.1070053
20
22.3587583
11
7.6032053
21
22.3587583
0
LINE
8
DEFAULT_255_2_778
10
2.1073
20
49.2086583
11
2.1073
21
49.0287583
0
LINE
8
DEFAULT_255_2_778
10
7.6032053
20
49.2086583
11
2.1070053
21
49.2086583
0
LINE
8
DEFAULT_255_2_778
10
2.1070053
20
49.2086583
11
2.1070053
21
49.0287583
0
LINE
8
DEFAULT_255_2_778
10
2.1070053
20
49.0287583
11
7.6032053
21
49.0287583
0
LINE
8
DEFAULT_255_2_778
10
2.1073
20
53.0186583
11
2.1073
21
52.8387583
0
LINE
8
DEFAULT_255_2_778
10
7.6032053
20
53.0186583
11
2.1070053
21
53.0186583
0
LINE
8
DEFAULT_255_2_778
10
2.1070053
20
53.0186583
11
2.1070053
21
52.8387583
0
LINE
8
DEFAULT_255_2_778
10
2.1070053
20
52.8387583
11
7.6032053
21
52.8387583
0
LINE
8
DEFAULT_255_2_778
10
2.1073
20
56.8286583
11
2.1073
21
56.6487583
0
LINE
8
DEFAULT_255_2_778
10
7.6032053
20
56.8286583
11
2.1070053
21
56.8286583
0
LINE
8
DEFAULT_255_2_778
10
2.1070053
20
56.8286583
11
2.1070053
21
56.6487583
0
LINE
8
DEFAULT_255_2_778
10
2.1070053
20
56.6487583
11
7.6032053
21
56.6487583
0
LINE
8
DEFAULT_255_2_778
10
2.1073
20
37.7786583
11
2.1073
21
37.5987583
0
LINE
8
DEFAULT_255_2_778
10
7.6032053
20
37.7786583
11
2.1070053
21
37.7786583
0
LINE
8
DEFAULT_255_2_778
10
2.1070053
20
37.7786583
11
2.1070053
21
37.5987583
0
LINE
8
DEFAULT_255_2_778
10
2.1070053
20
37.5987583
11
7.6032053
21
37.5987583
0
LINE
8
DEFAULT_255_2_778
10
2.1073
20
41.5886583
11
2.1073
21
41.4087583
0
LINE
8
DEFAULT_255_2_778
10
7.6032053
20
41.5886583
11
2.1070053
21
41.5886583
0
LINE
8
DEFAULT_255_2_778
10
2.1070053
20
41.5886583
11
2.1070053
21
41.4087583
0
LINE
8
DEFAULT_255_2_778
10
2.1070053
20
41.4087583
11
7.6032053
21
41.4087583
0
LINE
8
DEFAULT_255_2_778
10
2.1073
20
60.6386583
11
2.1073
21
60.4587583
0
LINE
8
DEFAULT_255_2_778
10
7.6032053
20
60.6386583
11
2.1070053
21
60.6386583
0
LINE
8
DEFAULT_255_2_778
10
2.1070053
20
60.6386583
11
2.1070053
21
60.4587583
0
LINE
8
DEFAULT_255_2_778
10
2.1070053
20
60.4587583
11
7.6032053
21
60.4587583
0
LINE
8
DEFAULT_255_2_778
10
2.1073
20
64.2486583
11
2.1073
21
64.0687583
0
LINE
8
DEFAULT_255_2_778
10
7.6032053
20
64.2486583
11
2.1070053
21
64.2486583
0
LINE
8
DEFAULT_255_2_778
10
2.1070053
20
64.2486583
11
2.1070053
21
64.0687583
0
LINE
8
DEFAULT_255_2_778
10
2.1070053
20
64.0687583
11
7.6032053
21
64.0687583
0
LINE
8
DEFAULT_255_2_778
10
2.1073
20
30.1586583
11
2.1073
21
29.9787583
0
LINE
8
DEFAULT_255_2_778
10
7.6032053
20
30.1586583
11
2.1070053
21
30.1586583
0
LINE
8
DEFAULT_255_2_778
10
2.1070053
20
30.1586583
11
2.1070053
21
29.9787583
0
LINE
8
DEFAULT_255_2_778
10
2.1070053
20
29.9787583
11
7.6032053
21
29.9787583
0
LINE
8
DEFAULT_255_2_778
10
2.1073
20
33.9686583
11
2.1073
21
33.7887583
0
LINE
8
DEFAULT_255_2_778
10
7.6032053
20
33.9686583
11
2.1070053
21
33.9686583
0
LINE
8
DEFAULT_255_2_778
10
2.1070053
20
33.9686583
11
2.1070053
21
33.7887583
0
LINE
8
DEFAULT_255_2_778
10
2.1070053
20
33.7887583
11
7.6032053
21
33.7887583
0
LINE
8
DEFAULT_255_2_778
10
2.1073
20
7.2986583
11
2.1073
21
7.1187583
0
LINE
8
DEFAULT_255_2_778
10
7.6032053
20
7.2986583
11
2.1070053
21
7.2986583
0
LINE
8
DEFAULT_255_2_778
10
2.1070053
20
7.2986583
11
2.1070053
21
7.1187583
0
LINE
8
DEFAULT_255_2_778
10
2.1070053
20
7.1187583
11
7.6032053
21
7.1187583
0
LINE
8
DEFAULT_255_2_778
10
2.1073
20
3.4886583
11
2.1073
21
3.3087583
0
LINE
8
DEFAULT_255_2_778
10
7.6032053
20
3.4886583
11
2.1070053
21
3.4886583
0
LINE
8
DEFAULT_255_2_778
10
2.1070053
20
3.4886583
11
2.1070053
21
3.3087583
0
LINE
8
DEFAULT_255_2_778
10
2.1070053
20
3.3087583
11
7.6032053
21
3.3087583
0
LINE
8
DEFAULT_255_2_778
10
2.1073
20
18.7286583
11
2.1073
21
18.5487583
0
LINE
8
DEFAULT_255_2_778
10
7.6032053
20
18.7286583
11
2.1070053
21
18.7286583
0
LINE
8
DEFAULT_255_2_778
10
2.1070053
20
18.7286583
11
2.1070053
21
18.5487583
0
LINE
8
DEFAULT_255_2_778
10
2.1070053
20
18.5487583
11
7.6032053
21
18.5487583
0
LINE
8
DEFAULT_255_2_778
10
2.1073
20
45.3986583
11
2.1073
21
45.2187583
0
LINE
8
DEFAULT_255_2_778
10
7.6032053
20
45.3986583
11
2.1070053
21
45.3986583
0
LINE
8
DEFAULT_255_2_778
10
2.1070053
20
45.3986583
11
2.1070053
21
45.2187583
0
LINE
8
DEFAULT_255_2_778
10
2.1070053
20
45.2187583
11
7.6032053
21
45.2187583
0
ARC
8
DEFAULT_255_2_778
10
22.1689202
20
101.0075452
40
1.0712457
50
90.004149
51
90.1526665
0
ARC
8
DEFAULT_255_2_778
10
22.1688595
20
101.0812676
40
0.9975233
50
11.8663086
51
90.0009716
0
ARC
8
DEFAULT_255_2_778
10
21.9649202
20
101.0075452
40
1.0712457
50
90.004149
51
90.1526665
0
ARC
8
DEFAULT_255_2_778
10
21.9648595
20
101.0812676
40
0.9975233
50
11.8663086
51
90.0009716
0
ARC
8
DEFAULT_255_2_778
10
1.9070721
20
101.0812676
40
0.9975233
50
89.9990284
51
168.1336914
0
ARC
8
DEFAULT_255_2_778
10
1.9070114
20
101.0075452
40
1.0712457
50
89.8473335
51
89.995851
0
ARC
8
DEFAULT_255_2_778
10
20.7709437
20
102.2672932
40
1.1702199
50
49.046123
51
90.0044015
0
ARC
8
DEFAULT_255_2_778
10
20.7708525
20
102.2675828
40
1.1699302
50
89.9999384
51
94.8980789
0
ARC
8
DEFAULT_255_2_778
10
20.7710235
20
102.2659117
40
1.1716097
50
94.8994312
51
101.4788549
0
ARC
8
DEFAULT_255_2_778
10
3.3048963
20
102.2658765
40
1.1716465
50
78.5209237
51
85.0386007
0
ARC
8
DEFAULT_255_2_778
10
3.3050995
20
102.2679155
40
1.1695976
50
85.0398787
51
89.9999774
0
ARC
8
DEFAULT_255_2_778
10
3.3051557
20
102.2668438
40
1.1706692
50
90.0027258
51
130.945663
0
ARC
8
DEFAULT_255_2_778
10
3.7093392
20
101.0443236
40
1.3245973
50
93.1754084
51
130.9761322
0
ARC
8
DEFAULT_255_2_778
10
3.7086448
20
101.042049
40
1.3258608
50
130.8890254
51
173.1293171
0
ARC
8
DEFAULT_255_2_778
10
3.727164
20
101.0394376
40
1.3445594
50
173.1132405
51
174.881781
0
ARC
8
DEFAULT_255_2_778
10
20.3684248
20
101.0423833
40
1.3247182
50
5.0671673
51
42.8643399
0
ARC
8
DEFAULT_255_2_778
10
20.3662906
20
101.0431596
40
1.325756
50
42.7770056
51
85.0206985
0
ARC
8
DEFAULT_255_2_778
10
20.3642806
20
101.0242214
40
1.3447971
50
85.0054218
51
86.7736907
0
ARC
8
DEFAULT_255_2_778
10
12.0378085
20
41.890169
40
61.0575932
50
82.0904085
51
89.9950577
0
LINE
8
DEFAULT_255_2_778
10
12.0430753
20
102.9477619
11
12.0378283
21
102.9477621
0
ARC
8
DEFAULT_255_2_778
10
12.0378102
20
41.8917989
40
61.0559632
50
89.999983
51
97.9096971
0
ARC
8
DEFAULT_255_2_778
10
3.7079901
20
101.2732525
40
1.3249035
50
137.1386752
51
174.9322051
0
ARC
8
DEFAULT_255_2_778
10
3.7099743
20
101.2742107
40
1.3257077
50
94.9809242
51
137.2273619
0
ARC
8
DEFAULT_255_2_778
10
3.7118973
20
101.2560574
40
1.3439595
50
93.2260333
51
94.9954048
0
ARC
8
DEFAULT_255_2_778
10
12.0383382
20
42.1223932
40
61.0563688
50
89.9999741
51
97.9096707
0
ARC
8
DEFAULT_255_2_778
10
12.0383934
20
42.1223932
40
61.0563688
50
82.0903293
51
90.0000259
0
ARC
8
DEFAULT_255_2_778
10
20.3670751
20
101.275418
40
1.324504
50
49.0193715
51
86.8236175
0
ARC
8
DEFAULT_255_2_778
10
20.3675975
20
101.2729147
40
1.3260529
50
6.8711847
51
49.1073447
0
ARC
8
DEFAULT_255_2_778
10
20.3491694
20
101.270328
40
1.3446581
50
5.1182508
51
6.8866671
0
ARC
8
DEFAULT_255_2_778
10
18.0371936
20
105.2616983
40
1.7569171
50
269.9993858
51
310.9279156
0
ARC
8
DEFAULT_255_2_778
10
18.0371761
20
105.2605379
40
1.7557567
50
265.0670915
51
269.999957
0
ARC
8
DEFAULT_255_2_778
10
18.0374315
20
105.2630214
40
1.7582528
50
258.5456734
51
265.0657591
0
ARC
8
DEFAULT_255_2_778
10
16.4390001
20
105.2630214
40
1.7582528
50
274.9342409
51
281.4543266
0
ARC
8
DEFAULT_255_2_778
10
16.4392555
20
105.2605379
40
1.7557566
50
270.000043
51
274.9329085
0
ARC
8
DEFAULT_255_2_778
10
16.439238
20
105.2616983
40
1.7569171
50
229.0720844
51
270.0006142
0
ARC
8
DEFAULT_255_2_778
10
7.6369936
20
105.2616983
40
1.7569171
50
269.9993858
51
310.9279156
0
ARC
8
DEFAULT_255_2_778
10
7.6369761
20
105.2605379
40
1.7557567
50
265.0670915
51
269.999957
0
ARC
8
DEFAULT_255_2_778
10
7.6372315
20
105.2630214
40
1.7582528
50
258.5456734
51
265.0657591
0
ARC
8
DEFAULT_255_2_778
10
6.0388006
20
105.2630157
40
1.7582472
50
274.930239
51
281.454348
0
ARC
8
DEFAULT_255_2_778
10
6.0390551
20
105.2605044
40
1.7557232
50
270.000022
51
274.929007
0
ARC
8
DEFAULT_255_2_778
10
6.0390876
20
105.2620995
40
1.7573182
50
229.0769668
51
269.9989634
0
ARC
8
DEFAULT_255_2_778
10
22.3447743
20
98.586219
40
1.4939207
50
47.6506908
51
79.4084761
0
ARC
8
DEFAULT_255_2_778
10
22.3144498
20
98.5492847
40
1.5416472
50
45.0101531
51
47.742465
0
ARC
8
DEFAULT_255_2_778
10
22.3502014
20
98.5795604
40
1.4949646
50
0.0030088
51
45.1588701
0
ARC
8
DEFAULT_255_2_778
10
23.1384159
20
98.579451
40
0.7067501
50
359.9542851
51
0.015238
0
ARC
8
DEFAULT_255_2_778
10
0.9386157
20
98.579451
40
0.7067501
50
179.984762
51
180.0457149
0
ARC
8
DEFAULT_255_2_778
10
1.7268302
20
98.5795604
40
1.4949646
50
134.8411299
51
179.9969912
0
ARC
8
DEFAULT_255_2_778
10
1.7342708
20
98.5821576
40
1.4983866
50
106.4120187
51
135.1129014
0
ARC
8
DEFAULT_255_2_778
10
1.7325237
20
98.5850439
40
1.4951247
50
100.5932833
51
106.3790458
0
ARC
8
DEFAULT_255_2_778
10
2.111693
20
101.0816182
40
0.9974717
50
89.9986756
51
168.1536477
0
ARC
8
DEFAULT_255_2_778
10
2.1117998
20
101.0929554
40
0.9861345
50
89.8683404
51
90.0048649
0
ARC
8
DEFAULT_255_2_778
10
2.9123372
20
100.4524986
40
0.7473382
50
134.5274319
51
178.7894632
0
ARC
8
DEFAULT_255_2_778
10
8.0322251
20
102.5485768
40
1.4923785
50
132.7882654
51
138.3804305
0
ARC
8
DEFAULT_255_2_778
10
16.0276901
20
102.5325899
40
1.5151947
50
41.6617051
51
47.1695963
0
ARC
8
DEFAULT_255_2_778
10
8.0389083
20
102.5413797
40
1.5025076
50
90.0283156
51
111.0323534
0
ARC
8
DEFAULT_255_2_778
10
16.0373972
20
102.5423163
40
1.5015709
50
68.9610156
51
89.9744888
0
ARC
8
DEFAULT_255_2_778
10
8.037791
20
102.5440512
40
1.4996848
50
111.0362715
51
132.835282
0
ARC
8
DEFAULT_255_2_778
10
16.0381406
20
102.5440512
40
1.4996848
50
47.164718
51
68.9637285
0
ARC
8
DEFAULT_255_2_778
10
22.5108352
20
101.7640643
40
0.6275876
50
149.9020181
51
179.9917259
0
ARC
8
DEFAULT_255_2_778
10
22.5097528
20
101.7641533
40
0.6265053
50
179.9998528
51
184.1222391
0
ARC
8
DEFAULT_255_2_778
10
22.5102057
20
101.7641851
40
0.6269594
50
184.1221623
51
187.4689751
0
ARC
8
DEFAULT_255_2_778
10
1.5626215
20
101.7634838
40
0.6310382
50
352.6437881
51
356.5529499
0
ARC
8
DEFAULT_255_2_778
10
1.5626672
20
101.7634811
40
0.6309925
50
356.5529415
51
0.0000662
0
ARC
8
DEFAULT_255_2_778
10
1.564605
20
101.7637118
40
0.6290547
50
359.979055
51
30.0576415
0
ARC
8
DEFAULT_255_2_778
10
21.1630352
20
100.4521278
40
0.7482052
50
1.237533
51
45.4455719
0
ARC
8
DEFAULT_255_2_778
10
22.6542912
20
100.6002619
40
0.7429754
50
67.3204054
51
90.0013834
0
LINE
8
DEFAULT_255_2_778
10
22.6542733
20
101.3432372
11
22.6540146
21
101.3432371
0
ARC
8
DEFAULT_255_2_778
10
22.6542646
20
100.6000436
40
0.7431936
50
90.0192737
51
112.6161216
0
ARC
8
DEFAULT_255_2_778
10
21.9103195
20
101.2200306
40
0.4628838
50
8.2044799
51
89.9783985
0
ARC
8
DEFAULT_255_2_778
10
21.9105085
20
101.2136147
40
0.4692999
50
90.0017696
51
92.7165864
0
ARC
8
DEFAULT_255_2_778
10
1.4218432
20
100.6000724
40
0.7433897
50
89.9949865
51
112.6581405
0
LINE
8
DEFAULT_255_2_778
10
1.4219083
20
101.3434622
11
1.4221614
21
101.3434621
0
ARC
8
DEFAULT_255_2_778
10
1.421965
20
100.5998579
40
0.7436043
50
67.4052468
51
89.9848693
0
ARC
8
DEFAULT_255_2_778
10
2.1659634
20
101.220156
40
0.4630586
50
90.0279498
51
171.7768061
0
ARC
8
DEFAULT_255_2_778
10
2.165723
20
101.2139146
40
0.4692999
50
87.2834137
51
89.9982305
0
ARC
8
DEFAULT_255_2_778
10
1.8305864
20
1.4695506
40
1.6249746
50
270.0019559
51
270.2108301
0
ARC
8
DEFAULT_255_2_778
10
1.8305853
20
1.442456
40
1.5978799
50
224.3293307
51
270.0020288
0
ARC
8
DEFAULT_255_2_778
10
1.8311021
20
1.4428327
40
1.5985127
50
179.9999544
51
224.3260439
0
ARC
8
DEFAULT_255_2_778
10
1.8342965
20
1.4428206
40
1.6017071
50
178.462831
51
179.9995211
0
ARC
8
DEFAULT_255_2_778
10
1.8268781
20
1.4841304
40
1.5937132
50
179.9404396
51
208.3547826
0
ARC
8
DEFAULT_255_2_778
10
1.834447
20
1.4875527
40
1.6019996
50
208.3339323
51
261.233694
0
ARC
8
DEFAULT_255_2_778
10
1.8336034
20
1.4999667
40
1.6141424
50
261.3304449
51
269.4946125
0
ARC
8
DEFAULT_255_2_778
10
11.0831747
20
1.9491435
40
0.4521506
50
185.5788915
51
230.9736976
0
ARC
8
DEFAULT_255_2_778
10
11.0831786
20
1.9483206
40
0.4515141
50
230.9075656
51
270.0036979
0
ARC
8
DEFAULT_255_2_778
10
11.0832048
20
1.9488494
40
0.4520427
50
270.0003698
51
275.8470357
0
ARC
8
DEFAULT_255_2_778
10
11.0829735
20
1.9511505
40
0.4543554
50
275.8464882
51
276.3550536
0
ARC
8
DEFAULT_255_2_778
10
17.4065362
20
1.9225625
40
1.438959
50
349.0645233
51
0.0122973
0
ARC
8
DEFAULT_255_2_778
10
17.3950235
20
1.9228593
40
1.4504715
50
0.0004753
51
1.3640005
0
ARC
8
DEFAULT_255_2_778
10
17.3916513
20
1.9227784
40
1.4538448
50
1.3640274
51
3.0284285
0
ARC
8
DEFAULT_255_2_778
10
12.538342
20
0.1992897
40
0.5001974
50
90.0201886
51
169.2851496
0
ARC
8
DEFAULT_255_2_778
10
22.2447392
20
1.4794069
40
1.5938675
50
270.4431175
51
298.8531936
0
ARC
8
DEFAULT_255_2_778
10
22.2414069
20
1.4867684
40
1.6019233
50
298.8305232
51
351.8511541
0
ARC
8
DEFAULT_255_2_778
10
22.2290849
20
1.4857636
40
1.6139809
50
351.9484663
51
359.9901834
0
ARC
8
DEFAULT_255_2_778
10
13.4803875
20
1.2492989
40
0.5581779
50
279.9324338
51
357.5755699
0
ARC
8
DEFAULT_255_2_778
10
-23.1274154
20
0.6852689
40
45.3915312
50
358.990165
51
0.000023
0
ARC
8
DEFAULT_255_2_778
10
-23.1299792
20
0.6852827
40
45.3940949
50
0.0000056
51
1.0098064
0
ARC
8
DEFAULT_255_2_778
10
18.3469458
20
2.2935021
40
0.793724
50
269.7271331
51
270.0029817
0
ARC
8
DEFAULT_255_2_778
10
18.3463661
20
2.3195535
40
0.8197756
50
270.0434037
51
305.2132187
0
LINE
8
DEFAULT_255_2_778
10
21.4199658
20
102.0787871
11
22.1660658
21
102.0787871
0
LINE
8
DEFAULT_255_2_778
10
22.9410658
20
101.2863871
11
23.1445658
21
101.2863871
0
LINE
8
DEFAULT_255_2_778
10
23.1445658
20
101.2863871
11
23.5223658
21
99.5056871
0
LINE
8
DEFAULT_255_2_778
10
1.9098658
20
102.0787871
11
2.1082658
21
102.0787871
0
LINE
8
DEFAULT_255_2_778
10
21.5379658
20
102.0787871
11
21.5379658
21
103.1510871
0
LINE
8
DEFAULT_255_2_778
10
20.5378658
20
103.4140871
11
3.5380658
21
103.4140871
0
LINE
8
DEFAULT_255_2_778
10
2.5379658
20
103.1510871
11
2.5379658
21
102.0787871
0
LINE
8
DEFAULT_255_2_778
10
2.3879658
20
101.1593871
11
2.3879658
21
100.7253871
0
LINE
8
DEFAULT_255_2_778
10
2.3879658
20
100.7253871
11
21.6879658
21
100.7253871
0
LINE
8
DEFAULT_255_2_778
10
21.6879658
20
100.7253871
11
21.6879658
21
101.1593871
0
LINE
8
DEFAULT_255_2_778
10
3.6357658
20
102.3668871
11
3.6359658
21
102.3668871
0
LINE
8
DEFAULT_255_2_778
10
2.3882658
20
101.1593871
11
2.3882658
21
101.3902871
0
LINE
8
DEFAULT_255_2_778
10
21.6884658
20
101.3902871
11
21.6884658
21
101.1593871
0
LINE
8
DEFAULT_255_2_778
10
21.6884658
20
100.3446871
11
2.3882658
21
100.3446871
0
LINE
8
DEFAULT_255_2_778
10
21.6882658
20
102.0787871
11
21.6882658
21
104.2761871
0
LINE
8
DEFAULT_255_2_778
10
21.6882658
20
104.2761871
11
19.1881658
21
104.2761871
0
LINE
8
DEFAULT_255_2_778
10
19.1881658
20
104.2761871
11
19.1881658
21
103.9342871
0
LINE
8
DEFAULT_255_2_778
10
17.6882658
20
103.5397871
11
16.7881658
21
103.5397871
0
LINE
8
DEFAULT_255_2_778
10
15.2882658
20
103.9342871
11
15.2882658
21
104.2761871
0
LINE
8
DEFAULT_255_2_778
10
15.2882658
20
104.2761871
11
12.7881658
21
104.2761871
0
LINE
8
DEFAULT_255_2_778
10
12.7881658
20
104.2761871
11
12.7881658
21
103.6710871
0
LINE
8
DEFAULT_255_2_778
10
12.7881658
20
103.6710871
11
12.7310658
21
103.5955871
0
LINE
8
DEFAULT_255_2_778
10
12.7310658
20
103.5955871
11
12.5685658
21
103.5315871
0
LINE
8
DEFAULT_255_2_778
10
12.5685658
20
103.5315871
11
12.3251658
21
103.4887871
0
LINE
8
DEFAULT_255_2_778
10
12.3251658
20
103.4887871
11
12.0380658
21
103.4736871
0
LINE
8
DEFAULT_255_2_778
10
12.0380658
20
103.4736871
11
11.7510658
21
103.4887871
0
LINE
8
DEFAULT_255_2_778
10
11.7510658
20
103.4887871
11
11.5075658
21
103.5315871
0
LINE
8
DEFAULT_255_2_778
10
11.5075658
20
103.5315871
11
11.3451658
21
103.5955871
0
LINE
8
DEFAULT_255_2_778
10
11.3451658
20
103.5955871
11
11.2879658
21
103.6710871
0
LINE
8
DEFAULT_255_2_778
10
11.2879658
20
103.6710871
11
11.2879658
21
104.2761871
0
LINE
8
DEFAULT_255_2_778
10
11.2879658
20
104.2761871
11
8.7879658
21
104.2761871
0
LINE
8
DEFAULT_255_2_778
10
8.7879658
20
104.2761871
11
8.7879658
21
103.9342871
0
LINE
8
DEFAULT_255_2_778
10
7.2880658
20
103.5397871
11
6.3879658
21
103.5397871
0
LINE
8
DEFAULT_255_2_778
10
4.8879658
20
103.9342871
11
4.8879658
21
104.2761871
0
LINE
8
DEFAULT_255_2_778
10
4.8879658
20
104.2761871
11
2.3882658
21
104.2761871
0
LINE
8
DEFAULT_255_2_778
10
2.3882658
20
104.2761871
11
2.3882658
21
102.0787871
0
LINE
8
DEFAULT_255_2_778
10
11.9129658
20
103.4767871
11
12.0383658
21
103.6937871
0
LINE
8
DEFAULT_255_2_778
10
12.0383658
20
103.6937871
11
12.1637658
21
103.4767871
0
LINE
8
DEFAULT_255_2_778
10
12.7884658
20
103.9437871
11
11.2885658
21
103.9437871
0
LINE
8
DEFAULT_255_2_778
10
12.7884658
20
104.0438871
11
11.2885658
21
104.0438871
0
LINE
8
DEFAULT_255_2_778
10
12.0097658
20
103.6437871
11
11.2959658
21
103.6437871
0
LINE
8
DEFAULT_255_2_778
10
12.7813658
20
103.6437871
11
12.0674658
21
103.6437871
0
LINE
8
DEFAULT_255_2_778
10
0.5538658
20
99.5056871
11
0.9316658
21
101.2863871
0
LINE
8
DEFAULT_255_2_778
10
0.9316658
20
101.2863871
11
1.1354658
21
101.2863871
0
LINE
8
DEFAULT_255_2_778
10
15.2882658
20
104.2761871
11
15.2882658
21
104.4311871
0
LINE
8
DEFAULT_255_2_778
10
15.2882658
20
104.4311871
11
12.7881658
21
104.4311871
0
LINE
8
DEFAULT_255_2_778
10
12.7881658
20
104.4311871
11
12.7881658
21
104.2761871
0
LINE
8
DEFAULT_255_2_778
10
11.2882658
20
104.2761871
11
11.2882658
21
104.4311871
0
LINE
8
DEFAULT_255_2_778
10
11.2882658
20
104.4311871
11
8.7882658
21
104.4311871
0
LINE
8
DEFAULT_255_2_778
10
8.7882658
20
104.4311871
11
8.7882658
21
104.2761871
0
LINE
8
DEFAULT_255_2_778
10
2.1651658
20
100.4682871
11
2.1281658
21
100.0131871
0
LINE
8
DEFAULT_255_2_778
10
8.7882658
20
104.0438871
11
8.0381658
21
104.0438871
0
LINE
8
DEFAULT_255_2_778
10
16.0380658
20
104.0438871
11
15.2879658
21
104.0438871
0
LINE
8
DEFAULT_255_2_778
10
8.7879658
20
103.9437871
11
7.4994658
21
103.9437871
0
LINE
8
DEFAULT_255_2_778
10
7.0181658
20
103.6437871
11
8.3029658
21
103.6437871
0
LINE
8
DEFAULT_255_2_778
10
15.7729658
20
103.6437871
11
17.0577658
21
103.6437871
0
LINE
8
DEFAULT_255_2_778
10
16.5764658
20
103.9437871
11
15.2879658
21
103.9437871
0
LINE
8
DEFAULT_255_2_778
10
2.3882658
20
100.0086871
11
2.3882658
21
100.7253871
0
LINE
8
DEFAULT_255_2_778
10
21.6882658
20
100.7253871
11
21.6882658
21
100.0086871
0
LINE
8
DEFAULT_255_2_778
10
21.8885658
20
101.6826871
11
21.6284658
21
101.6826871
0
LINE
8
DEFAULT_255_2_778
10
2.4485658
20
101.6826871
11
2.1884658
21
101.6826871
0
LINE
8
DEFAULT_255_2_778
10
2.1090658
20
102.0787871
11
2.6474658
21
102.0787871
0
LINE
8
DEFAULT_255_2_778
10
21.9110658
20
100.4682871
11
21.9480658
21
100.0131871
0
LINE
8
DEFAULT_255_2_778
10
23.2503658
20
99.7728871
11
22.9407658
21
101.2857871
0
LINE
8
DEFAULT_255_2_778
10
0.8258658
20
99.7731871
11
1.1354658
21
101.2860871
0
LINE
8
DEFAULT_255_2_778
10
1.7074658
20
101.2863871
11
1.4404658
21
99.9686871
0
LINE
8
DEFAULT_255_2_778
10
1.4404658
20
99.9686871
11
1.7987658
21
100.0128871
0
LINE
8
DEFAULT_255_2_778
10
1.7987658
20
100.0128871
11
1.8029658
21
100.0086871
0
LINE
8
DEFAULT_255_2_778
10
1.8029658
20
100.0086871
11
22.6272658
21
100.0086871
0
LINE
8
DEFAULT_255_2_778
10
22.6272658
20
100.0086871
11
22.3682658
21
101.2863871
0
LINE
8
DEFAULT_255_2_778
10
21.6882658
20
104.2761871
11
21.6882658
21
104.4311871
0
LINE
8
DEFAULT_255_2_778
10
21.6882658
20
104.4311871
11
19.1881658
21
104.4311871
0
LINE
8
DEFAULT_255_2_778
10
19.1881658
20
104.4311871
11
19.1881658
21
104.2761871
0
LINE
8
DEFAULT_255_2_778
10
4.8882658
20
104.2761871
11
4.8882658
21
104.4311871
0
LINE
8
DEFAULT_255_2_778
10
4.8882658
20
104.4311871
11
2.3882658
21
104.4311871
0
LINE
8
DEFAULT_255_2_778
10
2.3882658
20
104.4311871
11
2.3882658
21
104.2761871
0
LINE
8
DEFAULT_255_2_778
10
18.2031658
20
73.2195871
11
23.5932658
21
73.2195871
0
LINE
8
DEFAULT_255_2_778
10
23.5932658
20
72.9695871
11
23.5932658
21
73.4696871
0
LINE
8
DEFAULT_255_2_778
10
0.4832658
20
66.6086871
11
0.4832658
21
66.3586871
0
LINE
8
DEFAULT_255_2_778
10
1.8331658
20
66.3586871
11
1.8331658
21
66.6086871
0
LINE
8
DEFAULT_255_2_778
10
2.3331658
20
66.6086871
11
2.3331658
21
66.3586871
0
LINE
8
DEFAULT_255_2_778
10
1.8249658
20
100.0086871
11
1.8249658
21
66.6086871
0
LINE
8
DEFAULT_255_2_778
10
1.8249658
20
66.6086871
11
6.9879658
21
66.6086871
0
LINE
8
DEFAULT_255_2_778
10
6.9879658
20
66.6086871
11
6.9879658
21
73.4696871
0
LINE
8
DEFAULT_255_2_778
10
6.9879658
20
73.4696871
11
22.2515658
21
73.4696871
0
LINE
8
DEFAULT_255_2_778
10
22.2515658
20
73.4696871
11
22.2515658
21
100.0086871
0
LINE
8
DEFAULT_255_2_778
10
19.0932658
20
72.9695871
11
19.0932658
21
73.2195871
0
LINE
8
DEFAULT_255_2_778
10
19.0932658
20
73.2195871
11
19.0932658
21
72.9695871
0
LINE
8
DEFAULT_255_2_778
10
19.0932658
20
72.9695871
11
19.3432658
21
72.9695871
0
LINE
8
DEFAULT_255_2_778
10
19.3432658
20
72.9695871
11
19.3432658
21
72.3895871
0
LINE
8
DEFAULT_255_2_778
10
18.8431658
20
72.3895871
11
18.8431658
21
73.2195871
0
LINE
8
DEFAULT_255_2_778
10
13.8523658
20
3.0195871
11
7.6031658
21
3.0195871
0
LINE
8
DEFAULT_255_2_778
10
7.6031658
20
3.0195871
11
7.6031658
21
72.3895871
0
LINE
8
DEFAULT_255_2_778
10
7.6031658
20
72.3895871
11
7.9031658
21
72.3895871
0
LINE
8
DEFAULT_255_2_778
10
12.8530658
20
72.3895871
11
7.9031658
21
72.3895871
0
LINE
8
DEFAULT_255_2_778
10
7.9031658
20
72.3895871
11
7.9031658
21
3.0195871
0
LINE
8
DEFAULT_255_2_778
10
12.8530658
20
5.0512871
11
12.8530658
21
3.0195871
0
LINE
8
DEFAULT_255_2_778
10
19.9033658
20
3.0195871
11
19.9033658
21
72.3895871
0
LINE
8
DEFAULT_255_2_778
10
19.9033658
20
72.3895871
11
19.7033658
21
72.3895871
0
LINE
8
DEFAULT_255_2_778
10
19.7033658
20
72.3895871
11
19.7033658
21
3.0195871
0
LINE
8
DEFAULT_255_2_778
10
19.7033658
20
3.0195871
11
19.9033658
21
3.0195871
0
LINE
8
DEFAULT_255_2_778
10
19.9033658
20
72.3895871
11
14.3351658
21
72.3895871
0
LINE
8
DEFAULT_255_2_778
10
14.3351658
20
72.3895871
11
14.3351658
21
3.0195871
0
LINE
8
DEFAULT_255_2_778
10
14.3351658
20
3.0195871
11
19.7030658
21
3.0195871
0
LINE
8
DEFAULT_255_2_778
10
14.3351658
20
3.0195871
11
13.8523658
21
3.0195871
0
LINE
8
DEFAULT_255_2_778
10
13.8523658
20
3.0195871
11
13.8523658
21
72.3895871
0
LINE
8
DEFAULT_255_2_778
10
13.8523658
20
72.3895871
11
14.3351658
21
72.3895871
0
LINE
8
DEFAULT_255_2_778
10
1.8365658
20
-0.1554129
11
1.8352658
21
-0.1144129
0
LINE
8
DEFAULT_255_2_778
10
2.3617658
20
-0.1189129
11
2.3630658
21
-0.1554129
0
LINE
8
DEFAULT_255_2_778
10
2.3630658
20
-0.1554129
11
1.8365658
21
-0.1554129
0
LINE
8
DEFAULT_255_2_778
10
14.0383658
20
1.4995871
11
14.2383658
21
1.4995871
0
LINE
8
DEFAULT_255_2_778
10
18.2833658
20
1.4995871
11
18.2833658
21
1.6495871
0
LINE
8
DEFAULT_255_2_778
10
18.8434658
20
0.3559871
11
18.8074658
21
0.3554871
0
LINE
8
DEFAULT_255_2_778
10
18.8074658
20
0.3554871
11
18.7614658
21
0.3546871
0
LINE
8
DEFAULT_255_2_778
10
18.7614658
20
0.3546871
11
18.6971658
21
0.3535871
0
LINE
8
DEFAULT_255_2_778
10
18.6971658
20
0.3535871
11
18.5349658
21
0.3506871
0
LINE
8
DEFAULT_255_2_778
10
18.5349658
20
0.3506871
11
18.3436658
21
0.3472871
0
LINE
8
DEFAULT_255_2_778
10
18.3436658
20
0.3472871
11
18.3436658
21
1.4995871
0
LINE
8
DEFAULT_255_2_778
10
18.3436658
20
1.4995871
11
14.2380658
21
1.4995871
0
LINE
8
DEFAULT_255_2_778
10
14.2380658
20
1.4995871
11
14.2380658
21
0.6994871
0
LINE
8
DEFAULT_255_2_778
10
14.2380658
20
0.6994871
11
12.5381658
21
0.6994871
0
LINE
8
DEFAULT_255_2_778
10
18.8429658
20
1.4600871
11
19.3429658
21
1.4600871
0
LINE
8
DEFAULT_255_2_778
10
19.3429658
20
1.4600871
11
22.2568658
21
1.4854871
0
LINE
8
DEFAULT_255_2_778
10
22.2568658
20
1.4854871
11
23.8427658
21
1.4854871
0
LINE
8
DEFAULT_255_2_778
10
23.8427658
20
1.4854871
11
23.8427658
21
72.9695871
0
LINE
8
DEFAULT_255_2_778
10
23.8427658
20
72.9695871
11
22.2568658
21
72.9695871
0
LINE
8
DEFAULT_255_2_778
10
11.1329658
20
0.3001871
11
12.0380658
21
0.2922871
0
LINE
8
DEFAULT_255_2_778
10
12.0380658
20
0.2922871
11
18.3431658
21
0.3472871
0
LINE
8
DEFAULT_255_2_778
10
10.6328658
20
0.3088871
11
10.6688658
21
0.3083871
0
LINE
8
DEFAULT_255_2_778
10
10.6688658
20
0.3083871
11
10.7149658
21
0.3075871
0
LINE
8
DEFAULT_255_2_778
10
10.7149658
20
0.3075871
11
10.7791658
21
0.3064871
0
LINE
8
DEFAULT_255_2_778
10
10.7791658
20
0.3064871
11
10.9413658
21
0.3035871
0
LINE
8
DEFAULT_255_2_778
10
10.9413658
20
0.3035871
11
11.1326658
21
0.3001871
0
LINE
8
DEFAULT_255_2_778
10
11.1326658
20
0.3001871
11
11.1326658
21
1.4995871
0
LINE
8
DEFAULT_255_2_778
10
11.1326658
20
1.4995871
11
14.0380658
21
1.4995871
0
LINE
8
DEFAULT_255_2_778
10
14.0380658
20
1.4995871
11
14.0380658
21
1.2256871
0
LINE
8
DEFAULT_255_2_778
10
10.6328658
20
1.4129871
11
10.1373658
21
1.4129871
0
LINE
8
DEFAULT_255_2_778
10
10.1373658
20
1.4129871
11
1.8193658
21
1.4857871
0
LINE
8
DEFAULT_255_2_778
10
1.8193658
20
1.4857871
11
0.2331658
21
1.4857871
0
LINE
8
DEFAULT_255_2_778
10
0.2331658
20
1.4857871
11
0.2331658
21
66.1086871
0
LINE
8
DEFAULT_255_2_778
10
0.2331658
20
66.1086871
11
0.4832658
21
66.1086871
0
LINE
8
DEFAULT_255_2_778
10
0.4832658
20
66.1086871
11
0.4832658
21
66.3586871
0
LINE
8
DEFAULT_255_2_778
10
0.4832658
20
66.3586871
11
1.8193658
21
66.3586871
0
LINE
8
DEFAULT_255_2_778
10
1.8249658
20
66.6086871
11
0.2331658
21
66.6086871
0
LINE
8
DEFAULT_255_2_778
10
23.8432658
20
73.4696871
11
22.2515658
21
73.4696871
0
LINE
8
DEFAULT_255_2_778
10
7.0924658
20
66.6086871
11
6.9877658
21
66.6086871
0
LINE
8
DEFAULT_255_2_778
10
23.8432658
20
95.8996871
11
20.5380658
21
95.8996871
0
LINE
8
DEFAULT_255_2_778
10
3.5380658
20
95.8996871
11
0.2331658
21
95.8996871
0
LINE
8
DEFAULT_255_2_778
10
12.8432658
20
73.4696871
11
12.8432658
21
72.3895871
0
LINE
8
DEFAULT_255_2_778
10
23.8432658
20
72.9695871
11
23.8432658
21
98.5788871
0
LINE
8
DEFAULT_255_2_778
10
19.3432658
20
3.0195871
11
19.3432658
21
1.4600871
0
LINE
8
DEFAULT_255_2_778
10
19.3432658
20
1.4600871
11
19.3440658
21
1.1354871
0
LINE
8
DEFAULT_255_2_778
10
19.3440658
20
1.1354871
11
19.3445658
21
0.8319871
0
LINE
8
DEFAULT_255_2_778
10
19.3445658
20
0.8319871
11
19.3450658
21
0.3287871
0
LINE
8
DEFAULT_255_2_778
10
19.3450658
20
0.3287871
11
19.3445658
21
-0.0115129
0
LINE
8
DEFAULT_255_2_778
10
19.3445658
20
-0.0115129
11
19.3440658
21
-0.1067129
0
LINE
8
DEFAULT_255_2_778
10
19.3440658
20
-0.1067129
11
19.3432658
21
-0.1401129
0
LINE
8
DEFAULT_255_2_778
10
19.3432658
20
-0.1401129
11
22.2570658
21
-0.1147129
0
LINE
8
DEFAULT_255_2_778
10
22.2570658
20
1.4852871
11
22.2570658
21
72.9695871
0
LINE
8
DEFAULT_255_2_778
10
22.2570658
20
72.9695871
11
19.3432658
21
72.9695871
0
LINE
8
DEFAULT_255_2_778
10
9.5383658
20
73.4696871
11
9.5383658
21
73.2185871
0
LINE
8
DEFAULT_255_2_778
10
0.2331658
20
98.5788871
11
0.2331658
21
66.1086871
0
LINE
8
DEFAULT_255_2_778
10
10.6347658
20
3.0198871
11
10.6347658
21
1.4132871
0
LINE
8
DEFAULT_255_2_778
10
10.6347658
20
1.4132871
11
10.6347658
21
0.9907871
0
LINE
8
DEFAULT_255_2_778
10
10.6347658
20
0.9907871
11
10.6347658
21
0.6324871
0
LINE
8
DEFAULT_255_2_778
10
10.6347658
20
0.6324871
11
10.6347658
21
0.3930871
0
LINE
8
DEFAULT_255_2_778
10
10.6347658
20
0.3930871
11
10.6347658
21
0.3088871
0
LINE
8
DEFAULT_255_2_778
10
10.6347658
20
0.3088871
11
10.1391658
21
-0.1866129
0
LINE
8
DEFAULT_255_2_778
10
10.1391658
20
-0.1866129
11
10.1383658
21
-0.1533129
0
LINE
8
DEFAULT_255_2_778
10
10.1383658
20
-0.1533129
11
10.1378658
21
-0.0580129
0
LINE
8
DEFAULT_255_2_778
10
10.1378658
20
-0.0580129
11
10.1373658
21
0.2821871
0
LINE
8
DEFAULT_255_2_778
10
10.1373658
20
0.2821871
11
10.1378658
21
0.7853871
0
LINE
8
DEFAULT_255_2_778
10
10.1378658
20
0.7853871
11
10.1383658
21
1.0888871
0
LINE
8
DEFAULT_255_2_778
10
10.1383658
20
1.0888871
11
10.1391658
21
1.4137871
0
LINE
8
DEFAULT_255_2_778
10
10.1391658
20
1.4137871
11
10.1391658
21
3.0203871
0
LINE
8
DEFAULT_255_2_778
10
10.1373658
20
73.2193871
11
10.6328658
21
73.2193871
0
LINE
8
DEFAULT_255_2_778
10
10.6328658
20
73.2193871
11
10.6328658
21
72.3903871
0
LINE
8
DEFAULT_255_2_778
10
18.8431658
20
3.0203871
11
18.8431658
21
1.4608871
0
LINE
8
DEFAULT_255_2_778
10
18.8431658
20
1.4608871
11
18.8431658
21
1.0383871
0
LINE
8
DEFAULT_255_2_778
10
18.8431658
20
1.0383871
11
18.8431658
21
0.6800871
0
LINE
8
DEFAULT_255_2_778
10
18.8431658
20
0.6800871
11
18.8431658
21
0.4406871
0
LINE
8
DEFAULT_255_2_778
10
18.8431658
20
0.4406871
11
18.8431658
21
0.3565871
0
LINE
8
DEFAULT_255_2_778
10
18.8431658
20
0.3565871
11
19.3432658
21
-0.1390129
0
LINE
8
DEFAULT_255_2_778
10
19.3432658
20
-0.1390129
11
19.2675658
21
-0.1395129
0
LINE
8
DEFAULT_255_2_778
10
19.2675658
20
-0.1395129
11
19.0516658
21
-0.1414129
0
LINE
8
DEFAULT_255_2_778
10
19.0516658
20
-0.1414129
11
18.7286658
21
-0.1443129
0
LINE
8
DEFAULT_255_2_778
10
18.7286658
20
-0.1443129
11
18.3476658
21
-0.1477129
0
LINE
8
DEFAULT_255_2_778
10
18.3476658
20
-0.1477129
11
12.0383658
21
-0.2028129
0
LINE
8
DEFAULT_255_2_778
10
12.0383658
20
-0.2028129
11
11.1287658
21
-0.1948129
0
LINE
8
DEFAULT_255_2_778
10
11.1287658
20
-0.1948129
11
10.7493658
21
-0.1914129
0
LINE
8
DEFAULT_255_2_778
10
10.7493658
20
-0.1914129
11
10.4275658
21
-0.1885129
0
LINE
8
DEFAULT_255_2_778
10
10.4275658
20
-0.1885129
11
10.2127658
21
-0.1866129
0
LINE
8
DEFAULT_255_2_778
10
10.2127658
20
-0.1866129
11
10.1373658
21
-0.1861129
0
LINE
8
DEFAULT_255_2_778
10
10.1373658
20
-0.1861129
11
1.8193658
21
-0.1141129
0
LINE
8
DEFAULT_255_2_778
10
1.8193658
20
-0.1141129
11
1.8193658
21
1.4857871
0
LINE
8
DEFAULT_255_2_778
10
1.8193658
20
1.4857871
11
1.8193658
21
66.3586871
0
LINE
8
DEFAULT_255_2_778
10
1.8193658
20
66.3586871
11
7.1329658
21
66.3586871
0
LINE
8
DEFAULT_255_2_778
10
7.1329658
20
66.3586871
11
7.1329658
21
73.2187871
0
LINE
8
DEFAULT_255_2_778
10
7.1329658
20
73.2187871
11
10.1373658
21
73.2187871
0
LINE
8
DEFAULT_255_2_778
10
10.1373658
20
73.2187871
11
10.1373658
21
72.3898871
0
LINE
8
DEFAULT_255_2_778
10
18.2031658
20
72.3898871
11
18.2031658
21
73.4698871
0
LINE
8
DEFAULT_255_2_778
10
18.8190658
20
1.6497871
11
18.2031658
21
1.6497871
0
LINE
8
DEFAULT_255_2_778
10
18.2031658
20
1.6497871
11
18.2031658
21
3.0198871
0
LINE
8
DEFAULT_255_2_778
10
13.8523658
20
72.3895871
11
12.8530658
21
72.3895871
0
LINE
8
DEFAULT_255_2_778
10
12.8530658
20
72.3895871
11
12.8530658
21
70.3578871
0
ENDSEC
0
EOF