0
SECTION
2
HEADER
9
$MEASUREMENT
70
1
0
ENDSEC
0
SECTION
2
TABLES
0
TABLE
2
LTYPE
0
LTYPE
72
65
70
64
2
CONTINUOUS
3
______
73
0
40
0
0
ENDTAB
0
TABLE
2
LAYER
0
LAYER
2
DEFAULT_255_2_778
70
0
62
255
6
CONTINUOUS
0
ENDTAB
0
ENDSEC
0
SECTION
2
ENTITIES
0
ARC
8
DEFAULT_255_2_778
10
3.4397366
20
70.2447992
40
0.5179492
50
225.0162387
51
270.006464
0
ARC
8
DEFAULT_255_2_778
10
3.4399435
20
70.2445912
40
0.5179484
50
179.9934885
51
224.983778
0
ARC
8
DEFAULT_255_2_778
10
3.4396126
20
70.2446677
40
0.3321176
50
180.0030407
51
269.9969593
0
ARC
8
DEFAULT_255_2_778
10
3.4395531
20
70.2446083
40
0.1322583
50
179.981913
51
270.0181519
0
ARC
8
DEFAULT_255_2_778
10
4.8394728
20
70.2446723
40
0.1323222
50
270.0096117
51
359.9903883
0
ARC
8
DEFAULT_255_2_778
10
4.8393986
20
70.2446465
40
0.3320965
50
270.0166307
51
0.0006123
0
ARC
8
DEFAULT_255_2_778
10
4.8394201
20
71.644475
40
0.3320749
50
0.0129581
51
89.98708
0
ARC
8
DEFAULT_255_2_778
10
3.4395912
20
71.6444538
40
0.3320963
50
89.99934
51
179.983384
0
ARC
8
DEFAULT_255_2_778
10
3.4399429
20
71.6446091
40
0.5179479
50
135.0161818
51
180.0065257
0
ARC
8
DEFAULT_255_2_778
10
3.4397366
20
71.6444009
40
0.5179492
50
89.993536
51
134.9837613
0
ARC
8
DEFAULT_255_2_778
10
5.0256994
20
71.8305037
40
0.5000956
50
0.0053149
51
45.0041129
0
ARC
8
DEFAULT_255_2_778
10
5.0259326
20
71.8308987
40
0.4996515
50
44.9909954
51
90.0272389
0
ARC
8
DEFAULT_255_2_778
10
3.2537015
20
71.8305507
40
0.4999994
50
89.9892894
51
134.9924763
0
ARC
8
DEFAULT_255_2_778
10
3.2537944
20
71.8306435
40
0.4999994
50
135.0075237
51
180.0107106
0
ARC
8
DEFAULT_255_2_778
10
3.2538706
20
70.0586256
40
0.5000756
50
179.997196
51
269.9913436
0
ARC
8
DEFAULT_255_2_778
10
5.0256981
20
70.058647
40
0.5000969
50
269.9996485
51
0.0003515
0
ARC
8
DEFAULT_255_2_778
10
4.8395476
20
71.6446091
40
0.5179475
50
359.9934649
51
44.9838451
0
ARC
8
DEFAULT_255_2_778
10
4.8398257
20
71.6445755
40
0.5177746
50
45.0082342
51
90.0144591
0
ARC
8
DEFAULT_255_2_778
10
4.8398257
20
70.2446246
40
0.5177746
50
269.9855409
51
314.9917658
0
ARC
8
DEFAULT_255_2_778
10
4.8395469
20
70.2445914
40
0.5179483
50
315.0161715
51
0.0064876
0
ARC
8
DEFAULT_255_2_778
10
4.8396729
20
71.644528
40
0.1323221
50
0.0095594
51
89.99041
0
ARC
8
DEFAULT_255_2_778
10
3.4398812
20
71.6444639
40
0.1323862
50
90.0373061
51
179.9626939
0
LINE
8
DEFAULT_255_2_778
10
3.439795
20
69.5585501
11
3.439795
21
69.7268501
0
LINE
8
DEFAULT_255_2_778
10
3.439795
20
69.7268501
11
4.839695
21
69.7268501
0
LINE
8
DEFAULT_255_2_778
10
4.839695
20
69.7268501
11
4.839695
21
69.9123501
0
LINE
8
DEFAULT_255_2_778
10
4.839695
20
69.9123501
11
3.439795
21
69.9123501
0
LINE
8
DEFAULT_255_2_778
10
3.439795
20
69.9123501
11
3.439795
21
69.7268501
0
LINE
8
DEFAULT_255_2_778
10
2.921995
20
70.2446501
11
3.107495
21
70.2446501
0
LINE
8
DEFAULT_255_2_778
10
3.439595
20
69.9125501
11
3.439595
21
70.1123501
0
LINE
8
DEFAULT_255_2_778
10
3.307295
20
70.2446501
11
3.107495
21
70.2446501
0
LINE
8
DEFAULT_255_2_778
10
3.107495
20
70.2446501
11
3.107495
21
71.6445501
0
LINE
8
DEFAULT_255_2_778
10
3.107495
20
71.6445501
11
3.307295
21
71.6445501
0
LINE
8
DEFAULT_255_2_778
10
2.753495
20
71.6445501
11
2.921795
21
71.6445501
0
LINE
8
DEFAULT_255_2_778
10
2.921795
20
71.6445501
11
2.921795
21
70.2446501
0
LINE
8
DEFAULT_255_2_778
10
2.921795
20
70.2446501
11
2.753495
21
70.2446501
0
LINE
8
DEFAULT_255_2_778
10
4.839495
20
70.1123501
11
4.839495
21
69.9125501
0
LINE
8
DEFAULT_255_2_778
10
5.171495
20
70.2446501
11
5.356995
21
70.2446501
0
LINE
8
DEFAULT_255_2_778
10
5.356995
20
70.2446501
11
5.356995
21
71.6445501
0
LINE
8
DEFAULT_255_2_778
10
5.356995
20
71.6445501
11
5.171495
21
71.6445501
0
LINE
8
DEFAULT_255_2_778
10
4.839495
20
71.9765501
11
4.839495
21
72.1620501
0
LINE
8
DEFAULT_255_2_778
10
4.839495
20
72.1620501
11
3.439595
21
72.1620501
0
LINE
8
DEFAULT_255_2_778
10
3.439595
20
72.1620501
11
3.439595
21
71.9765501
0
LINE
8
DEFAULT_255_2_778
10
3.107495
20
71.6445501
11
2.921995
21
71.6445501
0
LINE
8
DEFAULT_255_2_778
10
3.439795
20
72.1623501
11
3.439795
21
72.3305501
0
LINE
8
DEFAULT_255_2_778
10
3.439795
20
71.7768501
11
3.439795
21
71.9765501
0
LINE
8
DEFAULT_255_2_778
10
3.439795
20
71.9765501
11
4.839695
21
71.9765501
0
LINE
8
DEFAULT_255_2_778
10
4.839695
20
71.9765501
11
4.839695
21
71.7768501
0
LINE
8
DEFAULT_255_2_778
10
5.525795
20
70.0586501
11
5.525795
21
71.8305501
0
LINE
8
DEFAULT_255_2_778
10
5.025695
20
72.3305501
11
3.253795
21
72.3305501
0
LINE
8
DEFAULT_255_2_778
10
2.753795
20
71.8305501
11
2.753795
21
70.0586501
0
LINE
8
DEFAULT_255_2_778
10
3.253795
20
69.5585501
11
5.025695
21
69.5585501
0
LINE
8
DEFAULT_255_2_778
10
5.525795
20
70.0586501
11
5.525795
21
70.0586501
0
LINE
8
DEFAULT_255_2_778
10
5.525795
20
71.6445501
11
5.357495
21
71.6445501
0
LINE
8
DEFAULT_255_2_778
10
4.839695
20
72.1623501
11
4.839695
21
72.3305501
0
LINE
8
DEFAULT_255_2_778
10
4.839695
20
69.5585501
11
4.839695
21
69.7268501
0
LINE
8
DEFAULT_255_2_778
10
5.357495
20
70.2446501
11
5.525795
21
70.2446501
0
LINE
8
DEFAULT_255_2_778
10
4.971995
20
71.6445501
11
4.971995
21
70.2446501
0
LINE
8
DEFAULT_255_2_778
10
4.971995
20
70.2446501
11
5.171795
21
70.2446501
0
LINE
8
DEFAULT_255_2_778
10
5.171795
20
70.2446501
11
5.171795
21
71.6445501
0
LINE
8
DEFAULT_255_2_778
10
5.171795
20
71.6445501
11
4.971995
21
71.6445501
0
LINE
8
DEFAULT_255_2_778
10
4.839695
20
71.7768501
11
3.439795
21
71.7768501
0
LINE
8
DEFAULT_255_2_778
10
3.307495
20
71.6445501
11
3.307495
21
70.2446501
0
LINE
8
DEFAULT_255_2_778
10
11.207195
20
3.1407501
11
11.207195
21
72.4758501
0
LINE
8
DEFAULT_255_2_778
10
11.207195
20
72.4758501
11
18.207295
21
72.4758501
0
LINE
8
DEFAULT_255_2_778
10
18.207295
20
72.4758501
11
18.207295
21
3.1407501
0
LINE
8
DEFAULT_255_2_778
10
18.207295
20
3.1407501
11
11.207195
21
3.1407501
0
LINE
8
DEFAULT_255_2_778
10
18.207295
20
72.3057501
11
18.847295
21
72.3057501
0
LINE
8
DEFAULT_255_2_778
10
18.187195
20
3.1407501
11
18.187195
21
2.8081501
0
LINE
8
DEFAULT_255_2_778
10
14.60735
20
69.77545
11
14.60735
21
70.57555
0
LINE
8
DEFAULT_255_2_778
10
13.80725
20
70.57555
11
14.60735
21
70.57555
0
LINE
8
DEFAULT_255_2_778
10
14.60735
20
70.57555
11
14.40735
21
70.37555
0
LINE
8
DEFAULT_255_2_778
10
14.00725
20
69.97545
11
14.00725
21
70.37555
0
LINE
8
DEFAULT_255_2_778
10
14.00725
20
70.37555
11
13.80725
21
70.57555
0
LINE
8
DEFAULT_255_2_778
10
13.80725
20
70.57555
11
13.80725
21
69.77545
0
LINE
8
DEFAULT_255_2_778
10
14.00725
20
70.37555
11
14.40735
21
70.37555
0
LINE
8
DEFAULT_255_2_778
10
14.40735
20
70.37555
11
14.40735
21
69.97545
0
LINE
8
DEFAULT_255_2_778
10
14.40735
20
69.97545
11
14.00725
21
69.97545
0
LINE
8
DEFAULT_255_2_778
10
14.00725
20
69.97545
11
13.80725
21
69.77545
0
LINE
8
DEFAULT_255_2_778
10
13.80725
20
69.77545
11
14.60735
21
69.77545
0
LINE
8
DEFAULT_255_2_778
10
14.60735
20
69.77545
11
14.40735
21
69.97545
0
ARC
8
DEFAULT_255_2_778
10
14.2059266
20
70.1788743
40
0.9518399
50
89.9342583
51
133.7047102
0
ARC
8
DEFAULT_255_2_778
10
14.2044445
20
70.1768084
40
0.9523126
50
133.5543693
51
179.2942307
0
ARC
8
DEFAULT_255_2_778
10
14.2284541
20
70.1756241
40
0.9763352
50
179.2420891
51
179.9888833
0
ARC
8
DEFAULT_255_2_778
10
14.2039884
20
70.1745215
40
0.9518705
50
179.9222319
51
223.6974643
0
ARC
8
DEFAULT_255_2_778
10
14.206004
20
70.1730222
40
0.9522953
50
223.5484627
51
269.2952673
0
ARC
8
DEFAULT_255_2_778
10
14.2072082
20
70.1974172
40
0.9767036
50
269.2422322
51
269.9888854
0
ARC
8
DEFAULT_255_2_778
10
14.2081292
20
70.1725407
40
0.9518278
50
269.9331572
51
313.7101323
0
ARC
8
DEFAULT_255_2_778
10
14.2095702
20
70.174616
40
0.9523353
50
313.561186
51
359.3062903
0
ARC
8
DEFAULT_255_2_778
10
14.1851728
20
70.1758191
40
0.9767459
50
359.2530517
51
359.9996728
0
ARC
8
DEFAULT_255_2_778
10
14.2097801
20
70.1767455
40
0.9521392
50
359.9439188
51
43.7008347
0
ARC
8
DEFAULT_255_2_778
10
14.2080219
20
70.1784964
40
0.9522038
50
43.5515746
51
89.2946434
0
ARC
8
DEFAULT_255_2_778
10
14.2068293
20
70.1543797
40
0.9763338
50
89.2420892
51
89.9888834
0
LINE
8
DEFAULT_255_2_778
10
14.2070188
20
71.1307135
11
14.2070188
21
71.1307135
0
ARC
8
DEFAULT_255_2_778
10
10.6038748
20
70.1743218
40
1.583313
50
325.409634
51
349.0876178
0
ARC
8
DEFAULT_255_2_778
10
10.5985981
20
70.1753311
40
1.5886852
50
349.087902
51
0.0017319
0
LINE
8
DEFAULT_255_2_778
10
12.1872834
20
70.1753791
11
12.1872834
21
70.1756497
0
ARC
8
DEFAULT_255_2_778
10
10.6024962
20
70.1758966
40
1.5847872
50
359.9910752
51
29.8726772
0
ARC
8
DEFAULT_255_2_778
10
10.5958839
20
70.171866
40
1.5925286
50
29.8799312
51
34.5647411
0
ARC
8
DEFAULT_255_2_778
10
16.5070172
20
70.8250754
40
0.2000088
50
180.0025239
51
269.997482
0
ARC
8
DEFAULT_255_2_778
10
16.8067599
20
70.8262894
40
0.2012231
50
270.0992443
51
314.8239788
0
ARC
8
DEFAULT_255_2_778
10
16.8080206
20
70.8245323
40
0.1990886
50
314.9231062
51
0.1537693
0
ARC
8
DEFAULT_255_2_778
10
16.8070994
20
69.5246578
40
0.200009
50
0.0025382
51
89.9974272
0
ARC
8
DEFAULT_255_2_778
10
16.5070173
20
69.5246579
40
0.2000087
50
90.0025383
51
179.9974963
0
ARC
8
DEFAULT_255_2_778
10
10.6004421
20
70.174411
40
1.4864166
50
331.5224689
51
0.0079267
0
ARC
8
DEFAULT_255_2_778
10
10.6004421
20
70.1748231
40
1.4864163
50
359.992042
51
28.4775044
0
ARC
8
DEFAULT_255_2_778
10
13.9066937
20
71.9708915
40
0.2997853
50
134.9743446
51
180.023866
0
ARC
8
DEFAULT_255_2_778
10
13.9067734
20
71.9710057
40
0.2997609
50
89.9550836
51
135.0005536
0
ARC
8
DEFAULT_255_2_778
10
15.306999
20
71.9706568
40
0.3001098
50
45.0270485
51
90.0172913
0
ARC
8
DEFAULT_255_2_778
10
15.3067988
20
71.9708573
40
0.3001095
50
359.9826815
51
44.972961
0
LINE
8
DEFAULT_255_2_778
10
16.3073084
20
69.2206666
11
14.2073084
21
69.2206666
0
LINE
8
DEFAULT_255_2_778
10
14.2073084
20
69.2206666
11
12.7074084
21
69.2206666
0
LINE
8
DEFAULT_255_2_778
10
12.7074084
20
69.2206666
11
12.7074084
21
71.1306666
0
LINE
8
DEFAULT_255_2_778
10
12.7074084
20
71.1306666
11
14.2073084
21
71.1306666
0
LINE
8
DEFAULT_255_2_778
10
14.2073084
20
71.1306666
11
16.3073084
21
71.1306666
0
LINE
8
DEFAULT_255_2_778
10
15.6072084
20
71.8558666
11
15.6072084
21
71.8487666
0
LINE
8
DEFAULT_255_2_778
10
15.6072084
20
71.8487666
11
13.6072084
21
71.8487666
0
LINE
8
DEFAULT_255_2_778
10
13.6072084
20
71.8487666
11
13.6072084
21
71.8558666
0
LINE
8
DEFAULT_255_2_778
10
17.6072084
20
70.5753666
11
17.4572084
21
70.5753666
0
LINE
8
DEFAULT_255_2_778
10
17.4572084
20
70.5753666
11
17.4572084
21
69.7752666
0
LINE
8
DEFAULT_255_2_778
10
17.4572084
20
69.7752666
11
17.6072084
21
69.7752666
0
LINE
8
DEFAULT_255_2_778
10
17.6072084
20
69.4251666
11
17.3071084
21
69.4251666
0
LINE
8
DEFAULT_255_2_778
10
17.3071084
20
69.4251666
11
17.3071084
21
68.8695666
0
LINE
8
DEFAULT_255_2_778
10
17.3071084
20
71.4807666
11
17.3071084
21
70.9250666
0
LINE
8
DEFAULT_255_2_778
10
17.3071084
20
70.9250666
11
17.6072084
21
70.9250666
0
LINE
8
DEFAULT_255_2_778
10
17.3971084
20
69.4251666
11
17.3971084
21
70.9250666
0
LINE
8
DEFAULT_255_2_778
10
16.3070084
20
70.8750666
11
16.3070084
21
70.8250666
0
LINE
8
DEFAULT_255_2_778
10
16.5070084
20
70.6250666
11
16.8071084
21
70.6250666
0
LINE
8
DEFAULT_255_2_778
10
17.0071084
20
70.8250666
11
17.0071084
21
71.3714666
0
LINE
8
DEFAULT_255_2_778
10
17.0071084
20
71.3714666
11
17.6072084
21
71.5897666
0
LINE
8
DEFAULT_255_2_778
10
17.6072084
20
71.5897666
11
17.6072084
21
68.7599666
0
LINE
8
DEFAULT_255_2_778
10
17.6072084
20
68.7599666
11
17.0071084
21
68.9782666
0
LINE
8
DEFAULT_255_2_778
10
17.0071084
20
68.9782666
11
17.0071084
21
69.5246666
0
LINE
8
DEFAULT_255_2_778
10
16.8071084
20
69.7246666
11
16.5070084
21
69.7246666
0
LINE
8
DEFAULT_255_2_778
10
16.3070084
20
69.5246666
11
16.3070084
21
69.4746666
0
LINE
8
DEFAULT_255_2_778
10
16.3070084
20
69.4746666
11
16.3070084
21
68.4946666
0
LINE
8
DEFAULT_255_2_778
10
16.3070084
20
68.4946666
11
11.9070084
21
68.4946666
0
LINE
8
DEFAULT_255_2_778
10
11.9070084
20
68.4946666
11
11.9070084
21
69.4656666
0
LINE
8
DEFAULT_255_2_778
10
11.9070084
20
70.8835666
11
11.9070084
21
71.8548666
0
LINE
8
DEFAULT_255_2_778
10
11.9070084
20
71.8548666
11
13.6069084
21
71.8548666
0
LINE
8
DEFAULT_255_2_778
10
13.6069084
20
71.8548666
11
13.6069084
21
71.9707666
0
LINE
8
DEFAULT_255_2_778
10
13.9070084
20
72.2707666
11
15.3069084
21
72.2707666
0
LINE
8
DEFAULT_255_2_778
10
15.6069084
20
71.9707666
11
15.6069084
21
71.8548666
0
LINE
8
DEFAULT_255_2_778
10
15.6069084
20
71.8548666
11
16.3070084
21
71.8548666
0
LINE
8
DEFAULT_255_2_778
10
16.3070084
20
71.8548666
11
16.3070084
21
70.8750666
0
LINE
8
DEFAULT_255_2_778
10
14.00725
20
62.76085
11
14.40735
21
62.76085
0
LINE
8
DEFAULT_255_2_778
10
14.40735
20
62.76085
11
14.40735
21
62.36075
0
LINE
8
DEFAULT_255_2_778
10
14.40735
20
62.36075
11
14.00725
21
62.36075
0
LINE
8
DEFAULT_255_2_778
10
14.00725
20
62.36075
11
13.80725
21
62.16075
0
LINE
8
DEFAULT_255_2_778
10
13.80725
20
62.16075
11
14.60735
21
62.16075
0
LINE
8
DEFAULT_255_2_778
10
14.60735
20
62.16075
11
14.40735
21
62.36075
0
LINE
8
DEFAULT_255_2_778
10
14.00725
20
62.36075
11
14.00725
21
62.76085
0
LINE
8
DEFAULT_255_2_778
10
14.00725
20
62.76085
11
13.80725
21
62.96085
0
LINE
8
DEFAULT_255_2_778
10
13.80725
20
62.96085
11
13.80725
21
62.16075
0
LINE
8
DEFAULT_255_2_778
10
13.80725
20
62.96085
11
14.60735
21
62.96085
0
LINE
8
DEFAULT_255_2_778
10
14.60735
20
62.96085
11
14.40735
21
62.76085
0
LINE
8
DEFAULT_255_2_778
10
14.60735
20
62.16075
11
14.60735
21
62.96085
0
ARC
8
DEFAULT_255_2_778
10
14.2061274
20
62.5580199
40
0.9521392
50
226.2991653
51
270.0560812
0
ARC
8
DEFAULT_255_2_778
10
14.2043765
20
62.5597781
40
0.9522038
50
180.7053566
51
226.4484254
0
ARC
8
DEFAULT_255_2_778
10
14.2284932
20
62.5609707
40
0.9763338
50
180.0111166
51
180.7579108
0
ARC
8
DEFAULT_255_2_778
10
14.2039986
20
62.5618734
40
0.9518399
50
136.2952898
51
180.0657417
0
ARC
8
DEFAULT_255_2_778
10
14.2060645
20
62.5633555
40
0.9523126
50
90.7057693
51
136.4456307
0
ARC
8
DEFAULT_255_2_778
10
14.2072488
20
62.5393459
40
0.9763352
50
90.0111167
51
90.7579109
0
ARC
8
DEFAULT_255_2_778
10
14.2080001
20
62.5579075
40
0.9520267
50
269.9433838
51
313.7035481
0
ARC
8
DEFAULT_255_2_778
10
14.2094594
20
62.5599332
40
0.9524861
50
313.5558972
51
359.2855223
0
ARC
8
DEFAULT_255_2_778
10
14.1856663
20
62.5611545
40
0.9762931
50
359.2312676
51
359.9780939
0
ARC
8
DEFAULT_255_2_778
10
14.2098207
20
62.5617132
40
0.9521392
50
359.9439188
51
43.7008347
0
ARC
8
DEFAULT_255_2_778
10
14.2080625
20
62.5634641
40
0.9522038
50
43.5515746
51
89.2946434
0
ARC
8
DEFAULT_255_2_778
10
14.20687
20
62.5393474
40
0.9763338
50
89.2420892
51
89.9888834
0
ARC
8
DEFAULT_255_2_778
10
10.6034431
20
62.5599725
40
1.5837509
50
325.4141696
51
349.0879389
0
ARC
8
DEFAULT_255_2_778
10
10.5984058
20
62.560926
40
1.5888776
50
349.088563
51
0.0016543
0
ARC
8
DEFAULT_255_2_778
10
10.6024789
20
62.5614975
40
1.5848046
50
359.9809943
51
29.8711571
0
ARC
8
DEFAULT_255_2_778
10
10.5959648
20
62.5575235
40
1.5924324
50
29.8784147
51
34.5648449
0
ARC
8
DEFAULT_255_2_778
10
16.5074291
20
61.6593739
40
0.2013984
50
90.1196889
51
134.8034217
0
ARC
8
DEFAULT_255_2_778
10
16.5063277
20
61.6612101
40
0.1993201
50
134.9507267
51
180.1547252
0
ARC
8
DEFAULT_255_2_778
10
10.6004421
20
62.5605162
40
1.4864166
50
331.5224689
51
0.0079267
0
ARC
8
DEFAULT_255_2_778
10
10.6004421
20
62.5609283
40
1.4864163
50
359.992042
51
28.4775044
0
ARC
8
DEFAULT_255_2_778
10
16.5070172
20
63.4606806
40
0.2000088
50
180.0025239
51
269.997482
0
ARC
8
DEFAULT_255_2_778
10
16.8070995
20
63.4606808
40
0.2000089
50
270.0025627
51
359.9974373
0
ARC
8
DEFAULT_255_2_778
10
16.8071635
20
61.6602269
40
0.1999449
50
359.9842058
51
90.0157942
0
LINE
8
DEFAULT_255_2_778
10
16.3073084
20
61.6059718
11
14.2073084
21
61.6059718
0
LINE
8
DEFAULT_255_2_778
10
14.2073084
20
61.6059718
11
12.7074084
21
61.6059718
0
LINE
8
DEFAULT_255_2_778
10
12.7074084
20
61.6059718
11
12.7074084
21
63.5159718
0
LINE
8
DEFAULT_255_2_778
10
12.7074084
20
63.5159718
11
14.2073084
21
63.5159718
0
LINE
8
DEFAULT_255_2_778
10
14.2073084
20
63.5159718
11
16.3073084
21
63.5159718
0
LINE
8
DEFAULT_255_2_778
10
17.6072084
20
62.9608718
11
17.4572084
21
62.9608718
0
LINE
8
DEFAULT_255_2_778
10
17.4572084
20
62.9608718
11
17.4572084
21
62.1607718
0
LINE
8
DEFAULT_255_2_778
10
17.4572084
20
62.1607718
11
17.6072084
21
62.1607718
0
LINE
8
DEFAULT_255_2_778
10
17.6072084
20
61.8107718
11
17.3071084
21
61.8107718
0
LINE
8
DEFAULT_255_2_778
10
17.3071084
20
61.8107718
11
17.3071084
21
61.2550718
0
LINE
8
DEFAULT_255_2_778
10
17.3071084
20
63.8662718
11
17.3071084
21
63.3106718
0
LINE
8
DEFAULT_255_2_778
10
17.3071084
20
63.3106718
11
17.6072084
21
63.3106718
0
LINE
8
DEFAULT_255_2_778
10
17.3971084
20
61.8107718
11
17.3971084
21
63.3106718
0
LINE
8
DEFAULT_255_2_778
10
16.3070084
20
61.6606718
11
16.3070084
21
60.8807718
0
LINE
8
DEFAULT_255_2_778
10
16.3070084
20
60.8807718
11
11.9070084
21
60.8807718
0
LINE
8
DEFAULT_255_2_778
10
11.9070084
20
60.8807718
11
11.9070084
21
61.8517718
0
LINE
8
DEFAULT_255_2_778
10
11.9070084
20
63.2696718
11
11.9070084
21
64.2406718
0
LINE
8
DEFAULT_255_2_778
10
11.9070084
20
64.2406718
11
16.3070084
21
64.2406718
0
LINE
8
DEFAULT_255_2_778
10
16.3070084
20
64.2406718
11
16.3070084
21
63.4606718
0
LINE
8
DEFAULT_255_2_778
10
16.5070084
20
63.2606718
11
16.8071084
21
63.2606718
0
LINE
8
DEFAULT_255_2_778
10
17.0071084
20
63.4606718
11
17.0071084
21
63.7569718
0
LINE
8
DEFAULT_255_2_778
10
17.0071084
20
63.7569718
11
17.6072084
21
63.9752718
0
LINE
8
DEFAULT_255_2_778
10
17.6072084
20
63.9752718
11
17.6072084
21
61.1455718
0
LINE
8
DEFAULT_255_2_778
10
17.6072084
20
61.1455718
11
17.0071084
21
61.3638718
0
LINE
8
DEFAULT_255_2_778
10
17.0071084
20
61.3638718
11
17.0071084
21
61.6601718
0
LINE
8
DEFAULT_255_2_778
10
16.8071084
20
61.8601718
11
16.5070084
21
61.8607718
0
LINE
8
DEFAULT_255_2_778
10
14.00725
20
58.95085
11
14.40735
21
58.95085
0
LINE
8
DEFAULT_255_2_778
10
14.40735
20
58.95085
11
14.40735
21
58.55075
0
LINE
8
DEFAULT_255_2_778
10
14.40735
20
58.55075
11
14.00725
21
58.55075
0
LINE
8
DEFAULT_255_2_778
10
14.00725
20
58.55075
11
13.80725
21
58.35075
0
LINE
8
DEFAULT_255_2_778
10
13.80725
20
58.35075
11
14.60735
21
58.35075
0
LINE
8
DEFAULT_255_2_778
10
14.60735
20
58.35075
11
14.40735
21
58.55075
0
LINE
8
DEFAULT_255_2_778
10
14.00725
20
58.55075
11
14.00725
21
58.95085
0
LINE
8
DEFAULT_255_2_778
10
14.00725
20
58.95085
11
13.80725
21
59.15085
0
LINE
8
DEFAULT_255_2_778
10
13.80725
20
59.15085
11
13.80725
21
58.35075
0
LINE
8
DEFAULT_255_2_778
10
13.80725
20
59.15085
11
14.60735
21
59.15085
0
LINE
8
DEFAULT_255_2_778
10
14.60735
20
59.15085
11
14.40735
21
58.95085
0
LINE
8
DEFAULT_255_2_778
10
14.60735
20
58.35075
11
14.60735
21
59.15085
0
ARC
8
DEFAULT_255_2_778
10
14.2061274
20
58.7480199
40
0.9521392
50
226.2991653
51
270.0560812
0
ARC
8
DEFAULT_255_2_778
10
14.2043765
20
58.7497781
40
0.9522038
50
180.7053566
51
226.4484254
0
ARC
8
DEFAULT_255_2_778
10
14.2284932
20
58.7509707
40
0.9763338
50
180.0111166
51
180.7579108
0
ARC
8
DEFAULT_255_2_778
10
14.2039986
20
58.7518734
40
0.9518399
50
136.2952898
51
180.0657417
0
ARC
8
DEFAULT_255_2_778
10
14.2060645
20
58.7533555
40
0.9523126
50
90.7057693
51
136.4456307
0
ARC
8
DEFAULT_255_2_778
10
14.2072488
20
58.7293459
40
0.9763352
50
90.0111167
51
90.7579109
0
ARC
8
DEFAULT_255_2_778
10
14.2080001
20
58.7479075
40
0.9520267
50
269.9433838
51
313.7035481
0
ARC
8
DEFAULT_255_2_778
10
14.2094594
20
58.7499332
40
0.9524861
50
313.5558972
51
359.2855223
0
ARC
8
DEFAULT_255_2_778
10
14.1856663
20
58.7511545
40
0.9762931
50
359.2312676
51
359.9780939
0
ARC
8
DEFAULT_255_2_778
10
14.2098207
20
58.7517132
40
0.9521392
50
359.9439188
51
43.7008347
0
ARC
8
DEFAULT_255_2_778
10
14.2080625
20
58.7534641
40
0.9522038
50
43.5515746
51
89.2946434
0
ARC
8
DEFAULT_255_2_778
10
14.20687
20
58.7293474
40
0.9763338
50
89.2420892
51
89.9888834
0
ARC
8
DEFAULT_255_2_778
10
10.6034431
20
58.7499725
40
1.5837509
50
325.4141696
51
349.0879389
0
ARC
8
DEFAULT_255_2_778
10
10.5984058
20
58.750926
40
1.5888776
50
349.088563
51
0.0016543
0
ARC
8
DEFAULT_255_2_778
10
10.6024789
20
58.7514975
40
1.5848046
50
359.9809943
51
29.8711571
0
ARC
8
DEFAULT_255_2_778
10
10.5959648
20
58.7475235
40
1.5924324
50
29.8784147
51
34.5648449
0
ARC
8
DEFAULT_255_2_778
10
16.5074291
20
57.8493739
40
0.2013984
50
90.1196889
51
134.8034217
0
ARC
8
DEFAULT_255_2_778
10
16.5063277
20
57.8512101
40
0.1993201
50
134.9507267
51
180.1547252
0
ARC
8
DEFAULT_255_2_778
10
10.6004421
20
58.7505162
40
1.4864166
50
331.5224689
51
0.0079267
0
ARC
8
DEFAULT_255_2_778
10
10.6004421
20
58.7509283
40
1.4864163
50
359.992042
51
28.4775044
0
ARC
8
DEFAULT_255_2_778
10
16.5070172
20
59.6506806
40
0.2000088
50
180.0025239
51
269.997482
0
ARC
8
DEFAULT_255_2_778
10
16.8070995
20
59.6506808
40
0.2000089
50
270.0025627
51
359.9974373
0
ARC
8
DEFAULT_255_2_778
10
16.8071635
20
57.8502269
40
0.1999449
50
359.9842058
51
90.0157942
0
LINE
8
DEFAULT_255_2_778
10
16.3073084
20
57.7959718
11
14.2073084
21
57.7959718
0
LINE
8
DEFAULT_255_2_778
10
14.2073084
20
57.7959718
11
12.7074084
21
57.7959718
0
LINE
8
DEFAULT_255_2_778
10
12.7074084
20
57.7959718
11
12.7074084
21
59.7059718
0
LINE
8
DEFAULT_255_2_778
10
12.7074084
20
59.7059718
11
14.2073084
21
59.7059718
0
LINE
8
DEFAULT_255_2_778
10
14.2073084
20
59.7059718
11
16.3073084
21
59.7059718
0
LINE
8
DEFAULT_255_2_778
10
17.6072084
20
59.1508718
11
17.4572084
21
59.1508718
0
LINE
8
DEFAULT_255_2_778
10
17.4572084
20
59.1508718
11
17.4572084
21
58.3507718
0
LINE
8
DEFAULT_255_2_778
10
17.4572084
20
58.3507718
11
17.6072084
21
58.3507718
0
LINE
8
DEFAULT_255_2_778
10
17.6072084
20
58.0007718
11
17.3071084
21
58.0007718
0
LINE
8
DEFAULT_255_2_778
10
17.3071084
20
58.0007718
11
17.3071084
21
57.4450718
0
LINE
8
DEFAULT_255_2_778
10
17.3071084
20
60.0562718
11
17.3071084
21
59.5006718
0
LINE
8
DEFAULT_255_2_778
10
17.3071084
20
59.5006718
11
17.6072084
21
59.5006718
0
LINE
8
DEFAULT_255_2_778
10
17.3971084
20
58.0007718
11
17.3971084
21
59.5006718
0
LINE
8
DEFAULT_255_2_778
10
16.3070084
20
57.8506718
11
16.3070084
21
57.0707718
0
LINE
8
DEFAULT_255_2_778
10
16.3070084
20
57.0707718
11
11.9070084
21
57.0707718
0
LINE
8
DEFAULT_255_2_778
10
11.9070084
20
57.0707718
11
11.9070084
21
58.0417718
0
LINE
8
DEFAULT_255_2_778
10
11.9070084
20
59.4596718
11
11.9070084
21
60.4306718
0
LINE
8
DEFAULT_255_2_778
10
11.9070084
20
60.4306718
11
16.3070084
21
60.4306718
0
LINE
8
DEFAULT_255_2_778
10
16.3070084
20
60.4306718
11
16.3070084
21
59.6506718
0
LINE
8
DEFAULT_255_2_778
10
16.5070084
20
59.4506718
11
16.8071084
21
59.4506718
0
LINE
8
DEFAULT_255_2_778
10
17.0071084
20
59.6506718
11
17.0071084
21
59.9469718
0
LINE
8
DEFAULT_255_2_778
10
17.0071084
20
59.9469718
11
17.6072084
21
60.1652718
0
LINE
8
DEFAULT_255_2_778
10
17.6072084
20
60.1652718
11
17.6072084
21
57.3355718
0
LINE
8
DEFAULT_255_2_778
10
17.6072084
20
57.3355718
11
17.0071084
21
57.5538718
0
LINE
8
DEFAULT_255_2_778
10
17.0071084
20
57.5538718
11
17.0071084
21
57.8501718
0
LINE
8
DEFAULT_255_2_778
10
16.8071084
20
58.0501718
11
16.5070084
21
58.0507718
0
LINE
8
DEFAULT_255_2_778
10
14.00725
20
55.14565
11
14.40735
21
55.14565
0
LINE
8
DEFAULT_255_2_778
10
14.40735
20
55.14565
11
14.40735
21
54.74555
0
LINE
8
DEFAULT_255_2_778
10
14.40735
20
54.74555
11
14.00725
21
54.74555
0
LINE
8
DEFAULT_255_2_778
10
14.00725
20
54.74555
11
13.80725
21
54.54555
0
LINE
8
DEFAULT_255_2_778
10
13.80725
20
54.54555
11
14.60735
21
54.54555
0
LINE
8
DEFAULT_255_2_778
10
14.60735
20
54.54555
11
14.40735
21
54.74555
0
LINE
8
DEFAULT_255_2_778
10
14.00725
20
54.74555
11
14.00725
21
55.14565
0
LINE
8
DEFAULT_255_2_778
10
14.00725
20
55.14565
11
13.80725
21
55.34565
0
LINE
8
DEFAULT_255_2_778
10
13.80725
20
55.34565
11
13.80725
21
54.54555
0
LINE
8
DEFAULT_255_2_778
10
13.80725
20
55.34565
11
14.60735
21
55.34565
0
LINE
8
DEFAULT_255_2_778
10
14.60735
20
55.34565
11
14.40735
21
55.14565
0
LINE
8
DEFAULT_255_2_778
10
14.60735
20
54.54555
11
14.60735
21
55.34565
0
ARC
8
DEFAULT_255_2_778
10
14.2061274
20
54.9428199
40
0.9521392
50
226.2991653
51
270.0560812
0
ARC
8
DEFAULT_255_2_778
10
14.2043765
20
54.9445781
40
0.9522038
50
180.7053566
51
226.4484254
0
ARC
8
DEFAULT_255_2_778
10
14.2284932
20
54.9457707
40
0.9763338
50
180.0111166
51
180.7579108
0
ARC
8
DEFAULT_255_2_778
10
14.2039986
20
54.9466734
40
0.9518399
50
136.2952898
51
180.0657417
0
ARC
8
DEFAULT_255_2_778
10
14.2060645
20
54.9481555
40
0.9523126
50
90.7057693
51
136.4456307
0
ARC
8
DEFAULT_255_2_778
10
14.2072488
20
54.9241459
40
0.9763352
50
90.0111167
51
90.7579109
0
ARC
8
DEFAULT_255_2_778
10
14.2080001
20
54.9427075
40
0.9520267
50
269.9433838
51
313.7035481
0
ARC
8
DEFAULT_255_2_778
10
14.2094594
20
54.9447332
40
0.9524861
50
313.5558972
51
359.2855223
0
ARC
8
DEFAULT_255_2_778
10
14.1856663
20
54.9459545
40
0.9762931
50
359.2312676
51
359.9780939
0
ARC
8
DEFAULT_255_2_778
10
14.2098207
20
54.9465132
40
0.9521392
50
359.9439188
51
43.7008347
0
ARC
8
DEFAULT_255_2_778
10
14.2080625
20
54.9482641
40
0.9522038
50
43.5515746
51
89.2946434
0
ARC
8
DEFAULT_255_2_778
10
14.20687
20
54.9241474
40
0.9763338
50
89.2420892
51
89.9888834
0
ARC
8
DEFAULT_255_2_778
10
10.6034431
20
54.9447725
40
1.5837509
50
325.4141696
51
349.0879389
0
ARC
8
DEFAULT_255_2_778
10
10.5984058
20
54.945726
40
1.5888776
50
349.088563
51
0.0016543
0
ARC
8
DEFAULT_255_2_778
10
10.6024789
20
54.9462975
40
1.5848046
50
359.9809943
51
29.8711571
0
ARC
8
DEFAULT_255_2_778
10
10.5959648
20
54.9423235
40
1.5924324
50
29.8784147
51
34.5648449
0
ARC
8
DEFAULT_255_2_778
10
16.5074291
20
54.0441739
40
0.2013984
50
90.1196889
51
134.8034217
0
ARC
8
DEFAULT_255_2_778
10
16.5063277
20
54.0460101
40
0.1993201
50
134.9507267
51
180.1547252
0
ARC
8
DEFAULT_255_2_778
10
10.6004421
20
54.9453162
40
1.4864166
50
331.5224689
51
0.0079267
0
ARC
8
DEFAULT_255_2_778
10
10.6004421
20
54.9457283
40
1.4864163
50
359.992042
51
28.4775044
0
ARC
8
DEFAULT_255_2_778
10
16.5070172
20
55.8454806
40
0.2000088
50
180.0025239
51
269.997482
0
ARC
8
DEFAULT_255_2_778
10
16.8070995
20
55.8454808
40
0.2000089
50
270.0025627
51
359.9974373
0
ARC
8
DEFAULT_255_2_778
10
16.8071635
20
54.0450269
40
0.1999449
50
359.9842058
51
90.0157942
0
LINE
8
DEFAULT_255_2_778
10
16.3073084
20
53.9907718
11
14.2073084
21
53.9907718
0
LINE
8
DEFAULT_255_2_778
10
14.2073084
20
53.9907718
11
12.7074084
21
53.9907718
0
LINE
8
DEFAULT_255_2_778
10
12.7074084
20
53.9907718
11
12.7074084
21
55.9007718
0
LINE
8
DEFAULT_255_2_778
10
12.7074084
20
55.9007718
11
14.2073084
21
55.9007718
0
LINE
8
DEFAULT_255_2_778
10
14.2073084
20
55.9007718
11
16.3073084
21
55.9007718
0
LINE
8
DEFAULT_255_2_778
10
17.6072084
20
55.3456718
11
17.4572084
21
55.3456718
0
LINE
8
DEFAULT_255_2_778
10
17.4572084
20
55.3456718
11
17.4572084
21
54.5455718
0
LINE
8
DEFAULT_255_2_778
10
17.4572084
20
54.5455718
11
17.6072084
21
54.5455718
0
LINE
8
DEFAULT_255_2_778
10
17.6072084
20
54.1955718
11
17.3071084
21
54.1955718
0
LINE
8
DEFAULT_255_2_778
10
17.3071084
20
54.1955718
11
17.3071084
21
53.6398718
0
LINE
8
DEFAULT_255_2_778
10
17.3071084
20
56.2510718
11
17.3071084
21
55.6954718
0
LINE
8
DEFAULT_255_2_778
10
17.3071084
20
55.6954718
11
17.6072084
21
55.6954718
0
LINE
8
DEFAULT_255_2_778
10
17.3971084
20
54.1955718
11
17.3971084
21
55.6954718
0
LINE
8
DEFAULT_255_2_778
10
16.3070084
20
54.0454718
11
16.3070084
21
53.2655718
0
LINE
8
DEFAULT_255_2_778
10
16.3070084
20
53.2655718
11
11.9070084
21
53.2655718
0
LINE
8
DEFAULT_255_2_778
10
11.9070084
20
53.2655718
11
11.9070084
21
54.2365718
0
LINE
8
DEFAULT_255_2_778
10
11.9070084
20
55.6544718
11
11.9070084
21
56.6254718
0
LINE
8
DEFAULT_255_2_778
10
11.9070084
20
56.6254718
11
16.3070084
21
56.6254718
0
LINE
8
DEFAULT_255_2_778
10
16.3070084
20
56.6254718
11
16.3070084
21
55.8454718
0
LINE
8
DEFAULT_255_2_778
10
16.5070084
20
55.6454718
11
16.8071084
21
55.6454718
0
LINE
8
DEFAULT_255_2_778
10
17.0071084
20
55.8454718
11
17.0071084
21
56.1417718
0
LINE
8
DEFAULT_255_2_778
10
17.0071084
20
56.1417718
11
17.6072084
21
56.3600718
0
LINE
8
DEFAULT_255_2_778
10
17.6072084
20
56.3600718
11
17.6072084
21
53.5303718
0
LINE
8
DEFAULT_255_2_778
10
17.6072084
20
53.5303718
11
17.0071084
21
53.7486718
0
LINE
8
DEFAULT_255_2_778
10
17.0071084
20
53.7486718
11
17.0071084
21
54.0449718
0
LINE
8
DEFAULT_255_2_778
10
16.8071084
20
54.2449718
11
16.5070084
21
54.2455718
0
LINE
8
DEFAULT_255_2_778
10
14.00725
20
66.56585
11
14.40735
21
66.56585
0
LINE
8
DEFAULT_255_2_778
10
14.40735
20
66.56585
11
14.40735
21
66.16575
0
LINE
8
DEFAULT_255_2_778
10
14.40735
20
66.16575
11
14.00725
21
66.16575
0
LINE
8
DEFAULT_255_2_778
10
14.00725
20
66.16575
11
13.80725
21
65.96575
0
LINE
8
DEFAULT_255_2_778
10
13.80725
20
65.96575
11
14.60735
21
65.96575
0
LINE
8
DEFAULT_255_2_778
10
14.60735
20
65.96575
11
14.40735
21
66.16575
0
LINE
8
DEFAULT_255_2_778
10
14.00725
20
66.16575
11
14.00725
21
66.56585
0
LINE
8
DEFAULT_255_2_778
10
14.00725
20
66.56585
11
13.80725
21
66.76585
0
LINE
8
DEFAULT_255_2_778
10
13.80725
20
66.76585
11
13.80725
21
65.96575
0
LINE
8
DEFAULT_255_2_778
10
13.80725
20
66.76585
11
14.60735
21
66.76585
0
LINE
8
DEFAULT_255_2_778
10
14.60735
20
66.76585
11
14.40735
21
66.56585
0
LINE
8
DEFAULT_255_2_778
10
14.60735
20
65.96575
11
14.60735
21
66.76585
0
ARC
8
DEFAULT_255_2_778
10
14.2061274
20
66.3630199
40
0.9521392
50
226.2991653
51
270.0560812
0
ARC
8
DEFAULT_255_2_778
10
14.2043765
20
66.3647781
40
0.9522038
50
180.7053566
51
226.4484254
0
ARC
8
DEFAULT_255_2_778
10
14.2284932
20
66.3659707
40
0.9763338
50
180.0111166
51
180.7579108
0
ARC
8
DEFAULT_255_2_778
10
14.2039986
20
66.3668734
40
0.9518399
50
136.2952898
51
180.0657417
0
ARC
8
DEFAULT_255_2_778
10
14.2060645
20
66.3683555
40
0.9523126
50
90.7057693
51
136.4456307
0
ARC
8
DEFAULT_255_2_778
10
14.2072488
20
66.3443459
40
0.9763352
50
90.0111167
51
90.7579109
0
ARC
8
DEFAULT_255_2_778
10
14.2080001
20
66.3629075
40
0.9520267
50
269.9433838
51
313.7035481
0
ARC
8
DEFAULT_255_2_778
10
14.2094594
20
66.3649332
40
0.9524861
50
313.5558972
51
359.2855223
0
ARC
8
DEFAULT_255_2_778
10
14.1856663
20
66.3661545
40
0.9762931
50
359.2312676
51
359.9780939
0
ARC
8
DEFAULT_255_2_778
10
14.2098207
20
66.3667132
40
0.9521392
50
359.9439188
51
43.7008347
0
ARC
8
DEFAULT_255_2_778
10
14.2080625
20
66.3684641
40
0.9522038
50
43.5515746
51
89.2946434
0
ARC
8
DEFAULT_255_2_778
10
14.20687
20
66.3443474
40
0.9763338
50
89.2420892
51
89.9888834
0
ARC
8
DEFAULT_255_2_778
10
10.6034431
20
66.3649725
40
1.5837509
50
325.4141696
51
349.0879389
0
ARC
8
DEFAULT_255_2_778
10
10.5984058
20
66.365926
40
1.5888776
50
349.088563
51
0.0016543
0
ARC
8
DEFAULT_255_2_778
10
10.6024789
20
66.3664975
40
1.5848046
50
359.9809943
51
29.8711571
0
ARC
8
DEFAULT_255_2_778
10
10.5959648
20
66.3625235
40
1.5924324
50
29.8784147
51
34.5648449
0
ARC
8
DEFAULT_255_2_778
10
16.5074291
20
65.4643739
40
0.2013984
50
90.1196889
51
134.8034217
0
ARC
8
DEFAULT_255_2_778
10
16.5063277
20
65.4662101
40
0.1993201
50
134.9507267
51
180.1547252
0
ARC
8
DEFAULT_255_2_778
10
10.6004421
20
66.3655162
40
1.4864166
50
331.5224689
51
0.0079267
0
ARC
8
DEFAULT_255_2_778
10
10.6004421
20
66.3659283
40
1.4864163
50
359.992042
51
28.4775044
0
ARC
8
DEFAULT_255_2_778
10
16.5070172
20
67.2656806
40
0.2000088
50
180.0025239
51
269.997482
0
ARC
8
DEFAULT_255_2_778
10
16.8070995
20
67.2656808
40
0.2000089
50
270.0025627
51
359.9974373
0
ARC
8
DEFAULT_255_2_778
10
16.8071635
20
65.4652269
40
0.1999449
50
359.9842058
51
90.0157942
0
LINE
8
DEFAULT_255_2_778
10
16.3073084
20
65.4109718
11
14.2073084
21
65.4109718
0
LINE
8
DEFAULT_255_2_778
10
14.2073084
20
65.4109718
11
12.7074084
21
65.4109718
0
LINE
8
DEFAULT_255_2_778
10
12.7074084
20
65.4109718
11
12.7074084
21
67.3209718
0
LINE
8
DEFAULT_255_2_778
10
12.7074084
20
67.3209718
11
14.2073084
21
67.3209718
0
LINE
8
DEFAULT_255_2_778
10
14.2073084
20
67.3209718
11
16.3073084
21
67.3209718
0
LINE
8
DEFAULT_255_2_778
10
17.6072084
20
66.7658718
11
17.4572084
21
66.7658718
0
LINE
8
DEFAULT_255_2_778
10
17.4572084
20
66.7658718
11
17.4572084
21
65.9657718
0
LINE
8
DEFAULT_255_2_778
10
17.4572084
20
65.9657718
11
17.6072084
21
65.9657718
0
LINE
8
DEFAULT_255_2_778
10
17.6072084
20
65.6157718
11
17.3071084
21
65.6157718
0
LINE
8
DEFAULT_255_2_778
10
17.3071084
20
65.6157718
11
17.3071084
21
65.0600718
0
LINE
8
DEFAULT_255_2_778
10
17.3071084
20
67.6712718
11
17.3071084
21
67.1156718
0
LINE
8
DEFAULT_255_2_778
10
17.3071084
20
67.1156718
11
17.6072084
21
67.1156718
0
LINE
8
DEFAULT_255_2_778
10
17.3971084
20
65.6157718
11
17.3971084
21
67.1156718
0
LINE
8
DEFAULT_255_2_778
10
16.3070084
20
65.4656718
11
16.3070084
21
64.6857718
0
LINE
8
DEFAULT_255_2_778
10
16.3070084
20
64.6857718
11
11.9070084
21
64.6857718
0
LINE
8
DEFAULT_255_2_778
10
11.9070084
20
64.6857718
11
11.9070084
21
65.6567718
0
LINE
8
DEFAULT_255_2_778
10
11.9070084
20
67.0746718
11
11.9070084
21
68.0456718
0
LINE
8
DEFAULT_255_2_778
10
11.9070084
20
68.0456718
11
16.3070084
21
68.0456718
0
LINE
8
DEFAULT_255_2_778
10
16.3070084
20
68.0456718
11
16.3070084
21
67.2656718
0
LINE
8
DEFAULT_255_2_778
10
16.5070084
20
67.0656718
11
16.8071084
21
67.0656718
0
LINE
8
DEFAULT_255_2_778
10
17.0071084
20
67.2656718
11
17.0071084
21
67.5619718
0
LINE
8
DEFAULT_255_2_778
10
17.0071084
20
67.5619718
11
17.6072084
21
67.7802718
0
LINE
8
DEFAULT_255_2_778
10
17.6072084
20
67.7802718
11
17.6072084
21
64.9505718
0
LINE
8
DEFAULT_255_2_778
10
17.6072084
20
64.9505718
11
17.0071084
21
65.1688718
0
LINE
8
DEFAULT_255_2_778
10
17.0071084
20
65.1688718
11
17.0071084
21
65.4651718
0
LINE
8
DEFAULT_255_2_778
10
16.8071084
20
65.6651718
11
16.5070084
21
65.6657718
0
LINE
8
DEFAULT_255_2_778
10
14.00725
20
47.51055
11
14.40735
21
47.51055
0
LINE
8
DEFAULT_255_2_778
10
14.40735
20
47.51055
11
14.40735
21
47.11045
0
LINE
8
DEFAULT_255_2_778
10
14.40735
20
47.11045
11
14.00725
21
47.11045
0
LINE
8
DEFAULT_255_2_778
10
14.00725
20
47.11045
11
13.80725
21
46.91045
0
LINE
8
DEFAULT_255_2_778
10
13.80725
20
46.91045
11
14.60735
21
46.91045
0
LINE
8
DEFAULT_255_2_778
10
14.60735
20
46.91045
11
14.40735
21
47.11045
0
LINE
8
DEFAULT_255_2_778
10
14.00725
20
47.11045
11
14.00725
21
47.51055
0
LINE
8
DEFAULT_255_2_778
10
14.00725
20
47.51055
11
13.80725
21
47.71055
0
LINE
8
DEFAULT_255_2_778
10
13.80725
20
47.71055
11
13.80725
21
46.91045
0
LINE
8
DEFAULT_255_2_778
10
13.80725
20
47.71055
11
14.60735
21
47.71055
0
LINE
8
DEFAULT_255_2_778
10
14.60735
20
47.71055
11
14.40735
21
47.51055
0
LINE
8
DEFAULT_255_2_778
10
14.60735
20
46.91045
11
14.60735
21
47.71055
0
ARC
8
DEFAULT_255_2_778
10
14.2061274
20
47.3077199
40
0.9521392
50
226.2991653
51
270.0560812
0
ARC
8
DEFAULT_255_2_778
10
14.2043765
20
47.3094781
40
0.9522038
50
180.7053566
51
226.4484254
0
ARC
8
DEFAULT_255_2_778
10
14.2284932
20
47.3106707
40
0.9763338
50
180.0111166
51
180.7579108
0
ARC
8
DEFAULT_255_2_778
10
14.2039986
20
47.3115734
40
0.9518399
50
136.2952898
51
180.0657417
0
ARC
8
DEFAULT_255_2_778
10
14.2060645
20
47.3130555
40
0.9523126
50
90.7057693
51
136.4456307
0
ARC
8
DEFAULT_255_2_778
10
14.2072488
20
47.2890459
40
0.9763352
50
90.0111167
51
90.7579109
0
ARC
8
DEFAULT_255_2_778
10
14.2080001
20
47.3076075
40
0.9520267
50
269.9433838
51
313.7035481
0
ARC
8
DEFAULT_255_2_778
10
14.2094594
20
47.3096332
40
0.9524861
50
313.5558972
51
359.2855223
0
ARC
8
DEFAULT_255_2_778
10
14.1856663
20
47.3108545
40
0.9762931
50
359.2312676
51
359.9780939
0
ARC
8
DEFAULT_255_2_778
10
14.2098207
20
47.3114132
40
0.9521392
50
359.9439188
51
43.7008347
0
ARC
8
DEFAULT_255_2_778
10
14.2080625
20
47.3131641
40
0.9522038
50
43.5515746
51
89.2946434
0
ARC
8
DEFAULT_255_2_778
10
14.20687
20
47.2890474
40
0.9763338
50
89.2420892
51
89.9888834
0
ARC
8
DEFAULT_255_2_778
10
10.6033431
20
47.3095725
40
1.5837509
50
325.4141696
51
349.0879389
0
ARC
8
DEFAULT_255_2_778
10
10.5983058
20
47.310526
40
1.5888776
50
349.088563
51
0.0016543
0
ARC
8
DEFAULT_255_2_778
10
10.6023789
20
47.3110975
40
1.5848046
50
359.9809943
51
29.8711571
0
ARC
8
DEFAULT_255_2_778
10
10.5958648
20
47.3071235
40
1.5924324
50
29.8784147
51
34.5648449
0
ARC
8
DEFAULT_255_2_778
10
16.5072181
20
46.4102684
40
0.2004036
50
90.0599524
51
134.9203936
0
ARC
8
DEFAULT_255_2_778
10
16.5077862
20
46.4105901
40
0.2005778
50
135.10019
51
180.0052187
0
ARC
8
DEFAULT_255_2_778
10
10.6012096
20
47.310429
40
1.4859239
50
331.5116007
51
0.007435
0
ARC
8
DEFAULT_255_2_778
10
10.6012096
20
47.3108146
40
1.4859239
50
359.992565
51
28.4883993
0
ARC
8
DEFAULT_255_2_778
10
16.5072172
20
48.2105806
40
0.2000088
50
180.0025239
51
269.997482
0
ARC
8
DEFAULT_255_2_778
10
16.8072995
20
48.2105808
40
0.2000089
50
270.0025627
51
359.9974373
0
ARC
8
DEFAULT_255_2_778
10
16.8074914
20
46.4102548
40
0.1998171
50
359.947541
51
90.052459
0
LINE
8
DEFAULT_255_2_778
10
16.3072084
20
46.3555718
11
14.2072084
21
46.3555718
0
LINE
8
DEFAULT_255_2_778
10
14.2072084
20
46.3555718
11
12.7073084
21
46.3555718
0
LINE
8
DEFAULT_255_2_778
10
12.7073084
20
46.3555718
11
12.7073084
21
48.2655718
0
LINE
8
DEFAULT_255_2_778
10
12.7073084
20
48.2655718
11
14.2072084
21
48.2655718
0
LINE
8
DEFAULT_255_2_778
10
14.2072084
20
48.2655718
11
16.3072084
21
48.2655718
0
LINE
8
DEFAULT_255_2_778
10
17.6071084
20
47.7104718
11
17.4571084
21
47.7104718
0
LINE
8
DEFAULT_255_2_778
10
17.4571084
20
47.7104718
11
17.4571084
21
46.9103718
0
LINE
8
DEFAULT_255_2_778
10
17.4571084
20
46.9103718
11
17.6071084
21
46.9103718
0
LINE
8
DEFAULT_255_2_778
10
17.6071084
20
46.5603718
11
17.3071084
21
46.5603718
0
LINE
8
DEFAULT_255_2_778
10
17.3071084
20
46.5603718
11
17.3071084
21
46.0047718
0
LINE
8
DEFAULT_255_2_778
10
17.3071084
20
48.6161718
11
17.3071084
21
48.0605718
0
LINE
8
DEFAULT_255_2_778
10
17.3071084
20
48.0605718
11
17.6071084
21
48.0605718
0
LINE
8
DEFAULT_255_2_778
10
17.3970084
20
46.5606718
11
17.3970084
21
48.0605718
0
LINE
8
DEFAULT_255_2_778
10
16.3072084
20
46.4105718
11
16.3072084
21
45.6306718
0
LINE
8
DEFAULT_255_2_778
10
16.3072084
20
45.6306718
11
11.9072084
21
45.6306718
0
LINE
8
DEFAULT_255_2_778
10
11.9072084
20
45.6306718
11
11.9072084
21
46.6016718
0
LINE
8
DEFAULT_255_2_778
10
11.9072084
20
48.0195718
11
11.9072084
21
48.9905718
0
LINE
8
DEFAULT_255_2_778
10
11.9072084
20
48.9905718
11
16.3072084
21
48.9905718
0
LINE
8
DEFAULT_255_2_778
10
16.3072084
20
48.9905718
11
16.3072084
21
48.2105718
0
LINE
8
DEFAULT_255_2_778
10
16.5072084
20
48.0105718
11
16.8073084
21
48.0105718
0
LINE
8
DEFAULT_255_2_778
10
17.0073084
20
48.2105718
11
17.0073084
21
48.5068718
0
LINE
8
DEFAULT_255_2_778
10
17.0073084
20
48.5068718
11
17.6074084
21
48.7251718
0
LINE
8
DEFAULT_255_2_778
10
17.6074084
20
48.7251718
11
17.6074084
21
45.8954718
0
LINE
8
DEFAULT_255_2_778
10
17.6074084
20
45.8954718
11
17.0073084
21
46.1137718
0
LINE
8
DEFAULT_255_2_778
10
17.0073084
20
46.1137718
11
17.0073084
21
46.4100718
0
LINE
8
DEFAULT_255_2_778
10
16.8073084
20
46.6100718
11
16.5070084
21
46.6106718
0
LINE
8
DEFAULT_255_2_778
10
14.00725
20
43.70055
11
14.40735
21
43.70055
0
LINE
8
DEFAULT_255_2_778
10
14.40735
20
43.70055
11
14.40735
21
43.30045
0
LINE
8
DEFAULT_255_2_778
10
14.40735
20
43.30045
11
14.00725
21
43.30045
0
LINE
8
DEFAULT_255_2_778
10
14.00725
20
43.30045
11
13.80725
21
43.10045
0
LINE
8
DEFAULT_255_2_778
10
13.80725
20
43.10045
11
14.60735
21
43.10045
0
LINE
8
DEFAULT_255_2_778
10
14.60735
20
43.10045
11
14.40735
21
43.30045
0
LINE
8
DEFAULT_255_2_778
10
14.00725
20
43.30045
11
14.00725
21
43.70055
0
LINE
8
DEFAULT_255_2_778
10
14.00725
20
43.70055
11
13.80725
21
43.90055
0
LINE
8
DEFAULT_255_2_778
10
13.80725
20
43.90055
11
13.80725
21
43.10045
0
LINE
8
DEFAULT_255_2_778
10
13.80725
20
43.90055
11
14.60735
21
43.90055
0
LINE
8
DEFAULT_255_2_778
10
14.60735
20
43.90055
11
14.40735
21
43.70055
0
LINE
8
DEFAULT_255_2_778
10
14.60735
20
43.10045
11
14.60735
21
43.90055
0
ARC
8
DEFAULT_255_2_778
10
14.2061274
20
43.4977199
40
0.9521392
50
226.2991653
51
270.0560812
0
ARC
8
DEFAULT_255_2_778
10
14.2043765
20
43.4994781
40
0.9522038
50
180.7053566
51
226.4484254
0
ARC
8
DEFAULT_255_2_778
10
14.2284932
20
43.5006707
40
0.9763338
50
180.0111166
51
180.7579108
0
ARC
8
DEFAULT_255_2_778
10
14.2039986
20
43.5015734
40
0.9518399
50
136.2952898
51
180.0657417
0
ARC
8
DEFAULT_255_2_778
10
14.2060645
20
43.5030555
40
0.9523126
50
90.7057693
51
136.4456307
0
ARC
8
DEFAULT_255_2_778
10
14.2072488
20
43.4790459
40
0.9763352
50
90.0111167
51
90.7579109
0
ARC
8
DEFAULT_255_2_778
10
14.2080001
20
43.4976075
40
0.9520267
50
269.9433838
51
313.7035481
0
ARC
8
DEFAULT_255_2_778
10
14.2094594
20
43.4996332
40
0.9524861
50
313.5558972
51
359.2855223
0
ARC
8
DEFAULT_255_2_778
10
14.1856663
20
43.5008545
40
0.9762931
50
359.2312676
51
359.9780939
0
ARC
8
DEFAULT_255_2_778
10
14.2098207
20
43.5014132
40
0.9521392
50
359.9439188
51
43.7008347
0
ARC
8
DEFAULT_255_2_778
10
14.2080625
20
43.5031641
40
0.9522038
50
43.5515746
51
89.2946434
0
ARC
8
DEFAULT_255_2_778
10
14.20687
20
43.4790474
40
0.9763338
50
89.2420892
51
89.9888834
0
ARC
8
DEFAULT_255_2_778
10
10.6033431
20
43.4995725
40
1.5837509
50
325.4141696
51
349.0879389
0
ARC
8
DEFAULT_255_2_778
10
10.5983058
20
43.500526
40
1.5888776
50
349.088563
51
0.0016543
0
ARC
8
DEFAULT_255_2_778
10
10.6023789
20
43.5010975
40
1.5848046
50
359.9809943
51
29.8711571
0
ARC
8
DEFAULT_255_2_778
10
10.5958648
20
43.4971235
40
1.5924324
50
29.8784147
51
34.5648449
0
ARC
8
DEFAULT_255_2_778
10
16.5072181
20
42.6002684
40
0.2004036
50
90.0599524
51
134.9203936
0
ARC
8
DEFAULT_255_2_778
10
16.5077862
20
42.6005901
40
0.2005778
50
135.10019
51
180.0052187
0
ARC
8
DEFAULT_255_2_778
10
10.6012096
20
43.500429
40
1.4859239
50
331.5116007
51
0.007435
0
ARC
8
DEFAULT_255_2_778
10
10.6012096
20
43.5008146
40
1.4859239
50
359.992565
51
28.4883993
0
ARC
8
DEFAULT_255_2_778
10
16.5072172
20
44.4005806
40
0.2000088
50
180.0025239
51
269.997482
0
ARC
8
DEFAULT_255_2_778
10
16.8072995
20
44.4005808
40
0.2000089
50
270.0025627
51
359.9974373
0
ARC
8
DEFAULT_255_2_778
10
16.8074914
20
42.6002548
40
0.1998171
50
359.947541
51
90.052459
0
LINE
8
DEFAULT_255_2_778
10
16.3072084
20
42.5455718
11
14.2072084
21
42.5455718
0
LINE
8
DEFAULT_255_2_778
10
14.2072084
20
42.5455718
11
12.7073084
21
42.5455718
0
LINE
8
DEFAULT_255_2_778
10
12.7073084
20
42.5455718
11
12.7073084
21
44.4555718
0
LINE
8
DEFAULT_255_2_778
10
12.7073084
20
44.4555718
11
14.2072084
21
44.4555718
0
LINE
8
DEFAULT_255_2_778
10
14.2072084
20
44.4555718
11
16.3072084
21
44.4555718
0
LINE
8
DEFAULT_255_2_778
10
17.6071084
20
43.9004718
11
17.4571084
21
43.9004718
0
LINE
8
DEFAULT_255_2_778
10
17.4571084
20
43.9004718
11
17.4571084
21
43.1003718
0
LINE
8
DEFAULT_255_2_778
10
17.4571084
20
43.1003718
11
17.6071084
21
43.1003718
0
LINE
8
DEFAULT_255_2_778
10
17.6071084
20
42.7503718
11
17.3071084
21
42.7503718
0
LINE
8
DEFAULT_255_2_778
10
17.3071084
20
42.7503718
11
17.3071084
21
42.1947718
0
LINE
8
DEFAULT_255_2_778
10
17.3071084
20
44.8061718
11
17.3071084
21
44.2505718
0
LINE
8
DEFAULT_255_2_778
10
17.3071084
20
44.2505718
11
17.6071084
21
44.2505718
0
LINE
8
DEFAULT_255_2_778
10
17.3970084
20
42.7506718
11
17.3970084
21
44.2505718
0
LINE
8
DEFAULT_255_2_778
10
16.3072084
20
42.6005718
11
16.3072084
21
41.8206718
0
LINE
8
DEFAULT_255_2_778
10
16.3072084
20
41.8206718
11
11.9072084
21
41.8206718
0
LINE
8
DEFAULT_255_2_778
10
11.9072084
20
41.8206718
11
11.9072084
21
42.7916718
0
LINE
8
DEFAULT_255_2_778
10
11.9072084
20
44.2095718
11
11.9072084
21
45.1805718
0
LINE
8
DEFAULT_255_2_778
10
11.9072084
20
45.1805718
11
16.3072084
21
45.1805718
0
LINE
8
DEFAULT_255_2_778
10
16.3072084
20
45.1805718
11
16.3072084
21
44.4005718
0
LINE
8
DEFAULT_255_2_778
10
16.5072084
20
44.2005718
11
16.8073084
21
44.2005718
0
LINE
8
DEFAULT_255_2_778
10
17.0073084
20
44.4005718
11
17.0073084
21
44.6968718
0
LINE
8
DEFAULT_255_2_778
10
17.0073084
20
44.6968718
11
17.6074084
21
44.9151718
0
LINE
8
DEFAULT_255_2_778
10
17.6074084
20
44.9151718
11
17.6074084
21
42.0854718
0
LINE
8
DEFAULT_255_2_778
10
17.6074084
20
42.0854718
11
17.0073084
21
42.3037718
0
LINE
8
DEFAULT_255_2_778
10
17.0073084
20
42.3037718
11
17.0073084
21
42.6000718
0
LINE
8
DEFAULT_255_2_778
10
16.8073084
20
42.8000718
11
16.5070084
21
42.8006718
0
LINE
8
DEFAULT_255_2_778
10
14.00725
20
39.89555
11
14.40735
21
39.89555
0
LINE
8
DEFAULT_255_2_778
10
14.40735
20
39.89555
11
14.40735
21
39.49545
0
LINE
8
DEFAULT_255_2_778
10
14.40735
20
39.49545
11
14.00725
21
39.49545
0
LINE
8
DEFAULT_255_2_778
10
14.00725
20
39.49545
11
13.80725
21
39.29545
0
LINE
8
DEFAULT_255_2_778
10
13.80725
20
39.29545
11
14.60735
21
39.29545
0
LINE
8
DEFAULT_255_2_778
10
14.60735
20
39.29545
11
14.40735
21
39.49545
0
LINE
8
DEFAULT_255_2_778
10
14.00725
20
39.49545
11
14.00725
21
39.89555
0
LINE
8
DEFAULT_255_2_778
10
14.00725
20
39.89555
11
13.80725
21
40.09555
0
LINE
8
DEFAULT_255_2_778
10
13.80725
20
40.09555
11
13.80725
21
39.29545
0
LINE
8
DEFAULT_255_2_778
10
13.80725
20
40.09555
11
14.60735
21
40.09555
0
LINE
8
DEFAULT_255_2_778
10
14.60735
20
40.09555
11
14.40735
21
39.89555
0
LINE
8
DEFAULT_255_2_778
10
14.60735
20
39.29545
11
14.60735
21
40.09555
0
ARC
8
DEFAULT_255_2_778
10
14.2061274
20
39.6927199
40
0.9521392
50
226.2991653
51
270.0560812
0
ARC
8
DEFAULT_255_2_778
10
14.2043765
20
39.6944781
40
0.9522038
50
180.7053566
51
226.4484254
0
ARC
8
DEFAULT_255_2_778
10
14.2284932
20
39.6956707
40
0.9763338
50
180.0111166
51
180.7579108
0
ARC
8
DEFAULT_255_2_778
10
14.2039986
20
39.6965734
40
0.9518399
50
136.2952898
51
180.0657417
0
ARC
8
DEFAULT_255_2_778
10
14.2060645
20
39.6980555
40
0.9523126
50
90.7057693
51
136.4456307
0
ARC
8
DEFAULT_255_2_778
10
14.2072488
20
39.6740459
40
0.9763352
50
90.0111167
51
90.7579109
0
ARC
8
DEFAULT_255_2_778
10
14.2080001
20
39.6926075
40
0.9520267
50
269.9433838
51
313.7035481
0
ARC
8
DEFAULT_255_2_778
10
14.2094594
20
39.6946332
40
0.9524861
50
313.5558972
51
359.2855223
0
ARC
8
DEFAULT_255_2_778
10
14.1856663
20
39.6958545
40
0.9762931
50
359.2312676
51
359.9780939
0
ARC
8
DEFAULT_255_2_778
10
14.2098207
20
39.6964132
40
0.9521392
50
359.9439188
51
43.7008347
0
ARC
8
DEFAULT_255_2_778
10
14.2080625
20
39.6981641
40
0.9522038
50
43.5515746
51
89.2946434
0
ARC
8
DEFAULT_255_2_778
10
14.20687
20
39.6740474
40
0.9763338
50
89.2420892
51
89.9888834
0
ARC
8
DEFAULT_255_2_778
10
10.6033431
20
39.6946725
40
1.5837509
50
325.4141696
51
349.0879389
0
ARC
8
DEFAULT_255_2_778
10
10.5983058
20
39.695626
40
1.5888776
50
349.088563
51
0.0016543
0
ARC
8
DEFAULT_255_2_778
10
10.6023789
20
39.6961975
40
1.5848046
50
359.9809943
51
29.8711571
0
ARC
8
DEFAULT_255_2_778
10
10.5958648
20
39.6922235
40
1.5924324
50
29.8784147
51
34.5648449
0
ARC
8
DEFAULT_255_2_778
10
16.5072181
20
38.7953684
40
0.2004036
50
90.0599524
51
134.9203936
0
ARC
8
DEFAULT_255_2_778
10
16.5077862
20
38.7956901
40
0.2005778
50
135.10019
51
180.0052187
0
ARC
8
DEFAULT_255_2_778
10
10.6012096
20
39.695529
40
1.4859239
50
331.5116007
51
0.007435
0
ARC
8
DEFAULT_255_2_778
10
10.6012096
20
39.6959146
40
1.4859239
50
359.992565
51
28.4883993
0
ARC
8
DEFAULT_255_2_778
10
16.5072172
20
40.5956806
40
0.2000088
50
180.0025239
51
269.997482
0
ARC
8
DEFAULT_255_2_778
10
16.8072995
20
40.5956808
40
0.2000089
50
270.0025627
51
359.9974373
0
ARC
8
DEFAULT_255_2_778
10
16.8074914
20
38.7953548
40
0.1998171
50
359.947541
51
90.052459
0
LINE
8
DEFAULT_255_2_778
10
16.3072084
20
38.7406718
11
14.2072084
21
38.7406718
0
LINE
8
DEFAULT_255_2_778
10
14.2072084
20
38.7406718
11
12.7073084
21
38.7406718
0
LINE
8
DEFAULT_255_2_778
10
12.7073084
20
38.7406718
11
12.7073084
21
40.6506718
0
LINE
8
DEFAULT_255_2_778
10
12.7073084
20
40.6506718
11
14.2072084
21
40.6506718
0
LINE
8
DEFAULT_255_2_778
10
14.2072084
20
40.6506718
11
16.3072084
21
40.6506718
0
LINE
8
DEFAULT_255_2_778
10
17.6071084
20
40.0955718
11
17.4571084
21
40.0955718
0
LINE
8
DEFAULT_255_2_778
10
17.4571084
20
40.0955718
11
17.4571084
21
39.2954718
0
LINE
8
DEFAULT_255_2_778
10
17.4571084
20
39.2954718
11
17.6071084
21
39.2954718
0
LINE
8
DEFAULT_255_2_778
10
17.6071084
20
38.9454718
11
17.3071084
21
38.9454718
0
LINE
8
DEFAULT_255_2_778
10
17.3071084
20
38.9454718
11
17.3071084
21
38.3898718
0
LINE
8
DEFAULT_255_2_778
10
17.3071084
20
41.0012718
11
17.3071084
21
40.4456718
0
LINE
8
DEFAULT_255_2_778
10
17.3071084
20
40.4456718
11
17.6071084
21
40.4456718
0
LINE
8
DEFAULT_255_2_778
10
17.3970084
20
38.9457718
11
17.3970084
21
40.4456718
0
LINE
8
DEFAULT_255_2_778
10
16.3072084
20
38.7956718
11
16.3072084
21
38.0157718
0
LINE
8
DEFAULT_255_2_778
10
16.3072084
20
38.0157718
11
11.9072084
21
38.0157718
0
LINE
8
DEFAULT_255_2_778
10
11.9072084
20
38.0157718
11
11.9072084
21
38.9867718
0
LINE
8
DEFAULT_255_2_778
10
11.9072084
20
40.4046718
11
11.9072084
21
41.3756718
0
LINE
8
DEFAULT_255_2_778
10
11.9072084
20
41.3756718
11
16.3072084
21
41.3756718
0
LINE
8
DEFAULT_255_2_778
10
16.3072084
20
41.3756718
11
16.3072084
21
40.5956718
0
LINE
8
DEFAULT_255_2_778
10
16.5072084
20
40.3956718
11
16.8073084
21
40.3956718
0
LINE
8
DEFAULT_255_2_778
10
17.0073084
20
40.5956718
11
17.0073084
21
40.8919718
0
LINE
8
DEFAULT_255_2_778
10
17.0073084
20
40.8919718
11
17.6074084
21
41.1102718
0
LINE
8
DEFAULT_255_2_778
10
17.6074084
20
41.1102718
11
17.6074084
21
38.2805718
0
LINE
8
DEFAULT_255_2_778
10
17.6074084
20
38.2805718
11
17.0073084
21
38.4988718
0
LINE
8
DEFAULT_255_2_778
10
17.0073084
20
38.4988718
11
17.0073084
21
38.7951718
0
LINE
8
DEFAULT_255_2_778
10
16.8073084
20
38.9951718
11
16.5070084
21
38.9957718
0
LINE
8
DEFAULT_255_2_778
10
14.00725
20
51.31555
11
14.40735
21
51.31555
0
LINE
8
DEFAULT_255_2_778
10
14.40735
20
51.31555
11
14.40735
21
50.91545
0
LINE
8
DEFAULT_255_2_778
10
14.40735
20
50.91545
11
14.00725
21
50.91545
0
LINE
8
DEFAULT_255_2_778
10
14.00725
20
50.91545
11
13.80725
21
50.71545
0
LINE
8
DEFAULT_255_2_778
10
13.80725
20
50.71545
11
14.60735
21
50.71545
0
LINE
8
DEFAULT_255_2_778
10
14.60735
20
50.71545
11
14.40735
21
50.91545
0
LINE
8
DEFAULT_255_2_778
10
14.00725
20
50.91545
11
14.00725
21
51.31555
0
LINE
8
DEFAULT_255_2_778
10
14.00725
20
51.31555
11
13.80725
21
51.51555
0
LINE
8
DEFAULT_255_2_778
10
13.80725
20
51.51555
11
13.80725
21
50.71545
0
LINE
8
DEFAULT_255_2_778
10
13.80725
20
51.51555
11
14.60735
21
51.51555
0
LINE
8
DEFAULT_255_2_778
10
14.60735
20
51.51555
11
14.40735
21
51.31555
0
LINE
8
DEFAULT_255_2_778
10
14.60735
20
50.71545
11
14.60735
21
51.51555
0
ARC
8
DEFAULT_255_2_778
10
14.2061274
20
51.1127199
40
0.9521392
50
226.2991653
51
270.0560812
0
ARC
8
DEFAULT_255_2_778
10
14.2043765
20
51.1144781
40
0.9522038
50
180.7053566
51
226.4484254
0
ARC
8
DEFAULT_255_2_778
10
14.2284932
20
51.1156707
40
0.9763338
50
180.0111166
51
180.7579108
0
ARC
8
DEFAULT_255_2_778
10
14.2039986
20
51.1165734
40
0.9518399
50
136.2952898
51
180.0657417
0
ARC
8
DEFAULT_255_2_778
10
14.2060645
20
51.1180555
40
0.9523126
50
90.7057693
51
136.4456307
0
ARC
8
DEFAULT_255_2_778
10
14.2072488
20
51.0940459
40
0.9763352
50
90.0111167
51
90.7579109
0
ARC
8
DEFAULT_255_2_778
10
14.2080001
20
51.1126075
40
0.9520267
50
269.9433838
51
313.7035481
0
ARC
8
DEFAULT_255_2_778
10
14.2094594
20
51.1146332
40
0.9524861
50
313.5558972
51
359.2855223
0
ARC
8
DEFAULT_255_2_778
10
14.1856663
20
51.1158545
40
0.9762931
50
359.2312676
51
359.9780939
0
ARC
8
DEFAULT_255_2_778
10
14.2098207
20
51.1164132
40
0.9521392
50
359.9439188
51
43.7008347
0
ARC
8
DEFAULT_255_2_778
10
14.2080625
20
51.1181641
40
0.9522038
50
43.5515746
51
89.2946434
0
ARC
8
DEFAULT_255_2_778
10
14.20687
20
51.0940474
40
0.9763338
50
89.2420892
51
89.9888834
0
ARC
8
DEFAULT_255_2_778
10
10.6033431
20
51.1145725
40
1.5837509
50
325.4141696
51
349.0879389
0
ARC
8
DEFAULT_255_2_778
10
10.5983058
20
51.115526
40
1.5888776
50
349.088563
51
0.0016543
0
ARC
8
DEFAULT_255_2_778
10
10.6023789
20
51.1160975
40
1.5848046
50
359.9809943
51
29.8711571
0
ARC
8
DEFAULT_255_2_778
10
10.5958648
20
51.1121235
40
1.5924324
50
29.8784147
51
34.5648449
0
ARC
8
DEFAULT_255_2_778
10
16.5072181
20
50.2152684
40
0.2004036
50
90.0599524
51
134.9203936
0
ARC
8
DEFAULT_255_2_778
10
16.5077862
20
50.2155901
40
0.2005778
50
135.10019
51
180.0052187
0
ARC
8
DEFAULT_255_2_778
10
10.6012096
20
51.115429
40
1.4859239
50
331.5116007
51
0.007435
0
ARC
8
DEFAULT_255_2_778
10
10.6012096
20
51.1158146
40
1.4859239
50
359.992565
51
28.4883993
0
ARC
8
DEFAULT_255_2_778
10
16.5072172
20
52.0155806
40
0.2000088
50
180.0025239
51
269.997482
0
ARC
8
DEFAULT_255_2_778
10
16.8072995
20
52.0155808
40
0.2000089
50
270.0025627
51
359.9974373
0
ARC
8
DEFAULT_255_2_778
10
16.8074914
20
50.2152548
40
0.1998171
50
359.947541
51
90.052459
0
LINE
8
DEFAULT_255_2_778
10
16.3072084
20
50.1605718
11
14.2072084
21
50.1605718
0
LINE
8
DEFAULT_255_2_778
10
14.2072084
20
50.1605718
11
12.7073084
21
50.1605718
0
LINE
8
DEFAULT_255_2_778
10
12.7073084
20
50.1605718
11
12.7073084
21
52.0705718
0
LINE
8
DEFAULT_255_2_778
10
12.7073084
20
52.0705718
11
14.2072084
21
52.0705718
0
LINE
8
DEFAULT_255_2_778
10
14.2072084
20
52.0705718
11
16.3072084
21
52.0705718
0
LINE
8
DEFAULT_255_2_778
10
17.6071084
20
51.5154718
11
17.4571084
21
51.5154718
0
LINE
8
DEFAULT_255_2_778
10
17.4571084
20
51.5154718
11
17.4571084
21
50.7153718
0
LINE
8
DEFAULT_255_2_778
10
17.4571084
20
50.7153718
11
17.6071084
21
50.7153718
0
LINE
8
DEFAULT_255_2_778
10
17.6071084
20
50.3653718
11
17.3071084
21
50.3653718
0
LINE
8
DEFAULT_255_2_778
10
17.3071084
20
50.3653718
11
17.3071084
21
49.8097718
0
LINE
8
DEFAULT_255_2_778
10
17.3071084
20
52.4211718
11
17.3071084
21
51.8655718
0
LINE
8
DEFAULT_255_2_778
10
17.3071084
20
51.8655718
11
17.6071084
21
51.8655718
0
LINE
8
DEFAULT_255_2_778
10
17.3970084
20
50.3656718
11
17.3970084
21
51.8655718
0
LINE
8
DEFAULT_255_2_778
10
16.3072084
20
50.2155718
11
16.3072084
21
49.4356718
0
LINE
8
DEFAULT_255_2_778
10
16.3072084
20
49.4356718
11
11.9072084
21
49.4356718
0
LINE
8
DEFAULT_255_2_778
10
11.9072084
20
49.4356718
11
11.9072084
21
50.4066718
0
LINE
8
DEFAULT_255_2_778
10
11.9072084
20
51.8245718
11
11.9072084
21
52.7955718
0
LINE
8
DEFAULT_255_2_778
10
11.9072084
20
52.7955718
11
16.3072084
21
52.7955718
0
LINE
8
DEFAULT_255_2_778
10
16.3072084
20
52.7955718
11
16.3072084
21
52.0155718
0
LINE
8
DEFAULT_255_2_778
10
16.5072084
20
51.8155718
11
16.8073084
21
51.8155718
0
LINE
8
DEFAULT_255_2_778
10
17.0073084
20
52.0155718
11
17.0073084
21
52.3118718
0
LINE
8
DEFAULT_255_2_778
10
17.0073084
20
52.3118718
11
17.6074084
21
52.5301718
0
LINE
8
DEFAULT_255_2_778
10
17.6074084
20
52.5301718
11
17.6074084
21
49.7004718
0
LINE
8
DEFAULT_255_2_778
10
17.6074084
20
49.7004718
11
17.0073084
21
49.9187718
0
LINE
8
DEFAULT_255_2_778
10
17.0073084
20
49.9187718
11
17.0073084
21
50.2150718
0
LINE
8
DEFAULT_255_2_778
10
16.8073084
20
50.4150718
11
16.5070084
21
50.4156718
0
LINE
8
DEFAULT_255_2_778
10
13.98735
20
32.40025
11
14.38745
21
32.40025
0
LINE
8
DEFAULT_255_2_778
10
14.38745
20
32.40025
11
14.38745
21
32.00015
0
LINE
8
DEFAULT_255_2_778
10
14.38745
20
32.00015
11
13.98735
21
32.00015
0
LINE
8
DEFAULT_255_2_778
10
13.98735
20
32.00015
11
13.78735
21
31.80015
0
LINE
8
DEFAULT_255_2_778
10
13.78735
20
31.80015
11
14.58745
21
31.80015
0
LINE
8
DEFAULT_255_2_778
10
14.58745
20
31.80015
11
14.38745
21
32.00015
0
LINE
8
DEFAULT_255_2_778
10
13.98735
20
32.00015
11
13.98735
21
32.40025
0
LINE
8
DEFAULT_255_2_778
10
13.98735
20
32.40025
11
13.78735
21
32.60025
0
LINE
8
DEFAULT_255_2_778
10
13.78735
20
32.60025
11
13.78735
21
31.80015
0
LINE
8
DEFAULT_255_2_778
10
13.78735
20
32.60025
11
14.58745
21
32.60025
0
LINE
8
DEFAULT_255_2_778
10
14.58745
20
32.60025
11
14.38745
21
32.40025
0
LINE
8
DEFAULT_255_2_778
10
14.58745
20
31.80015
11
14.58745
21
32.60025
0
ARC
8
DEFAULT_255_2_778
10
14.1862274
20
32.1974199
40
0.9521392
50
226.2991653
51
270.0560812
0
ARC
8
DEFAULT_255_2_778
10
14.1844765
20
32.1991781
40
0.9522038
50
180.7053566
51
226.4484254
0
ARC
8
DEFAULT_255_2_778
10
14.2085932
20
32.2003707
40
0.9763338
50
180.0111166
51
180.7579108
0
ARC
8
DEFAULT_255_2_778
10
14.1840986
20
32.2012734
40
0.9518399
50
136.2952898
51
180.0657417
0
ARC
8
DEFAULT_255_2_778
10
14.1861645
20
32.2027555
40
0.9523126
50
90.7057693
51
136.4456307
0
ARC
8
DEFAULT_255_2_778
10
14.1873488
20
32.1787459
40
0.9763352
50
90.0111167
51
90.7579109
0
ARC
8
DEFAULT_255_2_778
10
14.1881001
20
32.1973075
40
0.9520267
50
269.9433838
51
313.7035481
0
ARC
8
DEFAULT_255_2_778
10
14.1895594
20
32.1993332
40
0.9524861
50
313.5558972
51
359.2855223
0
ARC
8
DEFAULT_255_2_778
10
14.1657663
20
32.2005545
40
0.9762931
50
359.2312676
51
359.9780939
0
ARC
8
DEFAULT_255_2_778
10
14.1899207
20
32.2011132
40
0.9521392
50
359.9439188
51
43.7008347
0
ARC
8
DEFAULT_255_2_778
10
14.1881625
20
32.2028641
40
0.9522038
50
43.5515746
51
89.2946434
0
ARC
8
DEFAULT_255_2_778
10
14.18697
20
32.1787474
40
0.9763338
50
89.2420892
51
89.9888834
0
ARC
8
DEFAULT_255_2_778
10
10.583538
20
32.1993766
40
1.5837575
50
325.4141498
51
349.0810055
0
ARC
8
DEFAULT_255_2_778
10
10.578585
20
32.2003147
40
1.5887984
50
349.0816228
51
359.9918509
0
LINE
8
DEFAULT_255_2_778
10
12.1673834
20
32.2000887
11
12.1673834
21
32.2003593
0
ARC
8
DEFAULT_255_2_778
10
10.5829161
20
32.2009052
40
1.5844674
50
359.980261
51
30.0121403
0
ARC
8
DEFAULT_255_2_778
10
10.5763214
20
32.1968476
40
1.5922074
50
30.0198762
51
34.5693679
0
ARC
8
DEFAULT_255_2_778
10
16.4873845
20
31.2993237
40
0.2010483
50
90.0786893
51
134.8444265
0
ARC
8
DEFAULT_255_2_778
10
16.4860796
20
31.3009552
40
0.1989715
50
134.9092863
51
180.1103822
0
ARC
8
DEFAULT_255_2_778
10
10.5805421
20
32.2004162
40
1.4864166
50
331.5224689
51
0.0079267
0
ARC
8
DEFAULT_255_2_778
10
10.5805421
20
32.2008283
40
1.4864163
50
359.992042
51
28.4775044
0
ARC
8
DEFAULT_255_2_778
10
16.4871173
20
33.1005806
40
0.2000089
50
180.0025037
51
269.9974617
0
ARC
8
DEFAULT_255_2_778
10
16.7873914
20
33.1003889
40
0.1998171
50
269.947541
51
0.052459
0
ARC
8
DEFAULT_255_2_778
10
16.7872635
20
31.3001269
40
0.1999449
50
359.9842058
51
90.0157942
0
LINE
8
DEFAULT_255_2_778
10
16.2874084
20
31.2453718
11
14.1874084
21
31.2453718
0
LINE
8
DEFAULT_255_2_778
10
14.1874084
20
31.2453718
11
12.6875084
21
31.2453718
0
LINE
8
DEFAULT_255_2_778
10
12.6875084
20
31.2453718
11
12.6875084
21
33.1553718
0
LINE
8
DEFAULT_255_2_778
10
12.6875084
20
33.1553718
11
14.1874084
21
33.1553718
0
LINE
8
DEFAULT_255_2_778
10
14.1874084
20
33.1553718
11
16.2874084
21
33.1553718
0
LINE
8
DEFAULT_255_2_778
10
17.5873084
20
32.6002718
11
17.4373084
21
32.6002718
0
LINE
8
DEFAULT_255_2_778
10
17.4373084
20
32.6002718
11
17.4373084
21
31.8001718
0
LINE
8
DEFAULT_255_2_778
10
17.4373084
20
31.8001718
11
17.5873084
21
31.8001718
0
LINE
8
DEFAULT_255_2_778
10
17.5873084
20
31.4500718
11
17.2872084
21
31.4500718
0
LINE
8
DEFAULT_255_2_778
10
17.2872084
20
31.4500718
11
17.2872084
21
30.8944718
0
LINE
8
DEFAULT_255_2_778
10
17.2872084
20
33.5059718
11
17.2872084
21
32.9502718
0
LINE
8
DEFAULT_255_2_778
10
17.2872084
20
32.9502718
11
17.5873084
21
32.9502718
0
LINE
8
DEFAULT_255_2_778
10
17.3772084
20
31.4503718
11
17.3772084
21
32.9502718
0
LINE
8
DEFAULT_255_2_778
10
16.2871084
20
31.3005718
11
16.2871084
21
30.5206718
0
LINE
8
DEFAULT_255_2_778
10
16.2871084
20
30.5206718
11
11.8871084
21
30.5206718
0
LINE
8
DEFAULT_255_2_778
10
11.8871084
20
30.5206718
11
11.8871084
21
31.4916718
0
LINE
8
DEFAULT_255_2_778
10
11.8871084
20
32.9095718
11
11.8871084
21
33.8805718
0
LINE
8
DEFAULT_255_2_778
10
11.8871084
20
33.8805718
11
16.2871084
21
33.8805718
0
LINE
8
DEFAULT_255_2_778
10
16.2871084
20
33.8805718
11
16.2871084
21
33.1005718
0
LINE
8
DEFAULT_255_2_778
10
16.4871084
20
32.9005718
11
16.7872084
21
32.9005718
0
LINE
8
DEFAULT_255_2_778
10
16.9872084
20
33.1005718
11
16.9872084
21
33.3968718
0
LINE
8
DEFAULT_255_2_778
10
16.9872084
20
33.3968718
11
17.5873084
21
33.6151718
0
LINE
8
DEFAULT_255_2_778
10
17.5873084
20
33.6151718
11
17.5873084
21
30.7854718
0
LINE
8
DEFAULT_255_2_778
10
17.5873084
20
30.7854718
11
16.9872084
21
31.0037718
0
LINE
8
DEFAULT_255_2_778
10
16.9872084
20
31.0037718
11
16.9872084
21
31.3000718
0
LINE
8
DEFAULT_255_2_778
10
16.7872084
20
31.5000718
11
16.4871084
21
31.5003718
0
LINE
8
DEFAULT_255_2_778
10
13.98735
20
28.59025
11
14.38745
21
28.59025
0
LINE
8
DEFAULT_255_2_778
10
14.38745
20
28.59025
11
14.38745
21
28.19015
0
LINE
8
DEFAULT_255_2_778
10
14.38745
20
28.19015
11
13.98735
21
28.19015
0
LINE
8
DEFAULT_255_2_778
10
13.98735
20
28.19015
11
13.78735
21
27.99015
0
LINE
8
DEFAULT_255_2_778
10
13.78735
20
27.99015
11
14.58745
21
27.99015
0
LINE
8
DEFAULT_255_2_778
10
14.58745
20
27.99015
11
14.38745
21
28.19015
0
LINE
8
DEFAULT_255_2_778
10
13.98735
20
28.19015
11
13.98735
21
28.59025
0
LINE
8
DEFAULT_255_2_778
10
13.98735
20
28.59025
11
13.78735
21
28.79025
0
LINE
8
DEFAULT_255_2_778
10
13.78735
20
28.79025
11
13.78735
21
27.99015
0
LINE
8
DEFAULT_255_2_778
10
13.78735
20
28.79025
11
14.58745
21
28.79025
0
LINE
8
DEFAULT_255_2_778
10
14.58745
20
28.79025
11
14.38745
21
28.59025
0
LINE
8
DEFAULT_255_2_778
10
14.58745
20
27.99015
11
14.58745
21
28.79025
0
ARC
8
DEFAULT_255_2_778
10
14.1862274
20
28.3874199
40
0.9521392
50
226.2991653
51
270.0560812
0
ARC
8
DEFAULT_255_2_778
10
14.1844765
20
28.3891781
40
0.9522038
50
180.7053566
51
226.4484254
0
ARC
8
DEFAULT_255_2_778
10
14.2085932
20
28.3903707
40
0.9763338
50
180.0111166
51
180.7579108
0
ARC
8
DEFAULT_255_2_778
10
14.1840986
20
28.3912734
40
0.9518399
50
136.2952898
51
180.0657417
0
ARC
8
DEFAULT_255_2_778
10
14.1861645
20
28.3927555
40
0.9523126
50
90.7057693
51
136.4456307
0
ARC
8
DEFAULT_255_2_778
10
14.1873488
20
28.3687459
40
0.9763352
50
90.0111167
51
90.7579109
0
ARC
8
DEFAULT_255_2_778
10
14.1881001
20
28.3873075
40
0.9520267
50
269.9433838
51
313.7035481
0
ARC
8
DEFAULT_255_2_778
10
14.1895594
20
28.3893332
40
0.9524861
50
313.5558972
51
359.2855223
0
ARC
8
DEFAULT_255_2_778
10
14.1657663
20
28.3905545
40
0.9762931
50
359.2312676
51
359.9780939
0
ARC
8
DEFAULT_255_2_778
10
14.1899207
20
28.3911132
40
0.9521392
50
359.9439188
51
43.7008347
0
ARC
8
DEFAULT_255_2_778
10
14.1881625
20
28.3928641
40
0.9522038
50
43.5515746
51
89.2946434
0
ARC
8
DEFAULT_255_2_778
10
14.18697
20
28.3687474
40
0.9763338
50
89.2420892
51
89.9888834
0
ARC
8
DEFAULT_255_2_778
10
10.583538
20
28.3893766
40
1.5837575
50
325.4141498
51
349.0810055
0
ARC
8
DEFAULT_255_2_778
10
10.578585
20
28.3903147
40
1.5887984
50
349.0816228
51
359.9918509
0
LINE
8
DEFAULT_255_2_778
10
12.1673834
20
28.3900887
11
12.1673834
21
28.3903593
0
ARC
8
DEFAULT_255_2_778
10
10.5829161
20
28.3909052
40
1.5844674
50
359.980261
51
30.0121403
0
ARC
8
DEFAULT_255_2_778
10
10.5763214
20
28.3868476
40
1.5922074
50
30.0198762
51
34.5693679
0
ARC
8
DEFAULT_255_2_778
10
16.4873845
20
27.4893237
40
0.2010483
50
90.0786893
51
134.8444265
0
ARC
8
DEFAULT_255_2_778
10
16.4860796
20
27.4909552
40
0.1989715
50
134.9092863
51
180.1103822
0
ARC
8
DEFAULT_255_2_778
10
10.5805421
20
28.3904162
40
1.4864166
50
331.5224689
51
0.0079267
0
ARC
8
DEFAULT_255_2_778
10
10.5805421
20
28.3908283
40
1.4864163
50
359.992042
51
28.4775044
0
ARC
8
DEFAULT_255_2_778
10
16.4871173
20
29.2905806
40
0.2000089
50
180.0025037
51
269.9974617
0
ARC
8
DEFAULT_255_2_778
10
16.7873914
20
29.2903889
40
0.1998171
50
269.947541
51
0.052459
0
ARC
8
DEFAULT_255_2_778
10
16.7872635
20
27.4901269
40
0.1999449
50
359.9842058
51
90.0157942
0
LINE
8
DEFAULT_255_2_778
10
16.2874084
20
27.4353718
11
14.1874084
21
27.4353718
0
LINE
8
DEFAULT_255_2_778
10
14.1874084
20
27.4353718
11
12.6875084
21
27.4353718
0
LINE
8
DEFAULT_255_2_778
10
12.6875084
20
27.4353718
11
12.6875084
21
29.3453718
0
LINE
8
DEFAULT_255_2_778
10
12.6875084
20
29.3453718
11
14.1874084
21
29.3453718
0
LINE
8
DEFAULT_255_2_778
10
14.1874084
20
29.3453718
11
16.2874084
21
29.3453718
0
LINE
8
DEFAULT_255_2_778
10
17.5873084
20
28.7902718
11
17.4373084
21
28.7902718
0
LINE
8
DEFAULT_255_2_778
10
17.4373084
20
28.7902718
11
17.4373084
21
27.9901718
0
LINE
8
DEFAULT_255_2_778
10
17.4373084
20
27.9901718
11
17.5873084
21
27.9901718
0
LINE
8
DEFAULT_255_2_778
10
17.5873084
20
27.6400718
11
17.2872084
21
27.6400718
0
LINE
8
DEFAULT_255_2_778
10
17.2872084
20
27.6400718
11
17.2872084
21
27.0844718
0
LINE
8
DEFAULT_255_2_778
10
17.2872084
20
29.6959718
11
17.2872084
21
29.1402718
0
LINE
8
DEFAULT_255_2_778
10
17.2872084
20
29.1402718
11
17.5873084
21
29.1402718
0
LINE
8
DEFAULT_255_2_778
10
17.3772084
20
27.6403718
11
17.3772084
21
29.1402718
0
LINE
8
DEFAULT_255_2_778
10
16.2871084
20
27.4905718
11
16.2871084
21
26.7106718
0
LINE
8
DEFAULT_255_2_778
10
16.2871084
20
26.7106718
11
11.8871084
21
26.7106718
0
LINE
8
DEFAULT_255_2_778
10
11.8871084
20
26.7106718
11
11.8871084
21
27.6816718
0
LINE
8
DEFAULT_255_2_778
10
11.8871084
20
29.0995718
11
11.8871084
21
30.0705718
0
LINE
8
DEFAULT_255_2_778
10
11.8871084
20
30.0705718
11
16.2871084
21
30.0705718
0
LINE
8
DEFAULT_255_2_778
10
16.2871084
20
30.0705718
11
16.2871084
21
29.2905718
0
LINE
8
DEFAULT_255_2_778
10
16.4871084
20
29.0905718
11
16.7872084
21
29.0905718
0
LINE
8
DEFAULT_255_2_778
10
16.9872084
20
29.2905718
11
16.9872084
21
29.5868718
0
LINE
8
DEFAULT_255_2_778
10
16.9872084
20
29.5868718
11
17.5873084
21
29.8051718
0
LINE
8
DEFAULT_255_2_778
10
17.5873084
20
29.8051718
11
17.5873084
21
26.9754718
0
LINE
8
DEFAULT_255_2_778
10
17.5873084
20
26.9754718
11
16.9872084
21
27.1937718
0
LINE
8
DEFAULT_255_2_778
10
16.9872084
20
27.1937718
11
16.9872084
21
27.4900718
0
LINE
8
DEFAULT_255_2_778
10
16.7872084
20
27.6900718
11
16.4871084
21
27.6903718
0
LINE
8
DEFAULT_255_2_778
10
13.98735
20
24.78525
11
14.38745
21
24.78525
0
LINE
8
DEFAULT_255_2_778
10
14.38745
20
24.78525
11
14.38745
21
24.38515
0
LINE
8
DEFAULT_255_2_778
10
14.38745
20
24.38515
11
13.98735
21
24.38515
0
LINE
8
DEFAULT_255_2_778
10
13.98735
20
24.38515
11
13.78735
21
24.18515
0
LINE
8
DEFAULT_255_2_778
10
13.78735
20
24.18515
11
14.58745
21
24.18515
0
LINE
8
DEFAULT_255_2_778
10
14.58745
20
24.18515
11
14.38745
21
24.38515
0
LINE
8
DEFAULT_255_2_778
10
13.98735
20
24.38515
11
13.98735
21
24.78525
0
LINE
8
DEFAULT_255_2_778
10
13.98735
20
24.78525
11
13.78735
21
24.98525
0
LINE
8
DEFAULT_255_2_778
10
13.78735
20
24.98525
11
13.78735
21
24.18515
0
LINE
8
DEFAULT_255_2_778
10
13.78735
20
24.98525
11
14.58745
21
24.98525
0
LINE
8
DEFAULT_255_2_778
10
14.58745
20
24.98525
11
14.38745
21
24.78525
0
LINE
8
DEFAULT_255_2_778
10
14.58745
20
24.18515
11
14.58745
21
24.98525
0
ARC
8
DEFAULT_255_2_778
10
14.1862274
20
24.5824199
40
0.9521392
50
226.2991653
51
270.0560812
0
ARC
8
DEFAULT_255_2_778
10
14.1844765
20
24.5841781
40
0.9522038
50
180.7053566
51
226.4484254
0
ARC
8
DEFAULT_255_2_778
10
14.2085932
20
24.5853707
40
0.9763338
50
180.0111166
51
180.7579108
0
ARC
8
DEFAULT_255_2_778
10
14.1840986
20
24.5862734
40
0.9518399
50
136.2952898
51
180.0657417
0
ARC
8
DEFAULT_255_2_778
10
14.1861645
20
24.5877555
40
0.9523126
50
90.7057693
51
136.4456307
0
ARC
8
DEFAULT_255_2_778
10
14.1873488
20
24.5637459
40
0.9763352
50
90.0111167
51
90.7579109
0
ARC
8
DEFAULT_255_2_778
10
14.1881001
20
24.5823075
40
0.9520267
50
269.9433838
51
313.7035481
0
ARC
8
DEFAULT_255_2_778
10
14.1895594
20
24.5843332
40
0.9524861
50
313.5558972
51
359.2855223
0
ARC
8
DEFAULT_255_2_778
10
14.1657663
20
24.5855545
40
0.9762931
50
359.2312676
51
359.9780939
0
ARC
8
DEFAULT_255_2_778
10
14.1899207
20
24.5861132
40
0.9521392
50
359.9439188
51
43.7008347
0
ARC
8
DEFAULT_255_2_778
10
14.1881625
20
24.5878641
40
0.9522038
50
43.5515746
51
89.2946434
0
ARC
8
DEFAULT_255_2_778
10
14.18697
20
24.5637474
40
0.9763338
50
89.2420892
51
89.9888834
0
ARC
8
DEFAULT_255_2_778
10
10.583538
20
24.5843766
40
1.5837575
50
325.4141498
51
349.0810055
0
ARC
8
DEFAULT_255_2_778
10
10.578585
20
24.5853147
40
1.5887984
50
349.0816228
51
359.9918509
0
LINE
8
DEFAULT_255_2_778
10
12.1673834
20
24.5850887
11
12.1673834
21
24.5853593
0
ARC
8
DEFAULT_255_2_778
10
10.5829161
20
24.5859052
40
1.5844674
50
359.980261
51
30.0121403
0
ARC
8
DEFAULT_255_2_778
10
10.5763214
20
24.5818476
40
1.5922074
50
30.0198762
51
34.5693679
0
ARC
8
DEFAULT_255_2_778
10
16.4873845
20
23.6843237
40
0.2010483
50
90.0786893
51
134.8444265
0
ARC
8
DEFAULT_255_2_778
10
16.4860796
20
23.6859552
40
0.1989715
50
134.9092863
51
180.1103822
0
ARC
8
DEFAULT_255_2_778
10
10.5805421
20
24.5854162
40
1.4864166
50
331.5224689
51
0.0079267
0
ARC
8
DEFAULT_255_2_778
10
10.5805421
20
24.5858283
40
1.4864163
50
359.992042
51
28.4775044
0
ARC
8
DEFAULT_255_2_778
10
16.4871173
20
25.4855806
40
0.2000089
50
180.0025037
51
269.9974617
0
ARC
8
DEFAULT_255_2_778
10
16.7873914
20
25.4853889
40
0.1998171
50
269.947541
51
0.052459
0
ARC
8
DEFAULT_255_2_778
10
16.7872635
20
23.6851269
40
0.1999449
50
359.9842058
51
90.0157942
0
LINE
8
DEFAULT_255_2_778
10
16.2874084
20
23.6303718
11
14.1874084
21
23.6303718
0
LINE
8
DEFAULT_255_2_778
10
14.1874084
20
23.6303718
11
12.6875084
21
23.6303718
0
LINE
8
DEFAULT_255_2_778
10
12.6875084
20
23.6303718
11
12.6875084
21
25.5403718
0
LINE
8
DEFAULT_255_2_778
10
12.6875084
20
25.5403718
11
14.1874084
21
25.5403718
0
LINE
8
DEFAULT_255_2_778
10
14.1874084
20
25.5403718
11
16.2874084
21
25.5403718
0
LINE
8
DEFAULT_255_2_778
10
17.5873084
20
24.9852718
11
17.4373084
21
24.9852718
0
LINE
8
DEFAULT_255_2_778
10
17.4373084
20
24.9852718
11
17.4373084
21
24.1851718
0
LINE
8
DEFAULT_255_2_778
10
17.4373084
20
24.1851718
11
17.5873084
21
24.1851718
0
LINE
8
DEFAULT_255_2_778
10
17.5873084
20
23.8350718
11
17.2872084
21
23.8350718
0
LINE
8
DEFAULT_255_2_778
10
17.2872084
20
23.8350718
11
17.2872084
21
23.2794718
0
LINE
8
DEFAULT_255_2_778
10
17.2872084
20
25.8909718
11
17.2872084
21
25.3352718
0
LINE
8
DEFAULT_255_2_778
10
17.2872084
20
25.3352718
11
17.5873084
21
25.3352718
0
LINE
8
DEFAULT_255_2_778
10
17.3772084
20
23.8353718
11
17.3772084
21
25.3352718
0
LINE
8
DEFAULT_255_2_778
10
16.2871084
20
23.6855718
11
16.2871084
21
22.9056718
0
LINE
8
DEFAULT_255_2_778
10
16.2871084
20
22.9056718
11
11.8871084
21
22.9056718
0
LINE
8
DEFAULT_255_2_778
10
11.8871084
20
22.9056718
11
11.8871084
21
23.8766718
0
LINE
8
DEFAULT_255_2_778
10
11.8871084
20
25.2945718
11
11.8871084
21
26.2655718
0
LINE
8
DEFAULT_255_2_778
10
11.8871084
20
26.2655718
11
16.2871084
21
26.2655718
0
LINE
8
DEFAULT_255_2_778
10
16.2871084
20
26.2655718
11
16.2871084
21
25.4855718
0
LINE
8
DEFAULT_255_2_778
10
16.4871084
20
25.2855718
11
16.7872084
21
25.2855718
0
LINE
8
DEFAULT_255_2_778
10
16.9872084
20
25.4855718
11
16.9872084
21
25.7818718
0
LINE
8
DEFAULT_255_2_778
10
16.9872084
20
25.7818718
11
17.5873084
21
26.0001718
0
LINE
8
DEFAULT_255_2_778
10
17.5873084
20
26.0001718
11
17.5873084
21
23.1704718
0
LINE
8
DEFAULT_255_2_778
10
17.5873084
20
23.1704718
11
16.9872084
21
23.3887718
0
LINE
8
DEFAULT_255_2_778
10
16.9872084
20
23.3887718
11
16.9872084
21
23.6850718
0
LINE
8
DEFAULT_255_2_778
10
16.7872084
20
23.8850718
11
16.4871084
21
23.8853718
0
LINE
8
DEFAULT_255_2_778
10
13.98735
20
36.20515
11
14.38745
21
36.20515
0
LINE
8
DEFAULT_255_2_778
10
14.38745
20
36.20515
11
14.38745
21
35.80505
0
LINE
8
DEFAULT_255_2_778
10
14.38745
20
35.80505
11
13.98735
21
35.80505
0
LINE
8
DEFAULT_255_2_778
10
13.98735
20
35.80505
11
13.78735
21
35.60505
0
LINE
8
DEFAULT_255_2_778
10
13.78735
20
35.60505
11
14.58745
21
35.60505
0
LINE
8
DEFAULT_255_2_778
10
14.58745
20
35.60505
11
14.38745
21
35.80505
0
LINE
8
DEFAULT_255_2_778
10
13.98735
20
35.80505
11
13.98735
21
36.20515
0
LINE
8
DEFAULT_255_2_778
10
13.98735
20
36.20515
11
13.78735
21
36.40515
0
LINE
8
DEFAULT_255_2_778
10
13.78735
20
36.40515
11
13.78735
21
35.60505
0
LINE
8
DEFAULT_255_2_778
10
13.78735
20
36.40515
11
14.58745
21
36.40515
0
LINE
8
DEFAULT_255_2_778
10
14.58745
20
36.40515
11
14.38745
21
36.20515
0
LINE
8
DEFAULT_255_2_778
10
14.58745
20
35.60505
11
14.58745
21
36.40515
0
ARC
8
DEFAULT_255_2_778
10
14.1862274
20
36.0023199
40
0.9521392
50
226.2991653
51
270.0560812
0
ARC
8
DEFAULT_255_2_778
10
14.1844765
20
36.0040781
40
0.9522038
50
180.7053566
51
226.4484254
0
ARC
8
DEFAULT_255_2_778
10
14.2085932
20
36.0052707
40
0.9763338
50
180.0111166
51
180.7579108
0
ARC
8
DEFAULT_255_2_778
10
14.1840986
20
36.0061734
40
0.9518399
50
136.2952898
51
180.0657417
0
ARC
8
DEFAULT_255_2_778
10
14.1861645
20
36.0076555
40
0.9523126
50
90.7057693
51
136.4456307
0
ARC
8
DEFAULT_255_2_778
10
14.1873488
20
35.9836459
40
0.9763352
50
90.0111167
51
90.7579109
0
ARC
8
DEFAULT_255_2_778
10
14.1881001
20
36.0022075
40
0.9520267
50
269.9433838
51
313.7035481
0
ARC
8
DEFAULT_255_2_778
10
14.1895594
20
36.0042332
40
0.9524861
50
313.5558972
51
359.2855223
0
ARC
8
DEFAULT_255_2_778
10
14.1657663
20
36.0054545
40
0.9762931
50
359.2312676
51
359.9780939
0
ARC
8
DEFAULT_255_2_778
10
14.1899207
20
36.0060132
40
0.9521392
50
359.9439188
51
43.7008347
0
ARC
8
DEFAULT_255_2_778
10
14.1881625
20
36.0077641
40
0.9522038
50
43.5515746
51
89.2946434
0
ARC
8
DEFAULT_255_2_778
10
14.18697
20
35.9836474
40
0.9763338
50
89.2420892
51
89.9888834
0
ARC
8
DEFAULT_255_2_778
10
10.5835431
20
36.0042725
40
1.5837509
50
325.4141696
51
349.0879389
0
ARC
8
DEFAULT_255_2_778
10
10.5785058
20
36.005226
40
1.5888776
50
349.088563
51
0.0016543
0
ARC
8
DEFAULT_255_2_778
10
10.5825789
20
36.0057975
40
1.5848046
50
359.9809943
51
29.8711571
0
ARC
8
DEFAULT_255_2_778
10
10.5760648
20
36.0018235
40
1.5924324
50
29.8784147
51
34.5648449
0
ARC
8
DEFAULT_255_2_778
10
16.4873836
20
35.1040259
40
0.2010462
50
90.078423
51
134.8446726
0
ARC
8
DEFAULT_255_2_778
10
16.4864277
20
35.1055101
40
0.1993201
50
134.9507267
51
180.1547252
0
ARC
8
DEFAULT_255_2_778
10
10.5805421
20
36.0048162
40
1.4864166
50
331.5224689
51
0.0079267
0
ARC
8
DEFAULT_255_2_778
10
10.5805421
20
36.0052283
40
1.4864163
50
359.992042
51
28.4775044
0
ARC
8
DEFAULT_255_2_778
10
16.4873095
20
36.9051728
40
0.2002012
50
180.0575304
51
269.9424409
0
ARC
8
DEFAULT_255_2_778
10
16.7873914
20
36.9047889
40
0.1998171
50
269.947541
51
0.052459
0
ARC
8
DEFAULT_255_2_778
10
16.7873914
20
35.1046548
40
0.1998171
50
359.947541
51
90.052459
0
LINE
8
DEFAULT_255_2_778
10
16.2874084
20
35.0502718
11
14.1874084
21
35.0502718
0
LINE
8
DEFAULT_255_2_778
10
14.1874084
20
35.0502718
11
12.6875084
21
35.0502718
0
LINE
8
DEFAULT_255_2_778
10
12.6875084
20
35.0502718
11
12.6875084
21
36.9602718
0
LINE
8
DEFAULT_255_2_778
10
12.6875084
20
36.9602718
11
14.1874084
21
36.9602718
0
LINE
8
DEFAULT_255_2_778
10
14.1874084
20
36.9602718
11
16.2874084
21
36.9602718
0
LINE
8
DEFAULT_255_2_778
10
17.5873084
20
36.4051718
11
17.4373084
21
36.4051718
0
LINE
8
DEFAULT_255_2_778
10
17.4373084
20
36.4051718
11
17.4373084
21
35.6050718
0
LINE
8
DEFAULT_255_2_778
10
17.4373084
20
35.6050718
11
17.5873084
21
35.6050718
0
LINE
8
DEFAULT_255_2_778
10
17.5873084
20
35.2550718
11
17.2872084
21
35.2550718
0
LINE
8
DEFAULT_255_2_778
10
17.2872084
20
35.2550718
11
17.2872084
21
34.6993718
0
LINE
8
DEFAULT_255_2_778
10
17.2872084
20
37.3105718
11
17.2872084
21
36.7549718
0
LINE
8
DEFAULT_255_2_778
10
17.2872084
20
36.7549718
11
17.5873084
21
36.7549718
0
LINE
8
DEFAULT_255_2_778
10
17.3772084
20
35.2550718
11
17.3772084
21
36.7549718
0
LINE
8
DEFAULT_255_2_778
10
16.2871084
20
35.1049718
11
16.2871084
21
34.3250718
0
LINE
8
DEFAULT_255_2_778
10
16.2871084
20
34.3250718
11
11.8871084
21
34.3250718
0
LINE
8
DEFAULT_255_2_778
10
11.8871084
20
34.3250718
11
11.8871084
21
35.2960718
0
LINE
8
DEFAULT_255_2_778
10
11.8871084
20
36.7139718
11
11.8871084
21
37.6849718
0
LINE
8
DEFAULT_255_2_778
10
11.8871084
20
37.6849718
11
16.2871084
21
37.6849718
0
LINE
8
DEFAULT_255_2_778
10
16.2871084
20
37.6849718
11
16.2871084
21
36.9049718
0
LINE
8
DEFAULT_255_2_778
10
16.4871084
20
36.7049718
11
16.7872084
21
36.7049718
0
LINE
8
DEFAULT_255_2_778
10
16.9872084
20
36.9049718
11
16.9872084
21
37.2012718
0
LINE
8
DEFAULT_255_2_778
10
16.9872084
20
37.2012718
11
17.5873084
21
37.4195718
0
LINE
8
DEFAULT_255_2_778
10
17.5873084
20
37.4195718
11
17.5873084
21
34.5898718
0
LINE
8
DEFAULT_255_2_778
10
17.5873084
20
34.5898718
11
16.9872084
21
34.8081718
0
LINE
8
DEFAULT_255_2_778
10
16.9872084
20
34.8081718
11
16.9872084
21
35.1044718
0
LINE
8
DEFAULT_255_2_778
10
16.7872084
20
35.3044718
11
16.4871084
21
35.3050718
0
LINE
8
DEFAULT_255_2_778
10
13.98735
20
17.15015
11
14.38745
21
17.15015
0
LINE
8
DEFAULT_255_2_778
10
14.38745
20
17.15015
11
14.38745
21
16.75005
0
LINE
8
DEFAULT_255_2_778
10
14.38745
20
16.75005
11
13.98735
21
16.75005
0
LINE
8
DEFAULT_255_2_778
10
13.98735
20
16.75005
11
13.78735
21
16.55005
0
LINE
8
DEFAULT_255_2_778
10
13.78735
20
16.55005
11
14.58745
21
16.55005
0
LINE
8
DEFAULT_255_2_778
10
14.58745
20
16.55005
11
14.38745
21
16.75005
0
LINE
8
DEFAULT_255_2_778
10
13.98735
20
16.75005
11
13.98735
21
17.15015
0
LINE
8
DEFAULT_255_2_778
10
13.98735
20
17.15015
11
13.78735
21
17.35015
0
LINE
8
DEFAULT_255_2_778
10
13.78735
20
17.35015
11
13.78735
21
16.55005
0
LINE
8
DEFAULT_255_2_778
10
13.78735
20
17.35015
11
14.58745
21
17.35015
0
LINE
8
DEFAULT_255_2_778
10
14.58745
20
17.35015
11
14.38745
21
17.15015
0
LINE
8
DEFAULT_255_2_778
10
14.58745
20
16.55005
11
14.58745
21
17.35015
0
ARC
8
DEFAULT_255_2_778
10
14.1862274
20
16.9473199
40
0.9521392
50
226.2991653
51
270.0560812
0
ARC
8
DEFAULT_255_2_778
10
14.1844765
20
16.9490781
40
0.9522038
50
180.7053566
51
226.4484254
0
ARC
8
DEFAULT_255_2_778
10
14.2085932
20
16.9502707
40
0.9763338
50
180.0111166
51
180.7579108
0
ARC
8
DEFAULT_255_2_778
10
14.1840986
20
16.9511734
40
0.9518399
50
136.2952898
51
180.0657417
0
ARC
8
DEFAULT_255_2_778
10
14.1861645
20
16.9526555
40
0.9523126
50
90.7057693
51
136.4456307
0
ARC
8
DEFAULT_255_2_778
10
14.1873488
20
16.9286459
40
0.9763352
50
90.0111167
51
90.7579109
0
ARC
8
DEFAULT_255_2_778
10
14.1881001
20
16.9472075
40
0.9520267
50
269.9433838
51
313.7035481
0
ARC
8
DEFAULT_255_2_778
10
14.1895594
20
16.9492332
40
0.9524861
50
313.5558972
51
359.2855223
0
ARC
8
DEFAULT_255_2_778
10
14.1657663
20
16.9504545
40
0.9762931
50
359.2312676
51
359.9780939
0
ARC
8
DEFAULT_255_2_778
10
14.1899207
20
16.9510132
40
0.9521392
50
359.9439188
51
43.7008347
0
ARC
8
DEFAULT_255_2_778
10
14.1881625
20
16.9527641
40
0.9522038
50
43.5515746
51
89.2946434
0
ARC
8
DEFAULT_255_2_778
10
14.18697
20
16.9286474
40
0.9763338
50
89.2420892
51
89.9888834
0
ARC
8
DEFAULT_255_2_778
10
10.583538
20
16.9492766
40
1.5837575
50
325.4141498
51
349.0810055
0
ARC
8
DEFAULT_255_2_778
10
10.578585
20
16.9502147
40
1.5887984
50
349.0816228
51
359.9918509
0
LINE
8
DEFAULT_255_2_778
10
12.1673834
20
16.9499887
11
12.1673834
21
16.9502593
0
ARC
8
DEFAULT_255_2_778
10
10.5829161
20
16.9508052
40
1.5844674
50
359.980261
51
30.0121403
0
ARC
8
DEFAULT_255_2_778
10
10.5763214
20
16.9467476
40
1.5922074
50
30.0198762
51
34.5693679
0
ARC
8
DEFAULT_255_2_778
10
16.4873845
20
16.0492237
40
0.2010483
50
90.0786893
51
134.8444265
0
ARC
8
DEFAULT_255_2_778
10
16.4860796
20
16.0508552
40
0.1989715
50
134.9092863
51
180.1103822
0
ARC
8
DEFAULT_255_2_778
10
10.5805421
20
16.9503162
40
1.4864166
50
331.5224689
51
0.0079267
0
ARC
8
DEFAULT_255_2_778
10
10.5805421
20
16.9507283
40
1.4864163
50
359.992042
51
28.4775044
0
ARC
8
DEFAULT_255_2_778
10
16.4871173
20
17.8504806
40
0.2000089
50
180.0025037
51
269.9974617
0
ARC
8
DEFAULT_255_2_778
10
16.7873914
20
17.8502889
40
0.1998171
50
269.947541
51
0.052459
0
ARC
8
DEFAULT_255_2_778
10
16.7872635
20
16.0500269
40
0.1999449
50
359.9842058
51
90.0157942
0
LINE
8
DEFAULT_255_2_778
10
16.2874084
20
15.9952718
11
14.1874084
21
15.9952718
0
LINE
8
DEFAULT_255_2_778
10
14.1874084
20
15.9952718
11
12.6875084
21
15.9952718
0
LINE
8
DEFAULT_255_2_778
10
12.6875084
20
15.9952718
11
12.6875084
21
17.9052718
0
LINE
8
DEFAULT_255_2_778
10
12.6875084
20
17.9052718
11
14.1874084
21
17.9052718
0
LINE
8
DEFAULT_255_2_778
10
14.1874084
20
17.9052718
11
16.2874084
21
17.9052718
0
LINE
8
DEFAULT_255_2_778
10
17.5873084
20
17.3501718
11
17.4373084
21
17.3501718
0
LINE
8
DEFAULT_255_2_778
10
17.4373084
20
17.3501718
11
17.4373084
21
16.5500718
0
LINE
8
DEFAULT_255_2_778
10
17.4373084
20
16.5500718
11
17.5873084
21
16.5500718
0
LINE
8
DEFAULT_255_2_778
10
17.5873084
20
16.1999718
11
17.2872084
21
16.1999718
0
LINE
8
DEFAULT_255_2_778
10
17.2872084
20
16.1999718
11
17.2872084
21
15.6443718
0
LINE
8
DEFAULT_255_2_778
10
17.2872084
20
18.2558718
11
17.2872084
21
17.7001718
0
LINE
8
DEFAULT_255_2_778
10
17.2872084
20
17.7001718
11
17.5873084
21
17.7001718
0
LINE
8
DEFAULT_255_2_778
10
17.3772084
20
16.2002718
11
17.3772084
21
17.7001718
0
LINE
8
DEFAULT_255_2_778
10
16.2871084
20
16.0504718
11
16.2871084
21
15.2705718
0
LINE
8
DEFAULT_255_2_778
10
16.2871084
20
15.2705718
11
11.8871084
21
15.2705718
0
LINE
8
DEFAULT_255_2_778
10
11.8871084
20
15.2705718
11
11.8871084
21
16.2415718
0
LINE
8
DEFAULT_255_2_778
10
11.8871084
20
17.6594718
11
11.8871084
21
18.6304718
0
LINE
8
DEFAULT_255_2_778
10
11.8871084
20
18.6304718
11
16.2871084
21
18.6304718
0
LINE
8
DEFAULT_255_2_778
10
16.2871084
20
18.6304718
11
16.2871084
21
17.8504718
0
LINE
8
DEFAULT_255_2_778
10
16.4871084
20
17.6504718
11
16.7872084
21
17.6504718
0
LINE
8
DEFAULT_255_2_778
10
16.9872084
20
17.8504718
11
16.9872084
21
18.1467718
0
LINE
8
DEFAULT_255_2_778
10
16.9872084
20
18.1467718
11
17.5873084
21
18.3650718
0
LINE
8
DEFAULT_255_2_778
10
17.5873084
20
18.3650718
11
17.5873084
21
15.5353718
0
LINE
8
DEFAULT_255_2_778
10
17.5873084
20
15.5353718
11
16.9872084
21
15.7536718
0
LINE
8
DEFAULT_255_2_778
10
16.9872084
20
15.7536718
11
16.9872084
21
16.0499718
0
LINE
8
DEFAULT_255_2_778
10
16.7872084
20
16.2499718
11
16.4871084
21
16.2502718
0
LINE
8
DEFAULT_255_2_778
10
13.98735
20
13.34015
11
14.38745
21
13.34015
0
LINE
8
DEFAULT_255_2_778
10
14.38745
20
13.34015
11
14.38745
21
12.94005
0
LINE
8
DEFAULT_255_2_778
10
14.38745
20
12.94005
11
13.98735
21
12.94005
0
LINE
8
DEFAULT_255_2_778
10
13.98735
20
12.94005
11
13.78735
21
12.74005
0
LINE
8
DEFAULT_255_2_778
10
13.78735
20
12.74005
11
14.58745
21
12.74005
0
LINE
8
DEFAULT_255_2_778
10
14.58745
20
12.74005
11
14.38745
21
12.94005
0
LINE
8
DEFAULT_255_2_778
10
13.98735
20
12.94005
11
13.98735
21
13.34015
0
LINE
8
DEFAULT_255_2_778
10
13.98735
20
13.34015
11
13.78735
21
13.54015
0
LINE
8
DEFAULT_255_2_778
10
13.78735
20
13.54015
11
13.78735
21
12.74005
0
LINE
8
DEFAULT_255_2_778
10
13.78735
20
13.54015
11
14.58745
21
13.54015
0
LINE
8
DEFAULT_255_2_778
10
14.58745
20
13.54015
11
14.38745
21
13.34015
0
LINE
8
DEFAULT_255_2_778
10
14.58745
20
12.74005
11
14.58745
21
13.54015
0
ARC
8
DEFAULT_255_2_778
10
14.1862274
20
13.1373199
40
0.9521392
50
226.2991653
51
270.0560812
0
ARC
8
DEFAULT_255_2_778
10
14.1844765
20
13.1390781
40
0.9522038
50
180.7053566
51
226.4484254
0
ARC
8
DEFAULT_255_2_778
10
14.2085932
20
13.1402707
40
0.9763338
50
180.0111166
51
180.7579108
0
ARC
8
DEFAULT_255_2_778
10
14.1840986
20
13.1411734
40
0.9518399
50
136.2952898
51
180.0657417
0
ARC
8
DEFAULT_255_2_778
10
14.1861645
20
13.1426555
40
0.9523126
50
90.7057693
51
136.4456307
0
ARC
8
DEFAULT_255_2_778
10
14.1873488
20
13.1186459
40
0.9763352
50
90.0111167
51
90.7579109
0
ARC
8
DEFAULT_255_2_778
10
14.1881001
20
13.1372075
40
0.9520267
50
269.9433838
51
313.7035481
0
ARC
8
DEFAULT_255_2_778
10
14.1895594
20
13.1392332
40
0.9524861
50
313.5558972
51
359.2855223
0
ARC
8
DEFAULT_255_2_778
10
14.1657663
20
13.1404545
40
0.9762931
50
359.2312676
51
359.9780939
0
ARC
8
DEFAULT_255_2_778
10
14.1899207
20
13.1410132
40
0.9521392
50
359.9439188
51
43.7008347
0
ARC
8
DEFAULT_255_2_778
10
14.1881625
20
13.1427641
40
0.9522038
50
43.5515746
51
89.2946434
0
ARC
8
DEFAULT_255_2_778
10
14.18697
20
13.1186474
40
0.9763338
50
89.2420892
51
89.9888834
0
ARC
8
DEFAULT_255_2_778
10
10.583538
20
13.1392766
40
1.5837575
50
325.4141498
51
349.0810055
0
ARC
8
DEFAULT_255_2_778
10
10.578585
20
13.1402147
40
1.5887984
50
349.0816228
51
359.9918509
0
LINE
8
DEFAULT_255_2_778
10
12.1673834
20
13.1399887
11
12.1673834
21
13.1402593
0
ARC
8
DEFAULT_255_2_778
10
10.5829161
20
13.1408052
40
1.5844674
50
359.980261
51
30.0121403
0
ARC
8
DEFAULT_255_2_778
10
10.5763214
20
13.1367476
40
1.5922074
50
30.0198762
51
34.5693679
0
ARC
8
DEFAULT_255_2_778
10
16.4873845
20
12.2392237
40
0.2010483
50
90.0786893
51
134.8444265
0
ARC
8
DEFAULT_255_2_778
10
16.4860796
20
12.2408552
40
0.1989715
50
134.9092863
51
180.1103822
0
ARC
8
DEFAULT_255_2_778
10
10.5805421
20
13.1403162
40
1.4864166
50
331.5224689
51
0.0079267
0
ARC
8
DEFAULT_255_2_778
10
10.5805421
20
13.1407283
40
1.4864163
50
359.992042
51
28.4775044
0
ARC
8
DEFAULT_255_2_778
10
16.4871173
20
14.0404806
40
0.2000089
50
180.0025037
51
269.9974617
0
ARC
8
DEFAULT_255_2_778
10
16.7873914
20
14.0402889
40
0.1998171
50
269.947541
51
0.052459
0
ARC
8
DEFAULT_255_2_778
10
16.7872635
20
12.2400269
40
0.1999449
50
359.9842058
51
90.0157942
0
LINE
8
DEFAULT_255_2_778
10
16.2874084
20
12.1852718
11
14.1874084
21
12.1852718
0
LINE
8
DEFAULT_255_2_778
10
14.1874084
20
12.1852718
11
12.6875084
21
12.1852718
0
LINE
8
DEFAULT_255_2_778
10
12.6875084
20
12.1852718
11
12.6875084
21
14.0952718
0
LINE
8
DEFAULT_255_2_778
10
12.6875084
20
14.0952718
11
14.1874084
21
14.0952718
0
LINE
8
DEFAULT_255_2_778
10
14.1874084
20
14.0952718
11
16.2874084
21
14.0952718
0
LINE
8
DEFAULT_255_2_778
10
17.5873084
20
13.5401718
11
17.4373084
21
13.5401718
0
LINE
8
DEFAULT_255_2_778
10
17.4373084
20
13.5401718
11
17.4373084
21
12.7400718
0
LINE
8
DEFAULT_255_2_778
10
17.4373084
20
12.7400718
11
17.5873084
21
12.7400718
0
LINE
8
DEFAULT_255_2_778
10
17.5873084
20
12.3899718
11
17.2872084
21
12.3899718
0
LINE
8
DEFAULT_255_2_778
10
17.2872084
20
12.3899718
11
17.2872084
21
11.8343718
0
LINE
8
DEFAULT_255_2_778
10
17.2872084
20
14.4458718
11
17.2872084
21
13.8901718
0
LINE
8
DEFAULT_255_2_778
10
17.2872084
20
13.8901718
11
17.5873084
21
13.8901718
0
LINE
8
DEFAULT_255_2_778
10
17.3772084
20
12.3902718
11
17.3772084
21
13.8901718
0
LINE
8
DEFAULT_255_2_778
10
16.2871084
20
12.2404718
11
16.2871084
21
11.4605718
0
LINE
8
DEFAULT_255_2_778
10
16.2871084
20
11.4605718
11
11.8871084
21
11.4605718
0
LINE
8
DEFAULT_255_2_778
10
11.8871084
20
11.4605718
11
11.8871084
21
12.4315718
0
LINE
8
DEFAULT_255_2_778
10
11.8871084
20
13.8494718
11
11.8871084
21
14.8204718
0
LINE
8
DEFAULT_255_2_778
10
11.8871084
20
14.8204718
11
16.2871084
21
14.8204718
0
LINE
8
DEFAULT_255_2_778
10
16.2871084
20
14.8204718
11
16.2871084
21
14.0404718
0
LINE
8
DEFAULT_255_2_778
10
16.4871084
20
13.8404718
11
16.7872084
21
13.8404718
0
LINE
8
DEFAULT_255_2_778
10
16.9872084
20
14.0404718
11
16.9872084
21
14.3367718
0
LINE
8
DEFAULT_255_2_778
10
16.9872084
20
14.3367718
11
17.5873084
21
14.5550718
0
LINE
8
DEFAULT_255_2_778
10
17.5873084
20
14.5550718
11
17.5873084
21
11.7253718
0
LINE
8
DEFAULT_255_2_778
10
17.5873084
20
11.7253718
11
16.9872084
21
11.9436718
0
LINE
8
DEFAULT_255_2_778
10
16.9872084
20
11.9436718
11
16.9872084
21
12.2399718
0
LINE
8
DEFAULT_255_2_778
10
16.7872084
20
12.4399718
11
16.4871084
21
12.4402718
0
LINE
8
DEFAULT_255_2_778
10
13.98735
20
9.53515
11
14.38745
21
9.53515
0
LINE
8
DEFAULT_255_2_778
10
14.38745
20
9.53515
11
14.38745
21
9.13505
0
LINE
8
DEFAULT_255_2_778
10
14.38745
20
9.13505
11
13.98735
21
9.13505
0
LINE
8
DEFAULT_255_2_778
10
13.98735
20
9.13505
11
13.78735
21
8.93505
0
LINE
8
DEFAULT_255_2_778
10
13.78735
20
8.93505
11
14.58745
21
8.93505
0
LINE
8
DEFAULT_255_2_778
10
14.58745
20
8.93505
11
14.38745
21
9.13505
0
LINE
8
DEFAULT_255_2_778
10
13.98735
20
9.13505
11
13.98735
21
9.53515
0
LINE
8
DEFAULT_255_2_778
10
13.98735
20
9.53515
11
13.78735
21
9.73515
0
LINE
8
DEFAULT_255_2_778
10
13.78735
20
9.73515
11
13.78735
21
8.93505
0
LINE
8
DEFAULT_255_2_778
10
13.78735
20
9.73515
11
14.58745
21
9.73515
0
LINE
8
DEFAULT_255_2_778
10
14.58745
20
9.73515
11
14.38745
21
9.53515
0
LINE
8
DEFAULT_255_2_778
10
14.58745
20
8.93505
11
14.58745
21
9.73515
0
ARC
8
DEFAULT_255_2_778
10
14.1862274
20
9.3323199
40
0.9521392
50
226.2991653
51
270.0560812
0
ARC
8
DEFAULT_255_2_778
10
14.1844765
20
9.3340781
40
0.9522038
50
180.7053566
51
226.4484254
0
ARC
8
DEFAULT_255_2_778
10
14.2085932
20
9.3352707
40
0.9763338
50
180.0111166
51
180.7579108
0
ARC
8
DEFAULT_255_2_778
10
14.1840986
20
9.3361734
40
0.9518399
50
136.2952898
51
180.0657417
0
ARC
8
DEFAULT_255_2_778
10
14.1861645
20
9.3376555
40
0.9523126
50
90.7057693
51
136.4456307
0
ARC
8
DEFAULT_255_2_778
10
14.1873488
20
9.3136459
40
0.9763352
50
90.0111167
51
90.7579109
0
ARC
8
DEFAULT_255_2_778
10
14.1881001
20
9.3322075
40
0.9520267
50
269.9433838
51
313.7035481
0
ARC
8
DEFAULT_255_2_778
10
14.1895594
20
9.3342332
40
0.9524861
50
313.5558972
51
359.2855223
0
ARC
8
DEFAULT_255_2_778
10
14.1657663
20
9.3354545
40
0.9762931
50
359.2312676
51
359.9780939
0
ARC
8
DEFAULT_255_2_778
10
14.1899207
20
9.3360132
40
0.9521392
50
359.9439188
51
43.7008347
0
ARC
8
DEFAULT_255_2_778
10
14.1881625
20
9.3377641
40
0.9522038
50
43.5515746
51
89.2946434
0
ARC
8
DEFAULT_255_2_778
10
14.18697
20
9.3136474
40
0.9763338
50
89.2420892
51
89.9888834
0
ARC
8
DEFAULT_255_2_778
10
10.583538
20
9.3342766
40
1.5837575
50
325.4141498
51
349.0810055
0
ARC
8
DEFAULT_255_2_778
10
10.578585
20
9.3352147
40
1.5887984
50
349.0816228
51
359.9918509
0
LINE
8
DEFAULT_255_2_778
10
12.1673834
20
9.3349887
11
12.1673834
21
9.3352593
0
ARC
8
DEFAULT_255_2_778
10
10.5829161
20
9.3358052
40
1.5844674
50
359.980261
51
30.0121403
0
ARC
8
DEFAULT_255_2_778
10
10.5763214
20
9.3317476
40
1.5922074
50
30.0198762
51
34.5693679
0
ARC
8
DEFAULT_255_2_778
10
16.4873845
20
8.4342237
40
0.2010483
50
90.0786893
51
134.8444265
0
ARC
8
DEFAULT_255_2_778
10
16.4860796
20
8.4358552
40
0.1989715
50
134.9092863
51
180.1103822
0
ARC
8
DEFAULT_255_2_778
10
10.5805421
20
9.3353162
40
1.4864166
50
331.5224689
51
0.0079267
0
ARC
8
DEFAULT_255_2_778
10
10.5805421
20
9.3357283
40
1.4864163
50
359.992042
51
28.4775044
0
ARC
8
DEFAULT_255_2_778
10
16.4871173
20
10.2354806
40
0.2000089
50
180.0025037
51
269.9974617
0
ARC
8
DEFAULT_255_2_778
10
16.7873914
20
10.2352889
40
0.1998171
50
269.947541
51
0.052459
0
ARC
8
DEFAULT_255_2_778
10
16.7872635
20
8.4350269
40
0.1999449
50
359.9842058
51
90.0157942
0
LINE
8
DEFAULT_255_2_778
10
16.2874084
20
8.3802718
11
14.1874084
21
8.3802718
0
LINE
8
DEFAULT_255_2_778
10
14.1874084
20
8.3802718
11
12.6875084
21
8.3802718
0
LINE
8
DEFAULT_255_2_778
10
12.6875084
20
8.3802718
11
12.6875084
21
10.2902718
0
LINE
8
DEFAULT_255_2_778
10
12.6875084
20
10.2902718
11
14.1874084
21
10.2902718
0
LINE
8
DEFAULT_255_2_778
10
14.1874084
20
10.2902718
11
16.2874084
21
10.2902718
0
LINE
8
DEFAULT_255_2_778
10
17.5873084
20
9.7351718
11
17.4373084
21
9.7351718
0
LINE
8
DEFAULT_255_2_778
10
17.4373084
20
9.7351718
11
17.4373084
21
8.9350718
0
LINE
8
DEFAULT_255_2_778
10
17.4373084
20
8.9350718
11
17.5873084
21
8.9350718
0
LINE
8
DEFAULT_255_2_778
10
17.5873084
20
8.5849718
11
17.2872084
21
8.5849718
0
LINE
8
DEFAULT_255_2_778
10
17.2872084
20
8.5849718
11
17.2872084
21
8.0293718
0
LINE
8
DEFAULT_255_2_778
10
17.2872084
20
10.6408718
11
17.2872084
21
10.0851718
0
LINE
8
DEFAULT_255_2_778
10
17.2872084
20
10.0851718
11
17.5873084
21
10.0851718
0
LINE
8
DEFAULT_255_2_778
10
17.3772084
20
8.5852718
11
17.3772084
21
10.0851718
0
LINE
8
DEFAULT_255_2_778
10
16.2871084
20
8.4354718
11
16.2871084
21
7.6555718
0
LINE
8
DEFAULT_255_2_778
10
16.2871084
20
7.6555718
11
11.8871084
21
7.6555718
0
LINE
8
DEFAULT_255_2_778
10
11.8871084
20
7.6555718
11
11.8871084
21
8.6265718
0
LINE
8
DEFAULT_255_2_778
10
11.8871084
20
10.0444718
11
11.8871084
21
11.0154718
0
LINE
8
DEFAULT_255_2_778
10
11.8871084
20
11.0154718
11
16.2871084
21
11.0154718
0
LINE
8
DEFAULT_255_2_778
10
16.2871084
20
11.0154718
11
16.2871084
21
10.2354718
0
LINE
8
DEFAULT_255_2_778
10
16.4871084
20
10.0354718
11
16.7872084
21
10.0354718
0
LINE
8
DEFAULT_255_2_778
10
16.9872084
20
10.2354718
11
16.9872084
21
10.5317718
0
LINE
8
DEFAULT_255_2_778
10
16.9872084
20
10.5317718
11
17.5873084
21
10.7500718
0
LINE
8
DEFAULT_255_2_778
10
17.5873084
20
10.7500718
11
17.5873084
21
7.9203718
0
LINE
8
DEFAULT_255_2_778
10
17.5873084
20
7.9203718
11
16.9872084
21
8.1386718
0
LINE
8
DEFAULT_255_2_778
10
16.9872084
20
8.1386718
11
16.9872084
21
8.4349718
0
LINE
8
DEFAULT_255_2_778
10
16.7872084
20
8.6349718
11
16.4871084
21
8.6352718
0
LINE
8
DEFAULT_255_2_778
10
13.98735
20
20.95515
11
14.38745
21
20.95515
0
LINE
8
DEFAULT_255_2_778
10
14.38745
20
20.95515
11
14.38745
21
20.55505
0
LINE
8
DEFAULT_255_2_778
10
14.38745
20
20.55505
11
13.98735
21
20.55505
0
LINE
8
DEFAULT_255_2_778
10
13.98735
20
20.55505
11
13.78735
21
20.35505
0
LINE
8
DEFAULT_255_2_778
10
13.78735
20
20.35505
11
14.58745
21
20.35505
0
LINE
8
DEFAULT_255_2_778
10
14.58745
20
20.35505
11
14.38745
21
20.55505
0
LINE
8
DEFAULT_255_2_778
10
13.98735
20
20.55505
11
13.98735
21
20.95515
0
LINE
8
DEFAULT_255_2_778
10
13.98735
20
20.95515
11
13.78735
21
21.15515
0
LINE
8
DEFAULT_255_2_778
10
13.78735
20
21.15515
11
13.78735
21
20.35505
0
LINE
8
DEFAULT_255_2_778
10
13.78735
20
21.15515
11
14.58745
21
21.15515
0
LINE
8
DEFAULT_255_2_778
10
14.58745
20
21.15515
11
14.38745
21
20.95515
0
LINE
8
DEFAULT_255_2_778
10
14.58745
20
20.35505
11
14.58745
21
21.15515
0
ARC
8
DEFAULT_255_2_778
10
14.1862274
20
20.7523199
40
0.9521392
50
226.2991653
51
270.0560812
0
ARC
8
DEFAULT_255_2_778
10
14.1844765
20
20.7540781
40
0.9522038
50
180.7053566
51
226.4484254
0
ARC
8
DEFAULT_255_2_778
10
14.2085932
20
20.7552707
40
0.9763338
50
180.0111166
51
180.7579108
0
ARC
8
DEFAULT_255_2_778
10
14.1840986
20
20.7561734
40
0.9518399
50
136.2952898
51
180.0657417
0
ARC
8
DEFAULT_255_2_778
10
14.1861645
20
20.7576555
40
0.9523126
50
90.7057693
51
136.4456307
0
ARC
8
DEFAULT_255_2_778
10
14.1873488
20
20.7336459
40
0.9763352
50
90.0111167
51
90.7579109
0
ARC
8
DEFAULT_255_2_778
10
14.1881001
20
20.7522075
40
0.9520267
50
269.9433838
51
313.7035481
0
ARC
8
DEFAULT_255_2_778
10
14.1895594
20
20.7542332
40
0.9524861
50
313.5558972
51
359.2855223
0
ARC
8
DEFAULT_255_2_778
10
14.1657663
20
20.7554545
40
0.9762931
50
359.2312676
51
359.9780939
0
ARC
8
DEFAULT_255_2_778
10
14.1899207
20
20.7560132
40
0.9521392
50
359.9439188
51
43.7008347
0
ARC
8
DEFAULT_255_2_778
10
14.1881625
20
20.7577641
40
0.9522038
50
43.5515746
51
89.2946434
0
ARC
8
DEFAULT_255_2_778
10
14.18697
20
20.7336474
40
0.9763338
50
89.2420892
51
89.9888834
0
ARC
8
DEFAULT_255_2_778
10
10.583538
20
20.7542766
40
1.5837575
50
325.4141498
51
349.0810055
0
ARC
8
DEFAULT_255_2_778
10
10.578585
20
20.7552147
40
1.5887984
50
349.0816228
51
359.9918509
0
LINE
8
DEFAULT_255_2_778
10
12.1673834
20
20.7549887
11
12.1673834
21
20.7552593
0
ARC
8
DEFAULT_255_2_778
10
10.5829161
20
20.7558052
40
1.5844674
50
359.980261
51
30.0121403
0
ARC
8
DEFAULT_255_2_778
10
10.5763214
20
20.7517476
40
1.5922074
50
30.0198762
51
34.5693679
0
ARC
8
DEFAULT_255_2_778
10
16.4873845
20
19.8542237
40
0.2010483
50
90.0786893
51
134.8444265
0
ARC
8
DEFAULT_255_2_778
10
16.4860796
20
19.8558552
40
0.1989715
50
134.9092863
51
180.1103822
0
ARC
8
DEFAULT_255_2_778
10
10.5805421
20
20.7553162
40
1.4864166
50
331.5224689
51
0.0079267
0
ARC
8
DEFAULT_255_2_778
10
10.5805421
20
20.7557283
40
1.4864163
50
359.992042
51
28.4775044
0
ARC
8
DEFAULT_255_2_778
10
16.4871173
20
21.6554806
40
0.2000089
50
180.0025037
51
269.9974617
0
ARC
8
DEFAULT_255_2_778
10
16.7873914
20
21.6552889
40
0.1998171
50
269.947541
51
0.052459
0
ARC
8
DEFAULT_255_2_778
10
16.7872635
20
19.8550269
40
0.1999449
50
359.9842058
51
90.0157942
0
LINE
8
DEFAULT_255_2_778
10
16.2874084
20
19.8002718
11
14.1874084
21
19.8002718
0
LINE
8
DEFAULT_255_2_778
10
14.1874084
20
19.8002718
11
12.6875084
21
19.8002718
0
LINE
8
DEFAULT_255_2_778
10
12.6875084
20
19.8002718
11
12.6875084
21
21.7102718
0
LINE
8
DEFAULT_255_2_778
10
12.6875084
20
21.7102718
11
14.1874084
21
21.7102718
0
LINE
8
DEFAULT_255_2_778
10
14.1874084
20
21.7102718
11
16.2874084
21
21.7102718
0
LINE
8
DEFAULT_255_2_778
10
17.5873084
20
21.1551718
11
17.4373084
21
21.1551718
0
LINE
8
DEFAULT_255_2_778
10
17.4373084
20
21.1551718
11
17.4373084
21
20.3550718
0
LINE
8
DEFAULT_255_2_778
10
17.4373084
20
20.3550718
11
17.5873084
21
20.3550718
0
LINE
8
DEFAULT_255_2_778
10
17.5873084
20
20.0049718
11
17.2872084
21
20.0049718
0
LINE
8
DEFAULT_255_2_778
10
17.2872084
20
20.0049718
11
17.2872084
21
19.4493718
0
LINE
8
DEFAULT_255_2_778
10
17.2872084
20
22.0608718
11
17.2872084
21
21.5051718
0
LINE
8
DEFAULT_255_2_778
10
17.2872084
20
21.5051718
11
17.5873084
21
21.5051718
0
LINE
8
DEFAULT_255_2_778
10
17.3772084
20
20.0052718
11
17.3772084
21
21.5051718
0
LINE
8
DEFAULT_255_2_778
10
16.2871084
20
19.8554718
11
16.2871084
21
19.0755718
0
LINE
8
DEFAULT_255_2_778
10
16.2871084
20
19.0755718
11
11.8871084
21
19.0755718
0
LINE
8
DEFAULT_255_2_778
10
11.8871084
20
19.0755718
11
11.8871084
21
20.0465718
0
LINE
8
DEFAULT_255_2_778
10
11.8871084
20
21.4644718
11
11.8871084
21
22.4354718
0
LINE
8
DEFAULT_255_2_778
10
11.8871084
20
22.4354718
11
16.2871084
21
22.4354718
0
LINE
8
DEFAULT_255_2_778
10
16.2871084
20
22.4354718
11
16.2871084
21
21.6554718
0
LINE
8
DEFAULT_255_2_778
10
16.4871084
20
21.4554718
11
16.7872084
21
21.4554718
0
LINE
8
DEFAULT_255_2_778
10
16.9872084
20
21.6554718
11
16.9872084
21
21.9517718
0
LINE
8
DEFAULT_255_2_778
10
16.9872084
20
21.9517718
11
17.5873084
21
22.1700718
0
LINE
8
DEFAULT_255_2_778
10
17.5873084
20
22.1700718
11
17.5873084
21
19.3403718
0
LINE
8
DEFAULT_255_2_778
10
17.5873084
20
19.3403718
11
16.9872084
21
19.5586718
0
LINE
8
DEFAULT_255_2_778
10
16.9872084
20
19.5586718
11
16.9872084
21
19.8549718
0
LINE
8
DEFAULT_255_2_778
10
16.7872084
20
20.0549718
11
16.4871084
21
20.0552718
0
LINE
8
DEFAULT_255_2_778
10
13.80725
20
5.04065
11
14.60735
21
5.04065
0
LINE
8
DEFAULT_255_2_778
10
14.60735
20
5.04065
11
14.40735
21
5.24065
0
LINE
8
DEFAULT_255_2_778
10
14.60735
20
5.84075
11
14.60735
21
5.04065
0
LINE
8
DEFAULT_255_2_778
10
14.00725
20
5.24065
11
14.40735
21
5.24065
0
LINE
8
DEFAULT_255_2_778
10
14.40735
20
5.24065
11
14.40735
21
5.64075
0
LINE
8
DEFAULT_255_2_778
10
14.40735
20
5.64075
11
14.00725
21
5.64075
0
LINE
8
DEFAULT_255_2_778
10
14.00725
20
5.64075
11
14.00725
21
5.24065
0
LINE
8
DEFAULT_255_2_778
10
14.00725
20
5.24065
11
13.80725
21
5.04065
0
LINE
8
DEFAULT_255_2_778
10
13.80725
20
5.04065
11
13.80725
21
5.84075
0
LINE
8
DEFAULT_255_2_778
10
13.80725
20
5.84075
11
14.00725
21
5.64075
0
LINE
8
DEFAULT_255_2_778
10
14.40735
20
5.64075
11
14.60735
21
5.84075
0
LINE
8
DEFAULT_255_2_778
10
14.60735
20
5.84075
11
13.80725
21
5.84075
0
ARC
8
DEFAULT_255_2_778
10
14.2081197
20
5.4441543
40
0.9517275
50
46.2925763
51
90.0662771
0
ARC
8
DEFAULT_255_2_778
10
14.2093101
20
5.441821
40
0.9525949
50
0.7148901
51
46.4413082
0
ARC
8
DEFAULT_255_2_778
10
14.1856242
20
5.440608
40
0.9762946
50
0.0219063
51
0.7687326
0
ARC
8
DEFAULT_255_2_778
10
14.2098925
20
5.4400405
40
0.9520267
50
316.2964519
51
0.0566162
0
ARC
8
DEFAULT_255_2_778
10
14.2078668
20
5.4385813
40
0.9524861
50
270.7144777
51
316.4441028
0
ARC
8
DEFAULT_255_2_778
10
14.2066455
20
5.4623743
40
0.9762931
50
270.0219061
51
270.7687324
0
ARC
8
DEFAULT_255_2_778
10
14.2060868
20
5.4382199
40
0.9521392
50
226.2991653
51
270.0560812
0
ARC
8
DEFAULT_255_2_778
10
14.2043359
20
5.4399781
40
0.9522038
50
180.7053566
51
226.4484254
0
ARC
8
DEFAULT_255_2_778
10
14.2284526
20
5.4411707
40
0.9763338
50
180.0111166
51
180.7579108
0
ARC
8
DEFAULT_255_2_778
10
14.203958
20
5.4420734
40
0.9518399
50
136.2952898
51
180.0657417
0
ARC
8
DEFAULT_255_2_778
10
14.2060239
20
5.4435555
40
0.9523126
50
90.7057693
51
136.4456307
0
ARC
8
DEFAULT_255_2_778
10
14.2072082
20
5.4195459
40
0.9763352
50
90.0111167
51
90.7579109
0
LINE
8
DEFAULT_255_2_778
10
14.2070188
20
6.3958812
11
14.2070188
21
6.3958812
0
ARC
8
DEFAULT_255_2_778
10
13.9069814
20
3.6448874
40
0.2997853
50
179.976134
51
225.0256554
0
ARC
8
DEFAULT_255_2_778
10
13.9070619
20
3.6447747
40
0.2997625
50
224.9995408
51
270.0447635
0
ARC
8
DEFAULT_255_2_778
10
15.3072864
20
3.6451225
40
0.3001102
50
269.9827635
51
314.9729322
0
ARC
8
DEFAULT_255_2_778
10
15.3070863
20
3.6449217
40
0.3001097
50
315.0270485
51
0.0172913
0
ARC
8
DEFAULT_255_2_778
10
16.5073051
20
4.7912033
40
0.200009
50
90.0025871
51
179.9974272
0
ARC
8
DEFAULT_255_2_778
10
16.8073739
20
4.7907788
40
0.2004335
50
45.0831361
51
90.0222417
0
ARC
8
DEFAULT_255_2_778
10
16.808308
20
4.7917465
40
0.1990888
50
359.8462711
51
45.0768796
0
ARC
8
DEFAULT_255_2_778
10
16.8073016
20
6.0917067
40
0.2000945
50
269.9984046
51
359.972969
0
ARC
8
DEFAULT_255_2_778
10
16.5073049
20
6.091621
40
0.2000087
50
180.0025037
51
269.9974617
0
ARC
8
DEFAULT_255_2_778
10
3.8665187
20
92.6109091
40
0.1994226
50
134.8820617
51
179.9990902
0
ARC
8
DEFAULT_255_2_778
10
3.8670991
20
92.6114897
40
0.1994227
50
90.0008769
51
135.11793
0
ARC
8
DEFAULT_255_2_778
10
20.217293
20
92.6114895
40
0.1994228
50
44.8821046
51
89.9991112
0
ARC
8
DEFAULT_255_2_778
10
20.2183713
20
92.6113979
40
0.1987251
50
359.9686547
51
45.1202254
0
ARC
8
DEFAULT_255_2_778
10
20.2396035
20
92.6111949
40
0.1774929
50
359.9087633
51
0.0304103
0
ARC
8
DEFAULT_255_2_778
10
20.2162111
20
76.2595124
40
0.2008906
50
0.0001082
51
0.4277961
0
ARC
8
DEFAULT_255_2_778
10
20.2182119
20
76.2595006
40
0.1988898
50
315.060266
51
0.0034957
0
ARC
8
DEFAULT_255_2_778
10
20.2185078
20
76.2597965
40
0.1988898
50
269.9965043
51
314.939734
0
ARC
8
DEFAULT_255_2_778
10
20.218496
20
76.2617973
40
0.2008906
50
269.5722039
51
269.9998918
0
LINE
8
DEFAULT_255_2_778
10
3.8670961
20
76.0609123
11
3.8667192
21
76.0609119
0
ARC
8
DEFAULT_255_2_778
10
3.8666105
20
76.259637
40
0.1987251
50
224.8797746
51
270.0313453
0
ARC
8
DEFAULT_255_2_778
10
3.8665179
20
76.260715
40
0.1994219
50
180.0007861
51
225.1180226
0
LINE
8
DEFAULT_255_2_778
10
16.3072961
20
6.3959123
11
12.6708961
21
6.3959123
0
LINE
8
DEFAULT_255_2_778
10
12.6708961
20
6.3959123
11
12.6708961
21
4.4504123
0
LINE
8
DEFAULT_255_2_778
10
15.6074961
20
3.7606123
11
15.6074961
21
3.7678123
0
LINE
8
DEFAULT_255_2_778
10
15.6074961
20
3.7678123
11
13.6074961
21
3.7678123
0
LINE
8
DEFAULT_255_2_778
10
13.6074961
20
3.7678123
11
13.6074961
21
3.7606123
0
LINE
8
DEFAULT_255_2_778
10
16.3075961
20
4.4560123
11
12.7073961
21
4.4560123
0
LINE
8
DEFAULT_255_2_778
10
17.6073961
20
5.0410123
11
17.4573961
21
5.0410123
0
LINE
8
DEFAULT_255_2_778
10
17.4573961
20
5.0410123
11
17.4573961
21
5.8411123
0
LINE
8
DEFAULT_255_2_778
10
17.4573961
20
5.8411123
11
17.6073961
21
5.8411123
0
LINE
8
DEFAULT_255_2_778
10
17.6073961
20
6.1911123
11
17.3070961
21
6.1911123
0
LINE
8
DEFAULT_255_2_778
10
17.3070961
20
6.1911123
11
17.3070961
21
6.7467123
0
LINE
8
DEFAULT_255_2_778
10
17.3970961
20
6.1911123
11
17.3970961
21
4.6912123
0
LINE
8
DEFAULT_255_2_778
10
17.3070961
20
4.1356123
11
17.3070961
21
4.6912123
0
LINE
8
DEFAULT_255_2_778
10
17.3070961
20
4.6912123
11
17.6071961
21
4.6912123
0
LINE
8
DEFAULT_255_2_778
10
11.9072961
20
3.7609123
11
13.6071961
21
3.7609123
0
LINE
8
DEFAULT_255_2_778
10
13.6071961
20
3.7609123
11
13.6071961
21
3.6450123
0
LINE
8
DEFAULT_255_2_778
10
13.9072961
20
3.3450123
11
15.3071961
21
3.3450123
0
LINE
8
DEFAULT_255_2_778
10
15.6071961
20
3.6450123
11
15.6071961
21
3.7609123
0
LINE
8
DEFAULT_255_2_778
10
15.6071961
20
3.7609123
11
16.3072961
21
3.7609123
0
LINE
8
DEFAULT_255_2_778
10
16.3072961
20
3.7609123
11
16.3072961
21
4.7912123
0
LINE
8
DEFAULT_255_2_778
10
16.5072961
20
4.9912123
11
16.8072961
21
4.9912123
0
LINE
8
DEFAULT_255_2_778
10
17.0073961
20
4.7912123
11
17.0073961
21
4.7412123
0
LINE
8
DEFAULT_255_2_778
10
17.0073961
20
4.7412123
11
17.0073961
21
4.2448123
0
LINE
8
DEFAULT_255_2_778
10
17.0073961
20
4.2448123
11
17.6073961
21
4.0265123
0
LINE
8
DEFAULT_255_2_778
10
17.6073961
20
4.0265123
11
17.6073961
21
6.8563123
0
LINE
8
DEFAULT_255_2_778
10
17.6073961
20
6.8563123
11
17.0073961
21
6.6380123
0
LINE
8
DEFAULT_255_2_778
10
17.0073961
20
6.6380123
11
17.0073961
21
6.0916123
0
LINE
8
DEFAULT_255_2_778
10
16.8072961
20
5.8916123
11
16.5072961
21
5.8916123
0
LINE
8
DEFAULT_255_2_778
10
16.3072961
20
6.0916123
11
16.3072961
21
6.1416123
0
LINE
8
DEFAULT_255_2_778
10
16.3072961
20
6.1416123
11
16.3072961
21
7.1216123
0
LINE
8
DEFAULT_255_2_778
10
16.3072961
20
7.1216123
11
11.9072961
21
7.1216123
0
LINE
8
DEFAULT_255_2_778
10
11.9072961
20
7.1216123
11
11.9072961
21
3.7506123
0
LINE
8
DEFAULT_255_2_778
10
3.5421961
20
92.9358123
11
3.5421961
21
75.9358123
0
LINE
8
DEFAULT_255_2_778
10
3.5421961
20
75.9358123
11
20.5421961
21
75.9358123
0
LINE
8
DEFAULT_255_2_778
10
20.5421961
20
75.9358123
11
20.5421961
21
92.9358123
0
LINE
8
DEFAULT_255_2_778
10
20.5421961
20
92.9358123
11
3.5421961
21
92.9358123
0
LINE
8
DEFAULT_255_2_778
10
3.8670961
20
92.8109123
11
20.2172961
21
92.8109123
0
LINE
8
DEFAULT_255_2_778
10
20.4170961
20
92.6109123
11
20.4170961
21
76.2610123
0
LINE
8
DEFAULT_255_2_778
10
20.2169961
20
76.0609123
11
3.8670961
21
76.0609123
0
LINE
8
DEFAULT_255_2_778
10
3.6672961
20
92.6109123
11
3.6672961
21
76.2610123
0
ARC
8
DEFAULT_255_2_778
10
8.4305528
20
95.5076118
40
0.6882221
50
70.6313466
51
91.0764067
0
ARC
8
DEFAULT_255_2_778
10
8.5044415
20
95.7335317
40
0.4506138
50
48.2112649
51
69.9678105
0
ARC
8
DEFAULT_255_2_778
10
8.5173821
20
95.7528615
40
0.42759
50
357.6880527
51
47.7781184
0
ARC
8
DEFAULT_255_2_778
10
8.4630098
20
95.721952
40
0.481808
50
332.7189333
51
1.6246975
0
ARC
8
DEFAULT_255_2_778
10
8.5664194
20
95.678888
40
0.3702746
50
310.7100467
51
331.3068779
0
ARC
8
DEFAULT_255_2_778
10
8.4989877
20
95.7735492
40
0.4861268
50
278.6520548
51
309.4574966
0
ARC
8
DEFAULT_255_2_778
10
8.4214784
20
96.1551429
40
0.8752492
50
269.6233082
51
279.9105233
0
ARC
8
DEFAULT_255_2_778
10
8.4303632
20
95.8726876
40
0.4304636
50
268.3041425
51
292.79055
0
ARC
8
DEFAULT_255_2_778
10
8.4907481
20
95.7117521
40
0.2587879
50
294.2674687
51
311.2927777
0
ARC
8
DEFAULT_255_2_778
10
8.4783802
20
95.7126629
40
0.267775
50
313.1528306
51
1.6951732
0
ARC
8
DEFAULT_255_2_778
10
8.2878988
20
95.7336476
40
0.4583254
50
358.3667185
51
0.0081139
0
ARC
8
DEFAULT_255_2_778
10
8.4632986
20
95.746531
40
0.2832157
50
357.4058756
51
45.5802223
0
ARC
8
DEFAULT_255_2_778
10
8.445483
20
95.7084938
40
0.3231514
50
48.0451703
51
89.2860571
0
ARC
8
DEFAULT_255_2_778
10
8.4187899
20
95.5026326
40
0.5298787
50
86.6764125
51
88.8933037
0
ARC
8
DEFAULT_255_2_778
10
8.302607
20
96.6290328
40
1.8332886
50
318.1927057
51
323.5221614
0
ARC
8
DEFAULT_255_2_778
10
9.2054639
20
95.9628875
40
0.7112829
50
323.4319123
51
331.2264788
0
ARC
8
DEFAULT_255_2_778
10
9.5161752
20
95.7919427
40
0.3566513
50
331.2710781
51
359.7862962
0
ARC
8
DEFAULT_255_2_778
10
9.6035336
20
95.8007909
40
0.2694828
50
357.8354195
51
42.7489932
0
ARC
8
DEFAULT_255_2_778
10
9.6222702
20
95.8093974
40
0.2499637
50
44.2157001
51
92.555724
0
ARC
8
DEFAULT_255_2_778
10
9.5970985
20
95.7469375
40
0.3124899
50
87.4275177
51
125.1733766
0
ARC
8
DEFAULT_255_2_778
10
9.5660725
20
95.8059841
40
0.2465036
50
127.1850162
51
135.7757917
0
ARC
8
DEFAULT_255_2_778
10
9.6102284
20
95.7756731
40
0.299425
50
137.512759
51
180.2753137
0
ARC
8
DEFAULT_255_2_778
10
9.8133422
20
95.7522044
40
0.5030179
50
177.4899009
51
180.0218569
0
ARC
8
DEFAULT_255_2_778
10
9.5628178
20
95.7698358
40
0.4441515
50
134.2444288
51
182.2998303
0
ARC
8
DEFAULT_255_2_778
10
9.5756941
20
95.7390657
40
0.4753361
50
92.318876
51
132.7683191
0
ARC
8
DEFAULT_255_2_778
10
9.610458
20
95.4862195
40
0.7297933
50
89.9477031
51
94.2431115
0
ARC
8
DEFAULT_255_2_778
10
9.6244195
20
95.6616893
40
0.5544826
50
66.7501104
51
91.3739694
0
ARC
8
DEFAULT_255_2_778
10
9.6824801
20
95.816388
40
0.389504
50
48.0366279
51
65.6143615
0
ARC
8
DEFAULT_255_2_778
10
9.689926
20
95.8287746
40
0.375325
50
357.6083799
51
47.6174594
0
ARC
8
DEFAULT_255_2_778
10
9.5802451
20
95.8260967
40
0.4848529
50
333.6632631
51
358.46545
0
ARC
8
DEFAULT_255_2_778
10
9.0760531
20
96.0600047
40
1.0405781
50
322.2978874
51
334.4371153
0
ARC
8
DEFAULT_255_2_778
10
8.4224892
20
96.5467068
40
1.8553817
50
317.1085414
51
322.7491185
0
ARC
8
DEFAULT_255_2_778
10
10.4321961
20
95.3201946
40
1.4321818
50
350.7586006
51
0.4967946
0
ARC
8
DEFAULT_255_2_778
10
11.1444715
20
95.1987799
40
0.7096737
50
333.846042
51
351.1987254
0
ARC
8
DEFAULT_255_2_778
10
11.3789868
20
95.0921324
40
0.4522257
50
325.0875022
51
332.8776948
0
ARC
8
DEFAULT_255_2_778
10
11.4366596
20
95.058533
40
0.3857412
50
273.0550246
51
324.2772085
0
ARC
8
DEFAULT_255_2_778
10
11.3924071
20
95.3222513
40
0.6521399
50
269.896064
51
275.7035477
0
ARC
8
DEFAULT_255_2_778
10
11.3778001
20
95.1646271
40
0.4946968
50
244.5583795
51
271.5549585
0
ARC
8
DEFAULT_255_2_778
10
11.3283194
20
95.040299
40
0.3612746
50
215.6156356
51
243.1740282
0
ARC
8
DEFAULT_255_2_778
10
11.51427
20
95.160692
40
0.5826451
50
192.3016926
51
214.5914129
0
ARC
8
DEFAULT_255_2_778
10
12.0896131
20
95.299145
40
1.1743452
50
181.4670895
51
192.9209371
0
ARC
8
DEFAULT_255_2_778
10
12.611401
20
95.3296364
40
1.6968291
50
180.7673276
51
182.0452536
0
ARC
8
DEFAULT_255_2_778
10
12.3016276
20
95.5747789
40
1.3869596
50
170.5005749
51
180.5150005
0
ARC
8
DEFAULT_255_2_778
10
11.6074324
20
95.6967416
40
0.6821793
50
152.7817672
51
170.9811527
0
ARC
8
DEFAULT_255_2_778
10
11.3889683
20
95.799998
40
0.4407523
50
144.6167633
51
151.7289566
0
ARC
8
DEFAULT_255_2_778
10
11.3406273
20
95.8280449
40
0.3851339
50
93.6920919
51
143.8542976
0
ARC
8
DEFAULT_255_2_778
10
11.3876618
20
95.558595
40
0.657719
50
89.8726145
51
96.2702659
0
ARC
8
DEFAULT_255_2_778
10
11.4023371
20
95.6999086
40
0.5165729
50
66.3349098
51
91.4656819
0
ARC
8
DEFAULT_255_2_778
10
11.4606965
20
95.8512656
40
0.3545942
50
36.2043243
51
65.1550684
0
ARC
8
DEFAULT_255_2_778
10
11.2991554
20
95.7462659
40
0.5470685
50
12.7203506
51
35.0845568
0
ARC
8
DEFAULT_255_2_778
10
10.723565
20
95.6031281
40
1.1401226
50
1.906413
51
13.3678295
0
ARC
8
DEFAULT_255_2_778
10
10.143075
20
95.5661588
40
1.7216114
50
0.4876853
51
2.4934115
0
ARC
8
DEFAULT_255_2_778
10
10.4998006
20
95.6062605
40
1.1732843
50
359.4165249
51
8.8801982
0
ARC
8
DEFAULT_255_2_778
10
11.192132
20
95.7210112
40
0.4715826
50
8.090343
51
27.4746143
0
ARC
8
DEFAULT_255_2_778
10
11.3680024
20
95.8030246
40
0.2778365
50
29.2020418
51
31.5287257
0
ARC
8
DEFAULT_255_2_778
10
11.4049058
20
95.825141
40
0.234816
50
31.6376039
51
93.9025932
0
ARC
8
DEFAULT_255_2_778
10
11.3727949
20
95.8281076
40
0.2318666
50
86.0111436
51
148.6288938
0
ARC
8
DEFAULT_255_2_778
10
11.567293
20
95.7261969
40
0.451209
50
150.4373036
51
170.8727137
0
ARC
8
DEFAULT_255_2_778
10
12.193527
20
95.6102947
40
1.0880039
50
170.0776966
51
180.0780568
0
ARC
8
DEFAULT_255_2_778
10
12.2529402
20
95.2907469
40
1.1474817
50
179.3875483
51
189.4125742
0
ARC
8
DEFAULT_255_2_778
10
11.588951
20
95.174395
40
0.4734444
50
188.6628385
51
208.7301915
0
ARC
8
DEFAULT_255_2_778
10
11.4280539
20
95.0960899
40
0.2948424
50
210.4163789
51
211.3002919
0
ARC
8
DEFAULT_255_2_778
10
11.3788573
20
95.0610601
40
0.2346479
50
210.232513
51
272.8988331
0
ARC
8
DEFAULT_255_2_778
10
11.4042294
20
95.0576503
40
0.2313324
50
266.6531451
51
328.3351527
0
ARC
8
DEFAULT_255_2_778
10
11.2218422
20
95.1577271
40
0.4392306
50
329.7134965
51
350.5352521
0
ARC
8
DEFAULT_255_2_778
10
10.5752779
20
95.2817579
40
1.0975057
50
349.6988452
51
359.8043003
0
ARC
8
DEFAULT_255_2_778
10
10.01255
20
95.3020353
40
1.660401
50
359.1708995
51
359.2917956
0
ARC
8
DEFAULT_255_2_778
10
12.8213687
20
95.4717854
40
0.5627359
50
89.6787299
51
116.7499198
0
ARC
8
DEFAULT_255_2_778
10
12.7719151
20
95.5896645
40
0.4353042
50
117.9209065
51
134.1104813
0
ARC
8
DEFAULT_255_2_778
10
12.8279585
20
95.5450293
40
0.506444
50
135.1480999
51
170.1357554
0
ARC
8
DEFAULT_255_2_778
10
13.1151176
20
95.4726369
40
0.8020651
50
168.5548537
51
175.0666155
0
ARC
8
DEFAULT_255_2_778
10
12.6205602
20
95.2713487
40
0.4071667
50
87.4437421
51
138.4122054
0
ARC
8
DEFAULT_255_2_778
10
12.6404036
20
95.0352969
40
0.6428157
50
90.0070832
51
90.1500649
0
ARC
8
DEFAULT_255_2_778
10
12.6556058
20
95.2876333
40
0.3907781
50
40.1901086
51
92.2411661
0
ARC
8
DEFAULT_255_2_778
10
12.5579307
20
95.2154136
40
0.5120585
50
2.2589543
51
39.3102491
0
ARC
8
DEFAULT_255_2_778
10
12.3047108
20
95.1826114
40
0.7667135
50
359.9552458
51
3.9627143
0
ARC
8
DEFAULT_255_2_778
10
12.4621293
20
95.1687169
40
0.6094398
50
336.7061244
51
1.2500643
0
ARC
8
DEFAULT_255_2_778
10
12.610344
20
95.1136722
40
0.4516108
50
317.7480241
51
335.6843724
0
ARC
8
DEFAULT_255_2_778
10
12.6245743
20
95.1063722
40
0.4361892
50
267.4574165
51
317.200928
0
ARC
8
DEFAULT_255_2_778
10
12.5941808
20
95.1002806
40
0.42981
50
217.8564566
51
271.4722802
0
ARC
8
DEFAULT_255_2_778
10
12.7393911
20
95.2170111
40
0.6161042
50
184.4559014
51
218.1402207
0
ARC
8
DEFAULT_255_2_778
10
13.0400435
20
95.2622604
40
0.9196208
50
179.9032974
51
185.8113973
0
ARC
8
DEFAULT_255_2_778
10
13.604445
20
95.3496925
40
1.4840743
50
169.2519056
51
180.485684
0
ARC
8
DEFAULT_255_2_778
10
12.9824409
20
95.4731628
40
0.8499725
50
149.8804645
51
169.6095683
0
ARC
8
DEFAULT_255_2_778
10
12.7935312
20
95.5726539
40
0.6367039
50
141.1425347
51
149.094115
0
ARC
8
DEFAULT_255_2_778
10
12.7573585
20
95.5938196
40
0.5952892
50
98.3778866
51
140.5445985
0
ARC
8
DEFAULT_255_2_778
10
12.8356956
20
95.2379818
40
0.9590867
50
90.6196053
51
99.9107066
0
ARC
8
DEFAULT_255_2_778
10
12.6080234
20
95.2136196
40
0.3052935
50
89.887271
51
126.2212321
0
ARC
8
DEFAULT_255_2_778
10
12.6031671
20
95.2051521
40
0.3093836
50
124.5688379
51
159.7939236
0
ARC
8
DEFAULT_255_2_778
10
12.8808143
20
95.2285469
40
0.5681405
50
178.6822509
51
201.5362532
0
ARC
8
DEFAULT_255_2_778
10
12.7049335
20
95.1673101
40
0.3821351
50
202.6762157
51
216.1640533
0
ARC
8
DEFAULT_255_2_778
10
12.6064104
20
95.078642
40
0.2506324
50
213.0887393
51
269.7288
0
ARC
8
DEFAULT_255_2_778
10
12.6152231
20
95.0714421
40
0.2436349
50
267.6478607
51
322.4661681
0
ARC
8
DEFAULT_255_2_778
10
12.503024
20
95.1466358
40
0.378519
50
323.7872706
51
359.3735076
0
ARC
8
DEFAULT_255_2_778
10
12.2741815
20
95.1717453
40
0.6080427
50
357.2428783
51
0.0251798
0
ARC
8
DEFAULT_255_2_778
10
12.4576388
20
95.1854842
40
0.4247989
50
358.1826582
51
27.7082468
0
ARC
8
DEFAULT_255_2_778
10
12.5614992
20
95.230163
40
0.3121966
50
29.3118436
51
38.0564106
0
ARC
8
DEFAULT_255_2_778
10
12.6154872
20
95.2779537
40
0.2402656
50
37.0189172
51
91.7084316
0
ARC
8
DEFAULT_255_2_778
10
13.8574175
20
95.4088402
40
0.7869746
50
74.0091615
51
90.9241886
0
ARC
8
DEFAULT_255_2_778
10
13.9490139
20
95.7334361
40
0.4497074
50
50.3742087
51
73.8347742
0
ARC
8
DEFAULT_255_2_778
10
13.9758176
20
95.7824935
40
0.3949708
50
2.5167084
51
48.8301942
0
ARC
8
DEFAULT_255_2_778
10
13.7238544
20
95.743877
40
0.6489703
50
359.9236702
51
4.9466858
0
ARC
8
DEFAULT_255_2_778
10
13.9671564
20
95.7344299
40
0.4057585
50
324.3624616
51
1.212003
0
ARC
8
DEFAULT_255_2_778
10
13.934728
20
95.7673249
40
0.4513482
50
289.5179088
51
323.367197
0
ARC
8
DEFAULT_255_2_778
10
13.8644386
20
95.8296628
40
0.3682021
50
267.8809732
51
300.7386519
0
ARC
8
DEFAULT_255_2_778
10
13.9034297
20
95.747074
40
0.2774236
50
302.5357013
51
311.1611356
0
ARC
8
DEFAULT_255_2_778
10
13.9154115
20
95.7319301
40
0.2581379
50
311.3712872
51
2.3939385
0
ARC
8
DEFAULT_255_2_778
10
13.8882946
20
95.7570449
40
0.2853896
50
357.1213564
51
38.2671304
0
ARC
8
DEFAULT_255_2_778
10
13.9340004
20
95.7822831
40
0.2340278
50
40.3465449
51
48.1879849
0
ARC
8
DEFAULT_255_2_778
10
13.8889501
20
95.7153214
40
0.3141663
50
50.2063705
51
86.0498072
0
ARC
8
DEFAULT_255_2_778
10
13.8471662
20
95.452023
40
0.5801956
50
83.7239257
51
89.7375257
0
ARC
8
DEFAULT_255_2_778
10
16.2690761
20
95.5109515
40
0.6848931
50
60.8176109
51
91.1254253
0
ARC
8
DEFAULT_255_2_778
10
16.3101359
20
95.5991219
40
0.587937
50
26.5385939
51
60.1214904
0
ARC
8
DEFAULT_255_2_778
10
16.1220394
20
95.5070886
40
0.7973368
50
359.969609
51
26.4160346
0
ARC
8
DEFAULT_255_2_778
10
15.8671602
20
95.4881661
40
1.0523784
50
0.3019703
51
1.0072471
0
ARC
8
DEFAULT_255_2_778
10
16.0822502
20
95.3839436
40
0.8373871
50
338.4187151
51
0.9421376
0
ARC
8
DEFAULT_255_2_778
10
16.2360478
20
95.3334735
40
0.6758759
50
332.8076663
51
337.6016544
0
ARC
8
DEFAULT_255_2_778
10
16.3188738
20
95.2841929
40
0.5797146
50
299.2941256
51
333.3991262
0
ARC
8
DEFAULT_255_2_778
10
16.2577228
20
95.4126492
40
0.7217275
50
270.1842543
51
298.5381955
0
ARC
8
DEFAULT_255_2_778
10
16.2375024
20
95.6524871
40
0.9618258
50
270.5910423
51
271.3429036
0
ARC
8
DEFAULT_255_2_778
10
16.2518502
20
95.3677869
40
0.5150573
50
268.4729001
51
296.9382406
0
ARC
8
DEFAULT_255_2_778
10
16.2943131
20
95.2637829
40
0.4032078
50
298.2544041
51
318.2915706
0
ARC
8
DEFAULT_255_2_778
10
16.2153461
20
95.3209714
40
0.5003067
50
319.4192665
51
351.4940536
0
ARC
8
DEFAULT_255_2_778
10
15.8453421
20
95.3962571
40
0.8775983
50
350.2058619
51
0.3496369
0
ARC
8
DEFAULT_255_2_778
10
15.9461117
20
95.5022804
40
0.7769173
50
359.0583544
51
16.7830781
0
ARC
8
DEFAULT_255_2_778
10
16.2436669
20
95.5892879
40
0.4669205
50
17.1042586
51
39.7751168
0
ARC
8
DEFAULT_255_2_778
10
16.2885505
20
95.6145415
40
0.4163721
50
41.0558685
51
88.6722678
0
ARC
8
DEFAULT_255_2_778
10
16.2547448
20
95.3757495
40
0.6564921
50
86.2047868
51
89.4606942
0
LINE
8
DEFAULT_255_2_778
10
8.4155241
20
95.2799125
11
8.0609241
21
95.2799125
0
LINE
8
DEFAULT_255_2_778
10
8.0609241
20
95.2799125
11
8.0609241
21
94.6907125
0
LINE
8
DEFAULT_255_2_778
10
8.0609241
20
94.6907125
11
7.8625241
21
94.6907125
0
LINE
8
DEFAULT_255_2_778
10
7.8625241
20
94.6907125
11
7.8625241
21
96.1957125
0
LINE
8
DEFAULT_255_2_778
10
7.8625241
20
96.1957125
11
8.4176241
21
96.1957125
0
LINE
8
DEFAULT_255_2_778
10
8.4157241
20
95.2799125
11
8.4155241
21
95.2799125
0
LINE
8
DEFAULT_255_2_778
10
8.0609241
20
96.0324125
11
8.0609241
21
95.4424125
0
LINE
8
DEFAULT_255_2_778
10
8.0609241
20
95.4424125
11
8.4176241
21
95.4424125
0
LINE
8
DEFAULT_255_2_778
10
8.4290241
20
96.0324125
11
8.0609241
21
96.0324125
0
LINE
8
DEFAULT_255_2_778
10
8.0609241
20
96.0324125
11
8.0609241
21
96.0324125
0
LINE
8
DEFAULT_255_2_778
10
10.1342241
20
94.8468125
11
10.1342241
21
94.6907125
0
LINE
8
DEFAULT_255_2_778
10
10.1342241
20
94.6907125
11
9.1481241
21
94.6907125
0
LINE
8
DEFAULT_255_2_778
10
9.1481241
20
94.6907125
11
9.1481241
21
94.8283125
0
LINE
8
DEFAULT_255_2_778
10
9.1481241
20
94.8283125
11
9.6691241
21
95.4069125
0
LINE
8
DEFAULT_255_2_778
10
9.3103241
20
95.7520125
11
9.1190241
21
95.7520125
0
LINE
8
DEFAULT_255_2_778
10
9.7818241
20
95.2839125
11
9.3788241
21
94.8468125
0
LINE
8
DEFAULT_255_2_778
10
9.3788241
20
94.8468125
11
10.1342241
21
94.8468125
0
LINE
8
DEFAULT_255_2_778
10
10.1342241
20
94.8468125
11
10.1342241
21
94.8468125
0
LINE
8
DEFAULT_255_2_778
10
10.7541241
20
95.4080125
11
10.7541241
21
95.2519125
0
LINE
8
DEFAULT_255_2_778
10
10.7541241
20
95.2519125
11
10.2498241
21
95.2519125
0
LINE
8
DEFAULT_255_2_778
10
10.2498241
20
95.2519125
11
10.2498241
21
95.4080125
0
LINE
8
DEFAULT_255_2_778
10
10.2498241
20
95.4080125
11
10.7541241
21
95.4080125
0
LINE
8
DEFAULT_255_2_778
10
10.7541241
20
95.4080125
11
10.7541241
21
95.4080125
0
LINE
8
DEFAULT_255_2_778
10
11.8643241
20
95.5808125
11
11.8643241
21
95.3326125
0
LINE
8
DEFAULT_255_2_778
10
10.9147241
20
95.3069125
11
10.9147241
21
95.5623125
0
LINE
8
DEFAULT_255_2_778
10
11.8646241
20
95.5808125
11
11.8643241
21
95.5808125
0
LINE
8
DEFAULT_255_2_778
10
11.6730241
20
95.2810125
11
11.6730241
21
95.5943125
0
LINE
8
DEFAULT_255_2_778
10
11.1055241
20
95.6088125
11
11.1055241
21
95.3030125
0
LINE
8
DEFAULT_255_2_778
10
11.6728241
20
95.2815125
11
11.6730241
21
95.2810125
0
LINE
8
DEFAULT_255_2_778
10
12.8256241
20
96.1967125
11
12.8597241
21
96.1967125
0
LINE
8
DEFAULT_255_2_778
10
12.8597241
20
96.1967125
11
12.8597241
21
96.0345125
0
LINE
8
DEFAULT_255_2_778
10
12.8597241
20
96.0345125
11
12.8245241
21
96.0345125
0
LINE
8
DEFAULT_255_2_778
10
12.1204241
20
95.2638125
11
12.1204241
21
95.3371125
0
LINE
8
DEFAULT_255_2_778
10
12.8253241
20
96.1970125
11
12.8256241
21
96.1967125
0
LINE
8
DEFAULT_255_2_778
10
12.3128241
20
95.3120125
11
12.3128241
21
95.2416125
0
LINE
8
DEFAULT_255_2_778
10
12.6083241
20
95.5181125
11
12.6086241
21
95.5189125
0
LINE
8
DEFAULT_255_2_778
10
14.2260241
20
94.6907125
11
13.8995241
21
95.2995125
0
LINE
8
DEFAULT_255_2_778
10
13.8995241
20
95.2995125
11
13.5460241
21
95.2995125
0
LINE
8
DEFAULT_255_2_778
10
13.5460241
20
95.2995125
11
13.5460241
21
94.6907125
0
LINE
8
DEFAULT_255_2_778
10
13.5460241
20
94.6907125
11
13.3465241
21
94.6907125
0
LINE
8
DEFAULT_255_2_778
10
13.3465241
20
94.6907125
11
13.3465241
21
96.1957125
0
LINE
8
DEFAULT_255_2_778
10
13.3465241
20
96.1957125
11
13.8447241
21
96.1957125
0
LINE
8
DEFAULT_255_2_778
10
14.0855241
20
95.3419125
11
14.4390241
21
94.7031125
0
LINE
8
DEFAULT_255_2_778
10
14.4390241
20
94.7031125
11
14.4390241
21
94.6907125
0
LINE
8
DEFAULT_255_2_778
10
14.4390241
20
94.6907125
11
14.2260241
21
94.6907125
0
LINE
8
DEFAULT_255_2_778
10
14.2260241
20
94.6907125
11
14.2260241
21
94.6907125
0
LINE
8
DEFAULT_255_2_778
10
13.5460241
20
96.0322125
11
13.5460241
21
95.4617125
0
LINE
8
DEFAULT_255_2_778
10
13.5460241
20
95.4617125
11
13.8508241
21
95.4617125
0
LINE
8
DEFAULT_255_2_778
10
13.8498241
20
96.0322125
11
13.5460241
21
96.0322125
0
LINE
8
DEFAULT_255_2_778
10
13.5460241
20
96.0322125
11
13.5460241
21
96.0322125
0
LINE
8
DEFAULT_255_2_778
10
15.6076241
20
96.1957125
11
15.6076241
21
96.0324125
0
LINE
8
DEFAULT_255_2_778
10
15.6076241
20
96.0324125
11
15.1240241
21
96.0324125
0
LINE
8
DEFAULT_255_2_778
10
15.1240241
20
96.0324125
11
15.1240241
21
94.6910125
0
LINE
8
DEFAULT_255_2_778
10
15.1240241
20
94.6910125
11
14.9266241
21
94.6910125
0
LINE
8
DEFAULT_255_2_778
10
14.9266241
20
94.6910125
11
14.9266241
21
96.0324125
0
LINE
8
DEFAULT_255_2_778
10
14.9266241
20
96.0324125
11
14.4440241
21
96.0324125
0
LINE
8
DEFAULT_255_2_778
10
14.4440241
20
96.0324125
11
14.4440241
21
96.1957125
0
LINE
8
DEFAULT_255_2_778
10
14.4440241
20
96.1957125
11
15.6076241
21
96.1957125
0
LINE
8
DEFAULT_255_2_778
10
15.6076241
20
96.1957125
11
15.6076241
21
96.1957125
0
LINE
8
DEFAULT_255_2_778
10
16.2474241
20
94.6907125
11
15.8310241
21
94.6907125
0
LINE
8
DEFAULT_255_2_778
10
15.8310241
20
94.6907125
11
15.8310241
21
96.1957125
0
LINE
8
DEFAULT_255_2_778
10
15.8310241
20
96.1957125
11
16.2556241
21
96.1957125
0
LINE
8
DEFAULT_255_2_778
10
16.9195241
20
95.4937125
11
16.9195241
21
95.3977125
0
LINE
8
DEFAULT_255_2_778
10
16.2474241
20
94.6907125
11
16.2474241
21
94.6907125
0
LINE
8
DEFAULT_255_2_778
10
16.2609241
20
96.0322125
11
16.0294241
21
96.0322125
0
LINE
8
DEFAULT_255_2_778
10
16.0294241
20
96.0322125
11
16.0294241
21
94.8529125
0
LINE
8
DEFAULT_255_2_778
10
16.0294241
20
94.8529125
11
16.2381241
21
94.8529125
0
LINE
8
DEFAULT_255_2_778
10
16.7229241
20
95.4016125
11
16.7229241
21
95.4895125
0
LINE
8
DEFAULT_255_2_778
10
16.2609241
20
96.0322125
11
16.2609241
21
96.0322125
0
LINE
8
DEFAULT_255_2_778
10
9.8106803
20
56.7347583
11
9.8106803
21
56.9146583
0
LINE
8
DEFAULT_255_2_778
10
9.8106803
20
56.9146583
11
2.1110803
21
56.9146583
0
LINE
8
DEFAULT_255_2_778
10
2.1110803
20
56.9146583
11
2.1110803
21
56.7347583
0
LINE
8
DEFAULT_255_2_778
10
2.1110803
20
56.7347583
11
9.8106803
21
56.7347583
0
LINE
8
DEFAULT_255_2_778
10
9.8106803
20
52.9247583
11
9.8106803
21
53.1046583
0
LINE
8
DEFAULT_255_2_778
10
9.8106803
20
53.1046583
11
2.1110803
21
53.1046583
0
LINE
8
DEFAULT_255_2_778
10
2.1110803
20
53.1046583
11
2.1110803
21
52.9247583
0
LINE
8
DEFAULT_255_2_778
10
2.1110803
20
52.9247583
11
9.8106803
21
52.9247583
0
LINE
8
DEFAULT_255_2_778
10
9.8106803
20
41.4947583
11
9.8106803
21
41.6746583
0
LINE
8
DEFAULT_255_2_778
10
9.8106803
20
41.6746583
11
2.1110803
21
41.6746583
0
LINE
8
DEFAULT_255_2_778
10
2.1110803
20
41.6746583
11
2.1110803
21
41.4947583
0
LINE
8
DEFAULT_255_2_778
10
2.1110803
20
41.4947583
11
9.8106803
21
41.4947583
0
LINE
8
DEFAULT_255_2_778
10
9.8106803
20
37.6847583
11
9.8106803
21
37.8646583
0
LINE
8
DEFAULT_255_2_778
10
9.8106803
20
37.8646583
11
2.1110803
21
37.8646583
0
LINE
8
DEFAULT_255_2_778
10
2.1110803
20
37.8646583
11
2.1110803
21
37.6847583
0
LINE
8
DEFAULT_255_2_778
10
2.1110803
20
37.6847583
11
9.8106803
21
37.6847583
0
LINE
8
DEFAULT_255_2_778
10
9.8106803
20
22.4447583
11
9.8106803
21
22.6246583
0
LINE
8
DEFAULT_255_2_778
10
9.8106803
20
22.6246583
11
2.1110803
21
22.6246583
0
LINE
8
DEFAULT_255_2_778
10
2.1110803
20
22.6246583
11
2.1110803
21
22.4447583
0
LINE
8
DEFAULT_255_2_778
10
2.1110803
20
22.4447583
11
9.8106803
21
22.4447583
0
LINE
8
DEFAULT_255_2_778
10
9.8106803
20
26.2547583
11
9.8106803
21
26.4346583
0
LINE
8
DEFAULT_255_2_778
10
9.8106803
20
26.4346583
11
2.1110803
21
26.4346583
0
LINE
8
DEFAULT_255_2_778
10
2.1110803
20
26.4346583
11
2.1110803
21
26.2547583
0
LINE
8
DEFAULT_255_2_778
10
2.1110803
20
26.2547583
11
9.8106803
21
26.2547583
0
LINE
8
DEFAULT_255_2_778
10
9.8106803
20
11.0147583
11
9.8106803
21
11.1946583
0
LINE
8
DEFAULT_255_2_778
10
9.8106803
20
11.1946583
11
2.1110803
21
11.1946583
0
LINE
8
DEFAULT_255_2_778
10
2.1110803
20
11.1946583
11
2.1110803
21
11.0147583
0
LINE
8
DEFAULT_255_2_778
10
2.1110803
20
11.0147583
11
9.8106803
21
11.0147583
0
LINE
8
DEFAULT_255_2_778
10
9.8106803
20
7.2047583
11
9.8106803
21
7.3846583
0
LINE
8
DEFAULT_255_2_778
10
9.8106803
20
7.3846583
11
2.1110803
21
7.3846583
0
LINE
8
DEFAULT_255_2_778
10
2.1110803
20
7.3846583
11
2.1110803
21
7.2047583
0
LINE
8
DEFAULT_255_2_778
10
2.1110803
20
7.2047583
11
9.8106803
21
7.2047583
0
LINE
8
DEFAULT_255_2_778
10
9.8106803
20
64.1546583
11
9.8106803
21
64.3345583
0
LINE
8
DEFAULT_255_2_778
10
9.8106803
20
64.3345583
11
2.1110803
21
64.3345583
0
LINE
8
DEFAULT_255_2_778
10
2.1110803
20
64.3345583
11
2.1110803
21
64.1546583
0
LINE
8
DEFAULT_255_2_778
10
2.1110803
20
64.1546583
11
9.8106803
21
64.1546583
0
LINE
8
DEFAULT_255_2_778
10
9.8106803
20
60.5447583
11
9.8106803
21
60.7246583
0
LINE
8
DEFAULT_255_2_778
10
9.8106803
20
60.7246583
11
2.1110803
21
60.7246583
0
LINE
8
DEFAULT_255_2_778
10
2.1110803
20
60.7246583
11
2.1110803
21
60.5447583
0
LINE
8
DEFAULT_255_2_778
10
2.1110803
20
60.5447583
11
9.8106803
21
60.5447583
0
LINE
8
DEFAULT_255_2_778
10
9.8106803
20
33.8747583
11
9.8106803
21
34.0546583
0
LINE
8
DEFAULT_255_2_778
10
9.8106803
20
34.0546583
11
2.1110803
21
34.0546583
0
LINE
8
DEFAULT_255_2_778
10
2.1110803
20
34.0546583
11
2.1110803
21
33.8747583
0
LINE
8
DEFAULT_255_2_778
10
2.1110803
20
33.8747583
11
9.8106803
21
33.8747583
0
LINE
8
DEFAULT_255_2_778
10
9.8106803
20
30.0647583
11
9.8106803
21
30.2446583
0
LINE
8
DEFAULT_255_2_778
10
9.8106803
20
30.2446583
11
2.1110803
21
30.2446583
0
LINE
8
DEFAULT_255_2_778
10
2.1110803
20
30.2446583
11
2.1110803
21
30.0647583
0
LINE
8
DEFAULT_255_2_778
10
2.1110803
20
30.0647583
11
9.8106803
21
30.0647583
0
LINE
8
DEFAULT_255_2_778
10
9.8106803
20
49.1147583
11
9.8106803
21
49.2946583
0
LINE
8
DEFAULT_255_2_778
10
9.8106803
20
49.2946583
11
2.1110803
21
49.2946583
0
LINE
8
DEFAULT_255_2_778
10
2.1110803
20
49.2946583
11
2.1110803
21
49.1147583
0
LINE
8
DEFAULT_255_2_778
10
2.1110803
20
49.1147583
11
9.8106803
21
49.1147583
0
LINE
8
DEFAULT_255_2_778
10
9.8106803
20
45.3047583
11
9.8106803
21
45.4846583
0
LINE
8
DEFAULT_255_2_778
10
9.8106803
20
45.4846583
11
2.1110803
21
45.4846583
0
LINE
8
DEFAULT_255_2_778
10
2.1110803
20
45.4846583
11
2.1110803
21
45.3047583
0
LINE
8
DEFAULT_255_2_778
10
2.1110803
20
45.3047583
11
9.8106803
21
45.3047583
0
LINE
8
DEFAULT_255_2_778
10
9.8106803
20
18.6347583
11
9.8106803
21
18.8146583
0
LINE
8
DEFAULT_255_2_778
10
9.8106803
20
18.8146583
11
2.1110803
21
18.8146583
0
LINE
8
DEFAULT_255_2_778
10
2.1110803
20
18.8146583
11
2.1110803
21
18.6347583
0
LINE
8
DEFAULT_255_2_778
10
2.1110803
20
18.6347583
11
9.8106803
21
18.6347583
0
LINE
8
DEFAULT_255_2_778
10
9.8106803
20
14.8247583
11
9.8106803
21
15.0046583
0
LINE
8
DEFAULT_255_2_778
10
9.8106803
20
15.0046583
11
2.1110803
21
15.0046583
0
LINE
8
DEFAULT_255_2_778
10
2.1110803
20
15.0046583
11
2.1110803
21
14.8247583
0
LINE
8
DEFAULT_255_2_778
10
2.1110803
20
14.8247583
11
9.8106803
21
14.8247583
0
LINE
8
DEFAULT_255_2_778
10
2.1113
20
3.5746583
11
2.1113
21
3.3947583
0
LINE
8
DEFAULT_255_2_778
10
9.8106803
20
3.3947583
11
9.8106803
21
3.5746583
0
LINE
8
DEFAULT_255_2_778
10
9.8106803
20
3.5746583
11
2.1110803
21
3.5746583
0
LINE
8
DEFAULT_255_2_778
10
2.1110803
20
3.5746583
11
2.1110803
21
3.3947583
0
LINE
8
DEFAULT_255_2_778
10
2.1110803
20
3.3947583
11
9.8106803
21
3.3947583
0
ARC
8
DEFAULT_255_2_778
10
21.9693014
20
100.9844727
40
1.0712453
50
90.004149
51
90.1526665
0
ARC
8
DEFAULT_255_2_778
10
21.9692293
20
101.0583037
40
0.9974143
50
11.8612278
51
90.0003101
0
ARC
8
DEFAULT_255_2_778
10
1.9113649
20
101.0583037
40
0.9974143
50
89.9996899
51
168.1387722
0
ARC
8
DEFAULT_255_2_778
10
1.9112927
20
100.9844727
40
1.0712453
50
89.8473335
51
89.995851
0
ARC
8
DEFAULT_255_2_778
10
20.7750134
20
102.2441893
40
1.1702508
50
49.0466892
51
90.0061835
0
ARC
8
DEFAULT_255_2_778
10
20.7748881
20
102.244038
40
1.1704021
50
90.0000474
51
94.93969
0
ARC
8
DEFAULT_255_2_778
10
20.7750679
20
102.2422244
40
1.1722245
50
94.9408148
51
101.4759046
0
ARC
8
DEFAULT_255_2_778
10
3.3089776
20
102.2428036
40
1.1716465
50
78.5209237
51
85.0386007
0
ARC
8
DEFAULT_255_2_778
10
3.3091808
20
102.2448426
40
1.1695976
50
85.0398787
51
89.9999774
0
ARC
8
DEFAULT_255_2_778
10
3.309237
20
102.2437709
40
1.1706692
50
90.0027258
51
130.945663
0
ARC
8
DEFAULT_255_2_778
10
3.7134204
20
101.0212506
40
1.3245973
50
93.1754084
51
130.9761322
0
ARC
8
DEFAULT_255_2_778
10
3.7127261
20
101.0189761
40
1.3258608
50
130.8890254
51
173.1293171
0
ARC
8
DEFAULT_255_2_778
10
3.7312452
20
101.0163647
40
1.3445594
50
173.1132405
51
174.881781
0
ARC
8
DEFAULT_255_2_778
10
20.372598
20
101.0192966
40
1.3246278
50
5.0681145
51
42.8687837
0
ARC
8
DEFAULT_255_2_778
10
20.3702424
20
101.0198971
40
1.3259473
50
42.780514
51
85.0201355
0
ARC
8
DEFAULT_255_2_778
10
20.3682574
20
101.0010776
40
1.3448681
50
85.0054869
51
86.773668
0
ARC
8
DEFAULT_255_2_778
10
12.0419027
20
41.868726
40
61.0559632
50
82.0903029
51
90.000017
0
LINE
8
DEFAULT_255_2_778
10
12.0418846
20
102.9246892
11
12.0366376
21
102.9246889
0
ARC
8
DEFAULT_255_2_778
10
12.0419044
20
41.867096
40
61.0575931
50
90.0049423
51
97.9095915
0
ARC
8
DEFAULT_255_2_778
10
3.7117713
20
101.2501796
40
1.3249035
50
137.1386752
51
174.9322051
0
ARC
8
DEFAULT_255_2_778
10
3.7137555
20
101.2511378
40
1.3257077
50
94.9809242
51
137.2273619
0
ARC
8
DEFAULT_255_2_778
10
3.7156786
20
101.2329844
40
1.3439595
50
93.2260333
51
94.9954048
0
ARC
8
DEFAULT_255_2_778
10
12.0421195
20
42.0993202
40
61.056369
50
89.9999741
51
97.9096707
0
ARC
8
DEFAULT_255_2_778
10
12.0421747
20
42.0993203
40
61.0563688
50
82.0903293
51
90.0000259
0
ARC
8
DEFAULT_255_2_778
10
20.370846
20
101.2522931
40
1.3245564
50
49.0201871
51
86.8232948
0
ARC
8
DEFAULT_255_2_778
10
20.3712215
20
101.2496219
40
1.3263284
50
6.8793156
51
49.1081074
0
ARC
8
DEFAULT_255_2_778
10
20.3530651
20
101.2470626
40
1.3446608
50
5.1264768
51
6.894917
0
ARC
8
DEFAULT_255_2_778
10
18.0412749
20
105.2386254
40
1.7569171
50
269.9993858
51
310.9279156
0
ARC
8
DEFAULT_255_2_778
10
18.0412573
20
105.237465
40
1.7557567
50
265.0670915
51
269.999957
0
ARC
8
DEFAULT_255_2_778
10
18.0415127
20
105.2399485
40
1.7582528
50
258.5456734
51
265.0657591
0
ARC
8
DEFAULT_255_2_778
10
16.4430819
20
105.2399428
40
1.7582472
50
274.930239
51
281.454348
0
ARC
8
DEFAULT_255_2_778
10
16.4433364
20
105.2374315
40
1.7557232
50
270.000022
51
274.929007
0
ARC
8
DEFAULT_255_2_778
10
16.4433689
20
105.2390265
40
1.7573182
50
229.0769668
51
269.9989634
0
ARC
8
DEFAULT_255_2_778
10
7.6409253
20
105.2390265
40
1.7573182
50
270.0010366
51
310.9230332
0
ARC
8
DEFAULT_255_2_778
10
7.6409577
20
105.2374315
40
1.7557232
50
265.070993
51
269.999978
0
ARC
8
DEFAULT_255_2_778
10
7.6412122
20
105.2399428
40
1.7582471
50
258.545652
51
265.069761
0
ARC
8
DEFAULT_255_2_778
10
6.0427814
20
105.2399485
40
1.7582528
50
274.9342409
51
281.4543266
0
ARC
8
DEFAULT_255_2_778
10
6.0430368
20
105.237465
40
1.7557566
50
270.000043
51
274.9329085
0
ARC
8
DEFAULT_255_2_778
10
6.0430193
20
105.2386254
40
1.7569171
50
229.0720844
51
270.0006142
0
ARC
8
DEFAULT_255_2_778
10
2.1154742
20
101.0585453
40
0.9974717
50
89.9986756
51
168.1536477
0
ARC
8
DEFAULT_255_2_778
10
2.115581
20
101.0698824
40
0.9861345
50
89.8683404
51
90.0048649
0
ARC
8
DEFAULT_255_2_778
10
1.8424857
20
1.4025067
40
1.614132
50
173.9826995
51
179.9992474
0
ARC
8
DEFAULT_255_2_778
10
1.8417167
20
1.4024787
40
1.6133631
50
179.9982526
51
221.9624499
0
ARC
8
DEFAULT_255_2_778
10
1.8412687
20
1.4026757
40
1.6131616
50
221.9782905
51
269.9779214
0
ARC
8
DEFAULT_255_2_778
10
11.0868586
20
2.0353795
40
0.4523629
50
185.5901319
51
230.9624469
0
ARC
8
DEFAULT_255_2_778
10
11.0869888
20
2.0355361
40
0.4525665
50
230.9621276
51
269.9971985
0
ARC
8
DEFAULT_255_2_778
10
11.0869606
20
2.0359074
40
0.4529378
50
270.0007698
51
275.9667008
0
ARC
8
DEFAULT_255_2_778
10
11.0880929
20
2.0255826
40
0.4425511
50
275.9598501
51
276.3118667
0
ARC
8
DEFAULT_255_2_778
10
17.4110212
20
2.008803
40
1.4379951
50
349.0525003
51
359.9980978
0
ARC
8
DEFAULT_255_2_778
10
17.412794
20
2.0087538
40
1.4362224
50
0.0000593
51
0.9955478
0
ARC
8
DEFAULT_255_2_778
10
17.4136724
20
2.0087748
40
1.4353437
50
0.9953175
51
3.0767208
0
ARC
8
DEFAULT_255_2_778
10
2.9167494
20
100.4293844
40
0.7476699
50
134.5487506
51
178.7868317
0
ARC
8
DEFAULT_255_2_778
10
8.0356978
20
102.5270724
40
1.4908821
50
132.8148678
51
138.4099583
0
ARC
8
DEFAULT_255_2_778
10
16.0485964
20
102.5270724
40
1.4908819
50
41.5900417
51
47.1851322
0
ARC
8
DEFAULT_255_2_778
10
8.0428154
20
102.5192447
40
1.5015696
50
90.025503
51
111.0389939
0
ARC
8
DEFAULT_255_2_778
10
16.0414785
20
102.5192433
40
1.5015711
50
68.9610172
51
89.9744882
0
ARC
8
DEFAULT_255_2_778
10
8.0422863
20
102.5204934
40
1.5003219
50
111.0479452
51
132.834285
0
ARC
8
DEFAULT_255_2_778
10
16.0416391
20
102.5200431
40
1.5007668
50
47.1726793
51
68.95578
0
ARC
8
DEFAULT_255_2_778
10
22.1727514
20
101.058084
40
0.9976335
50
11.8714734
51
90.1495722
0
ARC
8
DEFAULT_255_2_778
10
22.5139295
20
101.741005
40
0.6269
50
149.8670291
51
179.9945938
0
ARC
8
DEFAULT_255_2_778
10
22.5133451
20
101.7410626
40
0.6263157
50
179.9998508
51
184.1218533
0
ARC
8
DEFAULT_255_2_778
10
22.5139869
20
101.7411122
40
0.6269593
50
184.1221623
51
187.4689752
0
ARC
8
DEFAULT_255_2_778
10
1.5664027
20
101.7404108
40
0.6310382
50
352.6437881
51
356.5529499
0
ARC
8
DEFAULT_255_2_778
10
1.5664485
20
101.7404082
40
0.6309925
50
356.5529415
51
0.0000662
0
ARC
8
DEFAULT_255_2_778
10
1.5683863
20
101.7406389
40
0.6290547
50
359.979055
51
30.0576415
0
ARC
8
DEFAULT_255_2_778
10
21.1676164
20
100.4290549
40
0.7482052
50
1.237533
51
45.4455719
0
ARC
8
DEFAULT_255_2_778
10
22.6588725
20
100.5771889
40
0.7429755
50
67.3204057
51
90.0015386
0
LINE
8
DEFAULT_255_2_778
10
22.6588525
20
101.3201643
11
22.6585959
21
101.3201642
0
ARC
8
DEFAULT_255_2_778
10
22.6588459
20
100.5769707
40
0.7431936
50
90.0192737
51
112.6161216
0
ARC
8
DEFAULT_255_2_778
10
21.914833
20
101.1968795
40
0.4629621
50
8.2128625
51
89.9700447
0
ARC
8
DEFAULT_255_2_778
10
21.9150897
20
101.1905435
40
0.4692981
50
90.0017922
51
92.7165845
0
ARC
8
DEFAULT_255_2_778
10
1.4259108
20
100.5765712
40
0.7438181
50
89.9975928
51
112.6515684
0
LINE
8
DEFAULT_255_2_778
10
1.4259421
20
101.3203893
11
1.4261982
21
101.3203892
0
ARC
8
DEFAULT_255_2_778
10
1.4259593
20
100.5763498
40
0.7440394
50
67.4119392
51
89.981605
0
ARC
8
DEFAULT_255_2_778
10
2.1700247
20
101.1971062
40
0.4630355
50
90.0367303
51
171.77928
0
ARC
8
DEFAULT_255_2_778
10
2.1697136
20
101.1912305
40
0.4689111
50
87.2822904
51
89.9982496
0
ARC
8
DEFAULT_255_2_778
10
22.3483777
20
98.5633363
40
1.4937113
50
47.6486749
51
79.4117413
0
ARC
8
DEFAULT_255_2_778
10
22.3194413
20
98.5282047
40
1.53917
50
44.9974664
51
47.7336398
0
ARC
8
DEFAULT_255_2_778
10
22.3536827
20
98.5564875
40
1.4949646
50
0.0030088
51
45.1588701
0
ARC
8
DEFAULT_255_2_778
10
23.1418972
20
98.5563781
40
0.7067501
50
359.9542851
51
0.015238
0
ARC
8
DEFAULT_255_2_778
10
12.5422518
20
0.2855031
40
0.5001111
50
90.0005399
51
169.2933337
0
ARC
8
DEFAULT_255_2_778
10
17.1702477
20
2.8439465
40
1.0369548
50
274.790533
51
323.4316222
0
ARC
8
DEFAULT_255_2_778
10
17.1734221
20
2.8434826
40
1.0341298
50
323.3474813
51
358.040039
0
ARC
8
DEFAULT_255_2_778
10
13.4843615
20
1.3355156
40
0.5582846
50
279.94169
51
357.5771078
0
ARC
8
DEFAULT_255_2_778
10
22.2532028
20
1.5703602
40
1.5938452
50
331.6501695
51
0.0594557
0
ARC
8
DEFAULT_255_2_778
10
22.2456842
20
1.5737436
40
1.6020686
50
278.7786976
51
331.6713667
0
ARC
8
DEFAULT_255_2_778
10
22.2465408
20
1.5860885
40
1.6141405
50
270.5184726
51
278.6817691
0
ARC
8
DEFAULT_255_2_778
10
1.8354627
20
1.5655017
40
1.5937352
50
241.1455893
51
269.5572413
0
ARC
8
DEFAULT_255_2_778
10
1.8388684
20
1.572922
40
1.6018779
50
188.1464254
51
241.1669798
0
ARC
8
DEFAULT_255_2_778
10
1.8514712
20
1.5719937
40
1.6142243
50
180.0099213
51
188.0504188
0
ARC
8
DEFAULT_255_2_778
10
18.3512294
20
2.3799269
40
0.7947217
50
269.7273075
51
270.0029692
0
ARC
8
DEFAULT_255_2_778
10
18.3506496
20
2.4052887
40
0.8200837
50
270.0433856
51
305.2063868
0
ARC
8
DEFAULT_255_2_778
10
1.7542346
20
98.5609225
40
1.5169961
50
180.0022701
51
180.1929377
0
ARC
8
DEFAULT_255_2_778
10
1.7232846
20
98.5611161
40
1.4860461
50
141.7752599
51
180.0097827
0
ARC
8
DEFAULT_255_2_778
10
1.7582399
20
98.5352547
40
1.5295089
50
135.0141256
51
141.8244078
0
ARC
8
DEFAULT_255_2_778
10
1.7380521
20
98.5590847
40
1.4983866
50
106.4120187
51
135.1129014
0
ARC
8
DEFAULT_255_2_778
10
1.736305
20
98.561971
40
1.4951247
50
100.5932833
51
106.3790458
0
ARC
8
DEFAULT_255_2_778
10
1.6846091
20
99.9625516
40
0.1248435
50
359.8140884
51
10.785647
0
ARC
8
DEFAULT_255_2_778
10
-0.8717749
20
99.840065
40
2.6840046
50
1.3685992
51
2.6069886
0
ARC
8
DEFAULT_255_2_778
10
-8.6849982
20
99.6340853
40
10.4999365
50
1.0140416
51
1.4739564
0
ARC
8
DEFAULT_255_2_778
10
-27.4595554
20
99.2996977
40
29.2774714
50
0.6954014
51
1.0180997
0
ARC
8
DEFAULT_255_2_778
10
-63.9115171
20
98.8415329
40
65.7323109
50
0.5404554
51
0.7091062
0
ARC
8
DEFAULT_255_2_778
10
-120.329877
20
98.3063231
40
122.1532094
50
0.4101784
51
0.5418696
0
ARC
8
DEFAULT_255_2_778
10
-196.5907085
20
97.7503079
40
198.4160674
50
0.3284983
51
0.4130825
0
ARC
8
DEFAULT_255_2_778
10
-276.4482964
20
97.2865307
40
278.2750017
50
0.2706846
51
0.3297168
0
ARC
8
DEFAULT_255_2_778
10
-368.9607483
20
96.8517534
40
370.7884752
50
0.2061178
51
0.2703314
0
ARC
8
DEFAULT_255_2_778
10
-479.767195
20
96.4510054
40
481.5956466
50
0.1474584
51
0.2063709
0
ARC
8
DEFAULT_255_2_778
10
-590.3427377
20
96.1650668
40
592.171559
50
0.0890141
51
0.1475897
0
ARC
8
DEFAULT_255_2_778
10
-673.7622378
20
96.0301216
40
675.591168
50
0.0438929
51
0.0894675
0
ARC
8
DEFAULT_255_2_778
10
-725.3227475
20
95.9882371
40
727.1516946
50
359.999817
51
0.0440809
0
LINE
8
DEFAULT_255_2_778
10
23.8470471
20
73.0558142
11
23.8470471
21
73.5558142
0
LINE
8
DEFAULT_255_2_778
10
18.2069471
20
73.3058142
11
23.5970471
21
73.3058142
0
LINE
8
DEFAULT_255_2_778
10
23.5970471
20
73.0558142
11
23.5970471
21
73.5558142
0
LINE
8
DEFAULT_255_2_778
10
22.9453471
20
101.2633142
11
23.1488471
21
101.2633142
0
LINE
8
DEFAULT_255_2_778
10
23.1488471
20
101.2633142
11
23.5266471
21
99.4826142
0
LINE
8
DEFAULT_255_2_778
10
1.9141471
20
102.0557142
11
2.6515471
21
102.0557142
0
LINE
8
DEFAULT_255_2_778
10
21.5420471
20
102.0557142
11
21.5420471
21
103.1280142
0
LINE
8
DEFAULT_255_2_778
10
20.5418471
20
103.3910142
11
3.5421471
21
103.3910142
0
LINE
8
DEFAULT_255_2_778
10
2.5420471
20
103.1280142
11
2.5420471
21
102.0557142
0
LINE
8
DEFAULT_255_2_778
10
2.3920471
20
101.1363142
11
2.3920471
21
100.7023142
0
LINE
8
DEFAULT_255_2_778
10
2.3920471
20
100.7023142
11
21.6920471
21
100.7023142
0
LINE
8
DEFAULT_255_2_778
10
21.6920471
20
100.7023142
11
21.6920471
21
101.1363142
0
LINE
8
DEFAULT_255_2_778
10
3.6397471
20
102.3438142
11
3.6400471
21
102.3438142
0
LINE
8
DEFAULT_255_2_778
10
2.3920471
20
101.1363142
11
2.3920471
21
101.3672142
0
LINE
8
DEFAULT_255_2_778
10
21.6923471
20
101.3672142
11
21.6923471
21
101.1363142
0
LINE
8
DEFAULT_255_2_778
10
21.6923471
20
100.3216142
11
2.3922471
21
100.3216142
0
LINE
8
DEFAULT_255_2_778
10
21.6923471
20
102.0557142
11
21.6923471
21
104.2531142
0
LINE
8
DEFAULT_255_2_778
10
21.6923471
20
104.2531142
11
19.1922471
21
104.2531142
0
LINE
8
DEFAULT_255_2_778
10
19.1922471
20
104.2531142
11
19.1922471
21
103.9112142
0
LINE
8
DEFAULT_255_2_778
10
17.6923471
20
103.5167142
11
16.7922471
21
103.5167142
0
LINE
8
DEFAULT_255_2_778
10
15.2922471
20
103.9112142
11
15.2922471
21
104.2531142
0
LINE
8
DEFAULT_255_2_778
10
15.2922471
20
104.2531142
11
12.7922471
21
104.2531142
0
LINE
8
DEFAULT_255_2_778
10
12.7922471
20
104.2531142
11
12.7922471
21
103.6480142
0
LINE
8
DEFAULT_255_2_778
10
12.7922471
20
103.6480142
11
12.7350471
21
103.5725142
0
LINE
8
DEFAULT_255_2_778
10
12.7350471
20
103.5725142
11
12.5726471
21
103.5085142
0
LINE
8
DEFAULT_255_2_778
10
12.5726471
20
103.5085142
11
12.3292471
21
103.4657142
0
LINE
8
DEFAULT_255_2_778
10
12.3292471
20
103.4657142
11
12.0421471
21
103.4506142
0
LINE
8
DEFAULT_255_2_778
10
12.0421471
20
103.4506142
11
11.7550471
21
103.4657142
0
LINE
8
DEFAULT_255_2_778
10
11.7550471
20
103.4657142
11
11.5116471
21
103.5085142
0
LINE
8
DEFAULT_255_2_778
10
11.5116471
20
103.5085142
11
11.3492471
21
103.5725142
0
LINE
8
DEFAULT_255_2_778
10
11.3492471
20
103.5725142
11
11.2920471
21
103.6480142
0
LINE
8
DEFAULT_255_2_778
10
11.2920471
20
103.6480142
11
11.2920471
21
104.2531142
0
LINE
8
DEFAULT_255_2_778
10
11.2920471
20
104.2531142
11
8.7920471
21
104.2531142
0
LINE
8
DEFAULT_255_2_778
10
8.7920471
20
104.2531142
11
8.7920471
21
103.9112142
0
LINE
8
DEFAULT_255_2_778
10
7.2920471
20
103.5167142
11
6.3919471
21
103.5167142
0
LINE
8
DEFAULT_255_2_778
10
4.8920471
20
103.9112142
11
4.8920471
21
104.2531142
0
LINE
8
DEFAULT_255_2_778
10
4.8920471
20
104.2531142
11
2.3922471
21
104.2531142
0
LINE
8
DEFAULT_255_2_778
10
2.3922471
20
104.2531142
11
2.3922471
21
102.0557142
0
LINE
8
DEFAULT_255_2_778
10
11.9170471
20
103.4537142
11
12.0424471
21
103.6707142
0
LINE
8
DEFAULT_255_2_778
10
12.0424471
20
103.6707142
11
12.1678471
21
103.4537142
0
LINE
8
DEFAULT_255_2_778
10
12.7925471
20
103.9207142
11
11.2925471
21
103.9207142
0
LINE
8
DEFAULT_255_2_778
10
12.7925471
20
104.0208142
11
11.2925471
21
104.0208142
0
LINE
8
DEFAULT_255_2_778
10
12.0138471
20
103.6207142
11
11.2999471
21
103.6207142
0
LINE
8
DEFAULT_255_2_778
10
12.7853471
20
103.6207142
11
12.0709471
21
103.6207142
0
LINE
8
DEFAULT_255_2_778
10
0.5576471
20
99.4826142
11
0.9354471
21
101.2633142
0
LINE
8
DEFAULT_255_2_778
10
0.9354471
20
101.2633142
11
1.1392471
21
101.2633142
0
LINE
8
DEFAULT_255_2_778
10
15.2922471
20
104.2531142
11
15.2922471
21
104.4081142
0
LINE
8
DEFAULT_255_2_778
10
15.2922471
20
104.4081142
11
12.7922471
21
104.4081142
0
LINE
8
DEFAULT_255_2_778
10
12.7922471
20
104.4081142
11
12.7922471
21
104.2531142
0
LINE
8
DEFAULT_255_2_778
10
11.2923471
20
104.2531142
11
11.2923471
21
104.4081142
0
LINE
8
DEFAULT_255_2_778
10
11.2923471
20
104.4081142
11
8.7922471
21
104.4081142
0
LINE
8
DEFAULT_255_2_778
10
8.7922471
20
104.4081142
11
8.7922471
21
104.2531142
0
LINE
8
DEFAULT_255_2_778
10
2.2372471
20
69.1868142
11
2.2372471
21
69.0069142
0
LINE
8
DEFAULT_255_2_778
10
2.2372471
20
69.0069142
11
6.2324471
21
69.0069142
0
LINE
8
DEFAULT_255_2_778
10
6.2324471
20
69.0069142
11
6.2324471
21
72.1575142
0
LINE
8
DEFAULT_255_2_778
10
6.2324471
20
72.1575142
11
6.9917471
21
72.1575142
0
LINE
8
DEFAULT_255_2_778
10
6.9917471
20
72.1575142
11
6.9917471
21
72.3374142
0
LINE
8
DEFAULT_255_2_778
10
6.9917471
20
72.3374142
11
6.0525471
21
72.3374142
0
LINE
8
DEFAULT_255_2_778
10
6.0525471
20
72.3374142
11
6.0525471
21
69.1868142
0
LINE
8
DEFAULT_255_2_778
10
6.0525471
20
69.1868142
11
2.2372471
21
69.1868142
0
LINE
8
DEFAULT_255_2_778
10
3.5355471
20
97.2032142
11
3.5421471
21
95.9859142
0
LINE
8
DEFAULT_255_2_778
10
3.5421471
20
95.9859142
11
3.5421471
21
93.4959142
0
LINE
8
DEFAULT_255_2_778
10
3.5421471
20
93.4959142
11
20.5421471
21
93.4959142
0
LINE
8
DEFAULT_255_2_778
10
20.5421471
20
93.4959142
11
20.5421471
21
95.9859142
0
LINE
8
DEFAULT_255_2_778
10
20.5421471
20
95.9859142
11
20.5487471
21
97.2032142
0
LINE
8
DEFAULT_255_2_778
10
3.5355471
20
97.2024142
11
20.5487471
21
97.2024142
0
LINE
8
DEFAULT_255_2_778
10
2.3607471
20
-0.0329858
11
2.3668471
21
-0.2104858
0
LINE
8
DEFAULT_255_2_778
10
2.3668471
20
-0.2104858
11
1.8403471
21
-0.2104858
0
LINE
8
DEFAULT_255_2_778
10
1.8403471
20
-0.2104858
11
1.8340471
21
-0.0281858
0
LINE
8
DEFAULT_255_2_778
10
2.1692471
20
100.4452142
11
2.1321471
21
99.9901142
0
LINE
8
DEFAULT_255_2_778
10
8.7922471
20
104.0208142
11
8.0421471
21
104.0208142
0
LINE
8
DEFAULT_255_2_778
10
16.0421471
20
104.0208142
11
15.2920471
21
104.0208142
0
LINE
8
DEFAULT_255_2_778
10
8.7920471
20
103.9207142
11
7.5034471
21
103.9207142
0
LINE
8
DEFAULT_255_2_778
10
7.0222471
20
103.6207142
11
8.3070471
21
103.6207142
0
LINE
8
DEFAULT_255_2_778
10
15.7770471
20
103.6207142
11
17.0618471
21
103.6207142
0
LINE
8
DEFAULT_255_2_778
10
16.5805471
20
103.9207142
11
15.2920471
21
103.9207142
0
LINE
8
DEFAULT_255_2_778
10
2.3922471
20
99.9856142
11
2.3922471
21
100.7023142
0
LINE
8
DEFAULT_255_2_778
10
21.6923471
20
100.7023142
11
21.6923471
21
99.9856142
0
LINE
8
DEFAULT_255_2_778
10
21.4240471
20
102.0557142
11
22.1701471
21
102.0557142
0
LINE
8
DEFAULT_255_2_778
10
21.8923471
20
101.6596142
11
21.6322471
21
101.6596142
0
LINE
8
DEFAULT_255_2_778
10
2.4523471
20
101.6596142
11
2.1922471
21
101.6596142
0
LINE
8
DEFAULT_255_2_778
10
21.9156471
20
100.4452142
11
21.9526471
21
99.9901142
0
LINE
8
DEFAULT_255_2_778
10
23.2549471
20
99.7498142
11
22.9453471
21
101.2627142
0
LINE
8
DEFAULT_255_2_778
10
0.8299471
20
99.7501142
11
1.1394471
21
101.2630142
0
LINE
8
DEFAULT_255_2_778
10
1.7117471
20
101.2633142
11
1.4447471
21
99.9456142
0
LINE
8
DEFAULT_255_2_778
10
1.4447471
20
99.9456142
11
1.8030471
21
99.9898142
0
LINE
8
DEFAULT_255_2_778
10
1.8030471
20
99.9898142
11
1.8072471
21
99.9856142
0
LINE
8
DEFAULT_255_2_778
10
23.8486471
20
98.5558142
11
23.8473471
21
73.5558142
0
LINE
8
DEFAULT_255_2_778
10
23.8473471
20
73.5558142
11
22.2555471
21
73.5558142
0
LINE
8
DEFAULT_255_2_778
10
21.6920471
20
104.2531142
11
21.6920471
21
104.4081142
0
LINE
8
DEFAULT_255_2_778
10
21.6920471
20
104.4081142
11
19.1919471
21
104.4081142
0
LINE
8
DEFAULT_255_2_778
10
19.1919471
20
104.4081142
11
19.1919471
21
104.2531142
0
LINE
8
DEFAULT_255_2_778
10
4.8920471
20
104.2531142
11
4.8920471
21
104.4081142
0
LINE
8
DEFAULT_255_2_778
10
4.8920471
20
104.4081142
11
2.3922471
21
104.4081142
0
LINE
8
DEFAULT_255_2_778
10
2.3922471
20
104.4081142
11
2.3922471
21
104.2531142
0
LINE
8
DEFAULT_255_2_778
10
18.2871471
20
1.5857142
11
18.2871471
21
1.7357142
0
LINE
8
DEFAULT_255_2_778
10
18.8469471
20
0.4422142
11
18.8109471
21
0.4417142
0
LINE
8
DEFAULT_255_2_778
10
18.8109471
20
0.4417142
11
18.7649471
21
0.4409142
0
LINE
8
DEFAULT_255_2_778
10
18.7649471
20
0.4409142
11
18.7006471
21
0.4398142
0
LINE
8
DEFAULT_255_2_778
10
18.7006471
20
0.4398142
11
18.5384471
21
0.4369142
0
LINE
8
DEFAULT_255_2_778
10
18.5384471
20
0.4369142
11
18.3471471
21
0.4335142
0
LINE
8
DEFAULT_255_2_778
10
18.3471471
20
0.4335142
11
18.3471471
21
1.5857142
0
LINE
8
DEFAULT_255_2_778
10
18.3471471
20
1.5857142
11
14.2421471
21
1.5857142
0
LINE
8
DEFAULT_255_2_778
10
14.2421471
20
1.5857142
11
14.2421471
21
0.7856142
0
LINE
8
DEFAULT_255_2_778
10
14.2421471
20
0.7856142
11
12.5422471
21
0.7856142
0
LINE
8
DEFAULT_255_2_778
10
14.2421471
20
1.5857142
11
14.0421471
21
1.5857142
0
LINE
8
DEFAULT_255_2_778
10
14.0421471
20
1.5857142
11
17.2568471
21
1.8106142
0
LINE
8
DEFAULT_255_2_778
10
11.1367471
20
0.3864142
11
12.0418471
21
0.3784142
0
LINE
8
DEFAULT_255_2_778
10
12.0418471
20
0.3784142
11
18.3469471
21
0.4335142
0
LINE
8
DEFAULT_255_2_778
10
10.6366471
20
0.3951142
11
10.6726471
21
0.3946142
0
LINE
8
DEFAULT_255_2_778
10
10.6726471
20
0.3946142
11
10.7187471
21
0.3938142
0
LINE
8
DEFAULT_255_2_778
10
10.7187471
20
0.3938142
11
10.7830471
21
0.3927142
0
LINE
8
DEFAULT_255_2_778
10
10.7830471
20
0.3927142
11
10.9451471
21
0.3898142
0
LINE
8
DEFAULT_255_2_778
10
10.9451471
20
0.3898142
11
11.1364471
21
0.3864142
0
LINE
8
DEFAULT_255_2_778
10
11.1364471
20
0.3864142
11
11.1364471
21
1.5857142
0
LINE
8
DEFAULT_255_2_778
10
11.1364471
20
1.5857142
11
14.0421471
21
1.5857142
0
LINE
8
DEFAULT_255_2_778
10
14.0421471
20
1.5857142
11
14.0421471
21
1.3119142
0
LINE
8
DEFAULT_255_2_778
10
10.6369471
20
1.4992142
11
10.1413471
21
1.4992142
0
LINE
8
DEFAULT_255_2_778
10
10.1413471
20
1.4992142
11
0.2372471
21
1.5857142
0
LINE
8
DEFAULT_255_2_778
10
12.8472471
20
73.5558142
11
12.8472471
21
72.4758142
0
LINE
8
DEFAULT_255_2_778
10
22.2611471
20
73.0558142
11
23.8470471
21
73.0558142
0
LINE
8
DEFAULT_255_2_778
10
23.8470471
20
73.0558142
11
23.8470471
21
1.5720142
0
LINE
8
DEFAULT_255_2_778
10
19.0972471
20
73.0558142
11
19.0972471
21
73.3058142
0
LINE
8
DEFAULT_255_2_778
10
19.0972471
20
73.3058142
11
19.0972471
21
73.0558142
0
LINE
8
DEFAULT_255_2_778
10
19.0972471
20
73.0558142
11
19.3472471
21
73.0558142
0
LINE
8
DEFAULT_255_2_778
10
23.8470471
20
1.5857142
11
19.3470471
21
1.5466142
0
LINE
8
DEFAULT_255_2_778
10
19.3470471
20
1.5466142
11
19.3478471
21
1.2219142
0
LINE
8
DEFAULT_255_2_778
10
19.3478471
20
1.2219142
11
19.3483471
21
0.9184142
0
LINE
8
DEFAULT_255_2_778
10
19.3483471
20
0.9184142
11
19.3488471
21
0.4152142
0
LINE
8
DEFAULT_255_2_778
10
19.3488471
20
0.4152142
11
19.3483471
21
0.0750142
0
LINE
8
DEFAULT_255_2_778
10
19.3483471
20
0.0750142
11
19.3478471
21
-0.0202858
0
LINE
8
DEFAULT_255_2_778
10
19.3478471
20
-0.0202858
11
19.3470471
21
-0.0535858
0
LINE
8
DEFAULT_255_2_778
10
19.3470471
20
-0.0535858
11
22.2608471
21
-0.0281858
0
LINE
8
DEFAULT_255_2_778
10
22.2608471
20
-0.0281858
11
22.2608471
21
73.0558142
0
LINE
8
DEFAULT_255_2_778
10
22.2608471
20
73.0558142
11
19.3470471
21
73.0558142
0
LINE
8
DEFAULT_255_2_778
10
19.3470471
20
73.0558142
11
19.3470471
21
1.5466142
0
LINE
8
DEFAULT_255_2_778
10
19.3470471
20
1.5466142
11
18.8469471
21
1.5466142
0
LINE
8
DEFAULT_255_2_778
10
0.2372471
20
1.5717142
11
0.2372471
21
66.1946142
0
LINE
8
DEFAULT_255_2_778
10
0.2372471
20
66.1946142
11
0.4872471
21
66.1946142
0
LINE
8
DEFAULT_255_2_778
10
0.4872471
20
66.1946142
11
0.4872471
21
66.4446142
0
LINE
8
DEFAULT_255_2_778
10
0.4872471
20
66.4446142
11
1.8234471
21
66.4446142
0
LINE
8
DEFAULT_255_2_778
10
18.8475471
20
73.3058142
11
18.8475471
21
1.5466142
0
LINE
8
DEFAULT_255_2_778
10
18.8475471
20
1.5466142
11
18.8475471
21
1.1240142
0
LINE
8
DEFAULT_255_2_778
10
18.8475471
20
1.1240142
11
18.8475471
21
0.7658142
0
LINE
8
DEFAULT_255_2_778
10
18.8475471
20
0.7658142
11
18.8475471
21
0.5263142
0
LINE
8
DEFAULT_255_2_778
10
18.8475471
20
0.5263142
11
18.8475471
21
0.4422142
0
LINE
8
DEFAULT_255_2_778
10
18.8475471
20
0.4422142
11
19.3475471
21
-0.0533858
0
LINE
8
DEFAULT_255_2_778
10
19.3475471
20
-0.0533858
11
19.2718471
21
-0.0538858
0
LINE
8
DEFAULT_255_2_778
10
19.2718471
20
-0.0538858
11
19.0559471
21
-0.0556858
0
LINE
8
DEFAULT_255_2_778
10
19.0559471
20
-0.0556858
11
18.7329471
21
-0.0586858
0
LINE
8
DEFAULT_255_2_778
10
18.7329471
20
-0.0586858
11
18.3519471
21
-0.0620858
0
LINE
8
DEFAULT_255_2_778
10
18.3519471
20
-0.0620858
11
12.0426471
21
-0.1170858
0
LINE
8
DEFAULT_255_2_778
10
12.0426471
20
-0.1170858
11
11.1330471
21
-0.1091858
0
LINE
8
DEFAULT_255_2_778
10
11.1330471
20
-0.1091858
11
10.7536471
21
-0.1057858
0
LINE
8
DEFAULT_255_2_778
10
10.7536471
20
-0.1057858
11
10.4319471
21
-0.1027858
0
LINE
8
DEFAULT_255_2_778
10
10.4319471
20
-0.1027858
11
10.2170471
21
-0.1009858
0
LINE
8
DEFAULT_255_2_778
10
10.2170471
20
-0.1009858
11
10.1416471
21
-0.1004858
0
LINE
8
DEFAULT_255_2_778
10
10.1416471
20
-0.1004858
11
1.8236471
21
-0.0279858
0
LINE
8
DEFAULT_255_2_778
10
1.8236471
20
-0.0279858
11
1.8236471
21
66.4446142
0
LINE
8
DEFAULT_255_2_778
10
1.8236471
20
66.4446142
11
7.1373471
21
66.4446142
0
LINE
8
DEFAULT_255_2_778
10
7.1373471
20
66.4446142
11
7.1373471
21
73.3047142
0
LINE
8
DEFAULT_255_2_778
10
7.1373471
20
73.3047142
11
10.1416471
21
73.3047142
0
LINE
8
DEFAULT_255_2_778
10
10.1416471
20
73.3047142
11
10.1416471
21
1.4992142
0
LINE
8
DEFAULT_255_2_778
10
10.1416471
20
1.4992142
11
10.1408471
21
1.1743142
0
LINE
8
DEFAULT_255_2_778
10
10.1408471
20
1.1743142
11
10.1403471
21
0.8708142
0
LINE
8
DEFAULT_255_2_778
10
10.1403471
20
0.8708142
11
10.1398471
21
0.3676142
0
LINE
8
DEFAULT_255_2_778
10
10.1398471
20
0.3676142
11
10.1403471
21
0.0273142
0
LINE
8
DEFAULT_255_2_778
10
10.1403471
20
0.0273142
11
10.1408471
21
-0.0678858
0
LINE
8
DEFAULT_255_2_778
10
10.1408471
20
-0.0678858
11
10.1416471
21
-0.1012858
0
LINE
8
DEFAULT_255_2_778
10
10.1416471
20
-0.1012858
11
10.6372471
21
0.3943142
0
LINE
8
DEFAULT_255_2_778
10
10.6372471
20
0.3943142
11
10.6372471
21
0.4784142
0
LINE
8
DEFAULT_255_2_778
10
10.6372471
20
0.4784142
11
10.6372471
21
0.7179142
0
LINE
8
DEFAULT_255_2_778
10
10.6372471
20
0.7179142
11
10.6372471
21
1.0761142
0
LINE
8
DEFAULT_255_2_778
10
10.6372471
20
1.0761142
11
10.6372471
21
1.4987142
0
LINE
8
DEFAULT_255_2_778
10
10.6372471
20
1.4987142
11
10.6372471
21
73.3042142
0
LINE
8
DEFAULT_255_2_778
10
10.6372471
20
73.3042142
11
10.1416471
21
73.3042142
0
LINE
8
DEFAULT_255_2_778
10
18.2074471
20
72.4753142
11
18.2074471
21
73.5553142
0
LINE
8
DEFAULT_255_2_778
10
18.8234471
20
1.7352142
11
18.2074471
21
1.7352142
0
LINE
8
DEFAULT_255_2_778
10
18.2074471
20
1.7352142
11
18.2074471
21
3.1402142
0
LINE
8
DEFAULT_255_2_778
10
1.8289471
20
66.6947142
11
0.2372471
21
66.6947142
0
LINE
8
DEFAULT_255_2_778
10
0.2372471
20
66.6947142
11
0.2372471
21
98.5558142
0
LINE
8
DEFAULT_255_2_778
10
23.8470471
20
95.9859142
11
20.5421471
21
95.9859142
0
LINE
8
DEFAULT_255_2_778
10
3.5421471
20
95.9859142
11
0.2372471
21
95.9859142
0
LINE
8
DEFAULT_255_2_778
10
6.9917471
20
72.3374142
11
6.9917471
21
73.5558142
0
LINE
8
DEFAULT_255_2_778
10
6.9917471
20
73.5558142
11
22.2553471
21
73.5558142
0
LINE
8
DEFAULT_255_2_778
10
22.2553471
20
73.5558142
11
22.2553471
21
95.9859142
0
LINE
8
DEFAULT_255_2_778
10
22.2553471
20
95.9859142
11
22.2770471
21
99.9859142
0
LINE
8
DEFAULT_255_2_778
10
6.9917471
20
66.9952142
11
6.9917471
21
72.1575142
0
LINE
8
DEFAULT_255_2_778
10
22.3725471
20
101.2635142
11
22.6315471
21
99.9859142
0
LINE
8
DEFAULT_255_2_778
10
22.6315471
20
99.9859142
11
1.8072471
21
99.9859142
0
LINE
8
DEFAULT_255_2_778
10
1.8289471
20
95.9859142
11
1.8289471
21
66.6947142
0
LINE
8
DEFAULT_255_2_778
10
1.8289471
20
66.6947142
11
6.9920471
21
66.6947142
0
LINE
8
DEFAULT_255_2_778
10
6.9920471
20
66.6947142
11
6.9920471
21
67.0047142
0
ENDSEC
0
EOF