0
SECTION
2
HEADER
9
$MEASUREMENT
70
1
0
ENDSEC
0
SECTION
2
TABLES
0
TABLE
2
LTYPE
0
LTYPE
72
65
70
64
2
CONTINUOUS
3
______
73
0
40
0
0
ENDTAB
0
TABLE
2
LAYER
0
LAYER
2
DEFAULT_255_2_778
70
0
62
255
6
CONTINUOUS
0
LAYER
2
DEFAULT_255_1_234
70
0
62
255
6
CONTINUOUS
0
LAYER
2
DEFAULT_255_2_778_1
70
0
62
255
6
CONTINUOUS
0
ENDTAB
0
ENDSEC
0
SECTION
2
ENTITIES
0
ARC
8
DEFAULT_255_2_778
10
3.5700693
20
75.805203
40
0.7914215
50
129.1312896
51
180.1450914
0
ARC
8
DEFAULT_255_2_778
10
3.5703345
20
75.8056901
40
0.7912112
50
89.854026
51
129.1684493
0
ARC
8
DEFAULT_255_2_778
10
25.7993937
20
75.8053767
40
0.7915249
50
39.4792447
51
90.147911
0
ARC
8
DEFAULT_255_2_778
10
25.7999935
20
75.8052233
40
0.7911595
50
359.8533901
51
39.5154338
0
ARC
8
DEFAULT_255_2_778
10
25.7996693
20
-1.9863492
40
0.7914836
50
309.4761667
51
0.1482649
0
ARC
8
DEFAULT_255_2_778
10
25.799398
20
-1.9867803
40
0.7913235
50
269.8517415
51
309.511178
0
ARC
8
DEFAULT_255_2_778
10
3.570342
20
-1.9867221
40
0.7913815
50
219.1282118
51
270.1454017
0
ARC
8
DEFAULT_255_2_778
10
3.5700247
20
-1.9863397
40
0.7913769
50
179.8524075
51
219.1641908
0
LINE
8
DEFAULT_255_2_778
10
3.5723503
20
76.5968989
11
25.7973503
21
76.5968989
0
LINE
8
DEFAULT_255_2_778
10
26.5911503
20
75.8031989
11
26.5911503
21
-1.9843011
0
LINE
8
DEFAULT_255_2_778
10
25.7973503
20
-2.7781011
11
3.5723503
21
-2.7781011
0
LINE
8
DEFAULT_255_2_778
10
2.7786503
20
-1.9843011
11
2.7786503
21
75.8031989
0
LINE
8
DEFAULT_255_1_234
10
9.7602344
20
-0.1934909
11
9.4847458
21
-0.1934909
0
LINE
8
DEFAULT_255_1_234
10
9.4847458
20
-0.1934909
11
9.4847458
21
-0.6513
0
LINE
8
DEFAULT_255_1_234
10
9.4847458
20
-0.6513
11
9.3305364
21
-0.6513
0
LINE
8
DEFAULT_255_1_234
10
9.3305364
20
-0.6513
11
9.3305364
21
0.5181211
0
LINE
8
DEFAULT_255_1_234
10
9.3305364
20
0.5181211
11
9.7618407
21
0.5181211
0
LINE
8
DEFAULT_255_1_234
10
9.4847458
20
0.3912196
11
9.4847458
21
-0.0673926
0
LINE
8
DEFAULT_255_1_234
10
9.4847458
20
-0.0673926
11
9.7618407
21
-0.0673926
0
LINE
8
DEFAULT_255_1_234
10
9.7706756
20
0.3912196
11
9.4847458
21
0.3912196
0
ARC
8
DEFAULT_255_1_234
10
9.7660534
20
-0.0877805
40
0.6059162
50
78.8378113
51
90.3983573
0
ARC
8
DEFAULT_255_1_234
10
9.8076548
20
0.1142879
40
0.3996205
50
58.9632738
51
79.0810598
0
ARC
8
DEFAULT_255_1_234
10
9.837809
20
0.1702721
40
0.3361177
50
48.0197965
51
58.447194
0
ARC
8
DEFAULT_255_1_234
10
9.8466951
20
0.1788225
40
0.3238191
50
3.3375044
51
48.1766626
0
ARC
8
DEFAULT_255_1_234
10
9.723679
20
0.1611171
40
0.4477806
50
359.9477528
51
4.6829065
0
ARC
8
DEFAULT_255_1_234
10
9.7360107
20
0.1568628
40
0.4354656
50
346.1877825
51
0.5060252
0
ARC
8
DEFAULT_255_1_234
10
9.8718975
20
0.1215731
40
0.295089
50
310.8831995
51
346.5426355
0
ARC
8
DEFAULT_255_1_234
10
9.8410395
20
0.1632695
40
0.3468331
50
286.6925341
51
310.2288297
0
ARC
8
DEFAULT_255_1_234
10
9.7841226
20
0.3422882
40
0.5346654
50
274.6850312
51
287.0245141
0
ARC
8
DEFAULT_255_1_234
10
9.7615949
20
0.5631932
40
0.7566852
50
269.8969846
51
275.018904
0
ARC
8
DEFAULT_255_1_234
10
9.764354
20
0.3552707
40
0.4226708
50
269.6593078
51
279.4153575
0
ARC
8
DEFAULT_255_1_234
10
9.7900815
20
0.2062133
40
0.2714146
50
279.2049762
51
294.9900808
0
ARC
8
DEFAULT_255_1_234
10
9.8191141
20
0.1414508
40
0.2004525
50
295.2888114
51
311.2911209
0
ARC
8
DEFAULT_255_1_234
10
9.8262035
20
0.130922
40
0.1878703
50
311.7854996
51
347.2861051
0
ARC
8
DEFAULT_255_1_234
10
9.7278194
20
0.1562092
40
0.2894234
50
346.6893224
51
0.1059443
0
ARC
8
DEFAULT_255_1_234
10
9.6523089
20
0.1590685
40
0.3649409
50
359.6350983
51
0.0053152
0
ARC
8
DEFAULT_255_1_234
10
9.7493417
20
0.1615937
40
0.2679199
50
359.4672059
51
15.5933957
0
ARC
8
DEFAULT_255_1_234
10
9.8118306
20
0.1784779
40
0.2031932
50
15.7442113
51
46.6203375
0
ARC
8
DEFAULT_255_1_234
10
9.7970527
20
0.1614484
40
0.2257226
50
46.8628658
51
75.6676503
0
ARC
8
DEFAULT_255_1_234
10
9.7676347
20
0.0555718
40
0.3355939
50
75.276167
51
88.2915297
0
ARC
8
DEFAULT_255_1_234
10
9.7618054
20
-0.0322476
40
0.4235602
50
87.8575022
51
88.8000139
0
LINE
8
DEFAULT_255_1_234
10
11.0959125
20
-0.5300208
11
11.0959125
21
-0.6513
0
LINE
8
DEFAULT_255_1_234
10
11.0959125
20
-0.6513
11
10.3296846
21
-0.6513
0
LINE
8
DEFAULT_255_1_234
10
10.3296846
20
-0.6513
11
10.3296846
21
-0.5444779
0
LINE
8
DEFAULT_255_1_234
10
10.3296846
20
-0.5444779
11
10.7344842
21
-0.0947005
0
LINE
8
DEFAULT_255_1_234
10
10.4557829
20
0.1735595
11
10.3071958
21
0.1735595
0
LINE
8
DEFAULT_255_1_234
10
10.8220302
20
-0.1902782
11
10.5087924
21
-0.5300208
0
LINE
8
DEFAULT_255_1_234
10
10.5087924
20
-0.5300208
11
11.0959125
21
-0.5300208
0
ARC
8
DEFAULT_255_1_234
10
9.3854676
20
1.0982527
40
1.8008286
50
318.5132453
51
320.7828378
0
ARC
8
DEFAULT_255_1_234
10
9.914165
20
0.6679426
40
1.1191493
50
320.7372736
51
323.9737074
0
ARC
8
DEFAULT_255_1_234
10
10.3061506
20
0.3839361
40
0.6350923
50
323.8961724
51
328.6421089
0
ARC
8
DEFAULT_255_1_234
10
10.5108102
20
0.2577031
40
0.3946393
50
328.8299013
51
331.789948
0
ARC
8
DEFAULT_255_1_234
10
10.610528
20
0.2062509
40
0.2824501
50
331.4255242
51
352.9364833
0
ARC
8
DEFAULT_255_1_234
10
10.6241781
20
0.2031976
40
0.2685315
50
353.2248685
51
0.0169286
0
ARC
8
DEFAULT_255_1_234
10
10.6451658
20
0.205495
40
0.2475536
50
359.4866256
51
15.9339782
0
ARC
8
DEFAULT_255_1_234
10
10.6958643
20
0.2191286
40
0.1950618
50
16.1714718
51
43.5284424
0
ARC
8
DEFAULT_255_1_234
10
10.7035952
20
0.2268573
40
0.184134
50
43.4415429
51
83.1661404
0
ARC
8
DEFAULT_255_1_234
10
10.690187
20
0.1531771
40
0.258926
50
82.160215
51
90.1505798
0
ARC
8
DEFAULT_255_1_234
10
10.6870297
20
0.0994865
40
0.3126255
50
89.5460705
51
102.5418777
0
ARC
8
DEFAULT_255_1_234
10
10.6627383
20
0.2025665
40
0.2067346
50
102.1739365
51
129.2061916
0
ARC
8
DEFAULT_255_1_234
10
10.6548455
20
0.2150094
40
0.1921118
50
129.7279328
51
135.7542026
0
ARC
8
DEFAULT_255_1_234
10
10.6669983
20
0.2053045
40
0.2075944
50
136.175737
51
166.3674722
0
ARC
8
DEFAULT_255_1_234
10
10.7676902
20
0.1783182
40
0.3118201
50
165.9092917
51
178.8683903
0
ARC
8
DEFAULT_255_1_234
10
10.8541763
20
0.1736179
40
0.3983935
50
178.438168
51
180.0083905
0
ARC
8
DEFAULT_255_1_234
10
10.7140365
20
0.1775231
40
0.4068601
50
163.2878735
51
180.5581814
0
ARC
8
DEFAULT_255_1_234
10
10.6338627
20
0.199584
40
0.3237344
50
133.454115
51
162.9470031
0
ARC
8
DEFAULT_255_1_234
10
10.6517168
20
0.1806
40
0.349795
50
100.7869394
51
133.4384016
0
ARC
8
DEFAULT_255_1_234
10
10.6864939
20
0.0257319
40
0.5084616
50
89.6605301
51
101.3704185
0
ARC
8
DEFAULT_255_1_234
10
10.6931278
20
0.0318496
40
0.502348
50
78.2171172
51
90.4130393
0
ARC
8
DEFAULT_255_1_234
10
10.7286357
20
0.1942637
40
0.3361092
50
55.9268222
51
78.4888551
0
ARC
8
DEFAULT_255_1_234
10
10.7482797
20
0.2281324
40
0.2970617
50
47.9292255
51
55.4054003
0
ARC
8
DEFAULT_255_1_234
10
10.7584357
20
0.2384502
40
0.2825983
50
4.3347696
51
48.0560701
0
ARC
8
DEFAULT_255_1_234
10
10.6488751
20
0.2214601
40
0.393225
50
359.925209
51
5.5967654
0
ARC
8
DEFAULT_255_1_234
10
10.6917643
20
0.2270816
40
0.3503892
50
337.8914096
51
358.9967724
0
ARC
8
DEFAULT_255_1_234
10
10.4204055
20
0.3317706
40
0.6412172
50
326.9135351
51
338.3505194
0
ARC
8
DEFAULT_255_1_234
10
10.0218359
20
0.5872284
40
1.1146189
50
319.6472867
51
327.095818
0
ARC
8
DEFAULT_255_1_234
10
9.6385362
20
0.9034
40
1.6114559
50
317.2586784
51
319.9046139
0
LINE
8
DEFAULT_255_1_234
10
11.5778167
20
-0.0938974
11
11.5778167
21
-0.2151766
0
LINE
8
DEFAULT_255_1_234
10
11.5778167
20
-0.2151766
11
11.1858679
21
-0.2151766
0
LINE
8
DEFAULT_255_1_234
10
11.1858679
20
-0.2151766
11
11.1858679
21
-0.0938974
0
LINE
8
DEFAULT_255_1_234
10
11.1858679
20
-0.0938974
11
11.5778167
21
-0.0938974
0
ARC
8
DEFAULT_255_1_234
10
12.1341061
20
0.2103703
40
0.2822356
50
338.8763615
51
0.5166041
0
ARC
8
DEFAULT_255_1_234
10
12.1509715
20
0.2058208
40
0.2648703
50
325.8412414
51
338.4795939
0
ARC
8
DEFAULT_255_1_234
10
12.1119083
20
0.2329042
40
0.3124019
50
296.7586019
51
325.753654
0
ARC
8
DEFAULT_255_1_234
10
12.0831191
20
0.2813789
40
0.368668
50
296.0902311
51
297.3618122
0
ARC
8
DEFAULT_255_1_234
10
12.1088649
20
-0.3740959
40
0.3518806
50
47.9009248
51
67.1946869
0
ARC
8
DEFAULT_255_1_234
10
12.1284891
20
-0.3494605
40
0.320451
50
35.236241
51
47.551371
0
ARC
8
DEFAULT_255_1_234
10
12.1546509
20
-0.3320007
40
0.2890103
50
359.2759738
51
35.4014081
0
ARC
8
DEFAULT_255_1_234
10
12.080154
20
-0.3393174
40
0.3635026
50
343.1294516
51
0.5776525
0
ARC
8
DEFAULT_255_1_234
10
12.1526085
20
-0.359267
40
0.2883832
50
310.8497458
51
342.744803
0
ARC
8
DEFAULT_255_1_234
10
12.1108198
20
-0.3115706
40
0.3517954
50
281.5473923
51
310.9169905
0
ARC
8
DEFAULT_255_1_234
10
12.0751648
20
-0.1562916
40
0.5110832
50
269.6192722
51
281.9789957
0
ARC
8
DEFAULT_255_1_234
10
12.0679437
20
-0.1562172
40
0.5111606
50
257.4584469
51
270.4287458
0
ARC
8
DEFAULT_255_1_234
10
12.029858
20
-0.3165656
40
0.3463762
50
228.7553743
51
257.8484423
0
ARC
8
DEFAULT_255_1_234
10
11.9988778
20
-0.3538558
40
0.297916
50
184.0104442
51
228.5071787
0
ARC
8
DEFAULT_255_1_234
10
12.1151722
20
-0.3361488
40
0.4152734
50
179.9315461
51
185.3254504
0
ARC
8
DEFAULT_255_1_234
10
11.9975368
20
-0.3324008
40
0.2976554
50
145.6795913
51
180.6259649
0
ARC
8
DEFAULT_255_1_234
10
12.0138717
20
-0.3438071
40
0.3175776
50
115.5537925
51
145.6416199
0
ARC
8
DEFAULT_255_1_234
10
12.0479647
20
-0.4048972
40
0.3874232
50
113.2437915
51
116.2054627
0
ARC
8
DEFAULT_255_1_234
10
12.032686
20
0.234958
40
0.3154751
50
222.9548379
51
244.1372485
0
ARC
8
DEFAULT_255_1_234
10
12.0204935
20
0.2212834
40
0.2972382
50
213.3439227
51
222.6271327
0
ARC
8
DEFAULT_255_1_234
10
12.001287
20
0.2082308
40
0.274019
50
180.4316517
51
213.2713999
0
ARC
8
DEFAULT_255_1_234
10
12.0587871
20
0.212911
40
0.33158
50
179.9992944
51
181.1655061
0
ARC
8
DEFAULT_255_1_234
10
12.0997288
20
0.2163561
40
0.3725376
50
164.6186108
51
180.5292368
0
ARC
8
DEFAULT_255_1_234
10
12.0099151
20
0.2405101
40
0.2795349
50
132.2454369
51
164.5092287
0
ARC
8
DEFAULT_255_1_234
10
12.0386255
20
0.2080028
40
0.3229019
50
100.7052766
51
132.1387266
0
ARC
8
DEFAULT_255_1_234
10
12.0691227
20
0.0702086
40
0.4639835
50
89.6732617
51
101.2449487
0
ARC
8
DEFAULT_255_1_234
10
12.0753425
20
0.087699
40
0.4464999
50
76.2876631
51
90.4586123
0
ARC
8
DEFAULT_255_1_234
10
12.1059657
20
0.209922
40
0.3205023
50
47.8240157
51
76.4266918
0
ARC
8
DEFAULT_255_1_234
10
12.1282207
20
0.235959
40
0.2862661
50
6.9168658
51
47.6261438
0
ARC
8
DEFAULT_255_1_234
10
12.009561
20
0.214037
40
0.4067708
50
359.8419705
51
7.9694496
0
ARC
8
DEFAULT_255_1_234
10
12.0437507
20
-0.3300075
40
0.2513121
50
359.4454068
51
16.9256425
0
ARC
8
DEFAULT_255_1_234
10
12.0906318
20
-0.3170967
40
0.2027071
50
17.292259
51
45.462717
0
ARC
8
DEFAULT_255_1_234
10
12.0852254
20
-0.3217566
40
0.2098212
50
45.3028762
51
83.1921472
0
ARC
8
DEFAULT_255_1_234
10
12.0708938
20
-0.4019105
40
0.2911472
50
82.2614531
51
90.143954
0
ARC
8
DEFAULT_255_1_234
10
12.0678058
20
-0.378605
40
0.2678513
50
89.4959189
51
104.8579811
0
ARC
8
DEFAULT_255_1_234
10
12.0501317
20
-0.311611
40
0.1985654
50
104.8855873
51
135.2448349
0
ARC
8
DEFAULT_255_1_234
10
12.055109
20
-0.3160664
40
0.2052373
50
135.3398955
51
172.104394
0
ARC
8
DEFAULT_255_1_234
10
12.1358148
20
-0.3315075
40
0.2873299
50
171.2651929
51
180.1859362
0
ARC
8
DEFAULT_255_1_234
10
12.1188849
20
-0.3347267
40
0.2704083
50
179.515471
51
193.6466734
0
ARC
8
DEFAULT_255_1_234
10
12.0372618
20
-0.3555223
40
0.1861855
50
193.3540587
51
225.8256931
0
ARC
8
DEFAULT_255_1_234
10
12.0413375
20
-0.3484476
40
0.1941102
50
226.418029
51
255.8553723
0
ARC
8
DEFAULT_255_1_234
10
12.0669808
20
-0.2548002
40
0.2911917
50
255.4655572
51
268.7985967
0
ARC
8
DEFAULT_255_1_234
10
12.0717
20
-0.1709509
40
0.3751331
50
268.3464808
51
270.0104874
0
ARC
8
DEFAULT_255_1_234
10
12.0740388
20
-0.2393862
40
0.3067064
50
269.575914
51
282.0823146
0
ARC
8
DEFAULT_255_1_234
10
12.0965297
20
-0.3388197
40
0.2047712
50
281.7522535
51
306.6056425
0
ARC
8
DEFAULT_255_1_234
10
12.1063723
20
-0.3549513
40
0.1859604
50
307.1350025
51
314.0277951
0
ARC
8
DEFAULT_255_1_234
10
12.1027807
20
-0.3523234
40
0.1903475
50
314.2553419
51
350.169324
0
ARC
8
DEFAULT_255_1_234
10
12.0176276
20
-0.3338591
40
0.2774269
50
349.4145679
51
0.2930737
0
ARC
8
DEFAULT_255_1_234
10
12.0696709
20
0.1820353
40
0.2300764
50
89.477591
51
105.729794
0
ARC
8
DEFAULT_255_1_234
10
12.0560622
20
0.2325637
40
0.1777519
50
105.922966
51
135.1662921
0
ARC
8
DEFAULT_255_1_234
10
12.0581125
20
0.2311419
40
0.1802087
50
135.3053131
51
168.9882338
0
ARC
8
DEFAULT_255_1_234
10
12.1408697
20
0.2121721
40
0.2650806
50
168.3802067
51
180.3602358
0
ARC
8
DEFAULT_255_1_234
10
12.1180277
20
0.2084041
40
0.2422425
50
179.5029707
51
194.9126783
0
ARC
8
DEFAULT_255_1_234
10
12.0594938
20
0.193011
40
0.1817188
50
194.9722181
51
224.1943972
0
ARC
8
DEFAULT_255_1_234
10
12.0566805
20
0.1907169
40
0.1781027
50
224.2961434
51
262.0157375
0
ARC
8
DEFAULT_255_1_234
10
12.0709048
20
0.2638661
40
0.2525492
50
261.1250369
51
270.1959853
0
ARC
8
DEFAULT_255_1_234
10
12.0738803
20
0.2451339
40
0.233825
50
269.4825617
51
285.0988277
0
ARC
8
DEFAULT_255_1_234
10
12.0892962
20
0.187299
40
0.1739712
50
285.1585659
51
315.9484648
0
ARC
8
DEFAULT_255_1_234
10
12.0803974
20
0.1954886
40
0.1860616
50
316.0412958
51
351.9162715
0
ARC
8
DEFAULT_255_1_234
10
12.0070929
20
0.2096245
40
0.2606517
50
351.1056823
51
0.1936567
0
ARC
8
DEFAULT_255_1_234
10
12.0333758
20
0.2126369
40
0.234377
50
359.4789506
51
16.0679113
0
ARC
8
DEFAULT_255_1_234
10
12.0809717
20
0.225481
40
0.1850875
50
16.3251951
51
44.791304
0
ARC
8
DEFAULT_255_1_234
10
12.0791998
20
0.2255339
40
0.186312
50
44.3958661
51
88.2498933
0
ARC
8
DEFAULT_255_1_234
10
12.0718552
20
0.1644154
40
0.2476868
50
86.9833827
51
90.0200148
0
LINE
8
DEFAULT_255_1_234
10
13.4267229
20
-0.6513
11
13.3150817
21
-0.3460939
0
LINE
8
DEFAULT_255_1_234
10
13.3150817
20
-0.3460939
11
12.8251457
21
-0.3460939
0
LINE
8
DEFAULT_255_1_234
10
12.8251457
20
-0.3460939
11
12.7151109
21
-0.6513
0
LINE
8
DEFAULT_255_1_234
10
12.7151109
20
-0.6513
11
12.5560825
21
-0.6513
0
LINE
8
DEFAULT_255_1_234
10
12.5560825
20
-0.6513
11
13.0026471
21
0.5181211
0
LINE
8
DEFAULT_255_1_234
10
13.0026471
20
0.5181211
11
13.1375803
21
0.5181211
0
LINE
8
DEFAULT_255_1_234
10
13.1375803
20
0.5181211
11
13.5849481
21
-0.6513
0
LINE
8
DEFAULT_255_1_234
10
13.5849481
20
-0.6513
11
13.4267229
21
-0.6513
0
LINE
8
DEFAULT_255_1_234
10
13.0701137
20
0.3277689
11
12.8717298
21
-0.2191925
0
LINE
8
DEFAULT_255_1_234
10
12.8717298
20
-0.2191925
11
13.2693008
21
-0.2191925
0
LINE
8
DEFAULT_255_1_234
10
13.2693008
20
-0.2191925
11
13.0701137
21
0.3277689
0
LINE
8
DEFAULT_255_1_234
10
14.0660493
20
-0.6513
11
13.7423702
21
-0.6513
0
LINE
8
DEFAULT_255_1_234
10
13.7423702
20
-0.6513
11
13.7423702
21
0.5181211
0
LINE
8
DEFAULT_255_1_234
10
13.7423702
20
0.5181211
11
14.0724747
21
0.5181211
0
LINE
8
DEFAULT_255_1_234
10
14.5881123
20
-0.0272339
11
14.5881123
21
-0.1019291
0
LINE
8
DEFAULT_255_1_234
10
14.0764905
20
0.3912196
11
13.8965796
21
0.3912196
0
LINE
8
DEFAULT_255_1_234
10
13.8965796
20
0.3912196
11
13.8965796
21
-0.5252017
0
LINE
8
DEFAULT_255_1_234
10
13.8965796
20
-0.5252017
11
14.0588207
21
-0.5252017
0
LINE
8
DEFAULT_255_1_234
10
14.4355092
20
-0.0987164
11
14.4355092
21
-0.0304466
0
ARC
8
DEFAULT_255_1_234
10
14.0763689
20
-0.0684106
40
0.5865446
50
75.4101064
51
90.3804066
0
ARC
8
DEFAULT_255_1_234
10
14.0993203
20
0.0272492
40
0.4881916
50
60.145586
51
75.1888407
0
ARC
8
DEFAULT_255_1_234
10
14.1151978
20
0.0549199
40
0.4562893
50
26.5253612
51
60.1450928
0
ARC
8
DEFAULT_255_1_234
10
14.0031727
20
-0.0044842
40
0.5830602
50
7.4030428
51
26.8320788
0
ARC
8
DEFAULT_255_1_234
10
13.8437484
20
-0.0293196
40
0.7443669
50
0.1605367
51
7.7176192
0
ARC
8
DEFAULT_255_1_234
10
13.8601389
20
-0.1057566
40
0.7279835
50
348.7289388
51
0.3012466
0
ARC
8
DEFAULT_255_1_234
10
14.0257819
20
-0.1386614
40
0.559104
50
333.0706509
51
348.7181832
0
ARC
8
DEFAULT_255_1_234
10
14.1224577
20
-0.1911681
40
0.4491417
50
299.2531685
51
333.4571258
0
ARC
8
DEFAULT_255_1_234
10
14.0863716
20
-0.1226172
40
0.5265881
50
278.107187
51
299.0339503
0
ARC
8
DEFAULT_255_1_234
10
14.0607795
20
0.0281216
40
0.679442
50
270.4443897
51
278.4511052
0
ARC
8
DEFAULT_255_1_234
10
14.0628625
20
-0.0647787
40
0.4604407
50
269.4970433
51
284.0205042
0
ARC
8
DEFAULT_255_1_234
10
14.0983926
20
-0.2013022
40
0.3193797
50
283.7700273
51
318.1555492
0
ARC
8
DEFAULT_255_1_234
10
14.0646684
20
-0.1760633
40
0.3613588
50
318.7415601
51
343.6873628
0
ARC
8
DEFAULT_255_1_234
10
13.8842708
20
-0.1197168
40
0.5503313
50
343.3325091
51
355.8548958
0
ARC
8
DEFAULT_255_1_234
10
13.6744392
20
-0.0997681
40
0.7610708
50
355.4988528
51
0.0791727
0
ARC
8
DEFAULT_255_1_234
10
13.7527015
20
-0.026222
40
0.6828208
50
359.6455037
51
9.8607896
0
ARC
8
DEFAULT_255_1_234
10
13.9887712
20
0.0164099
40
0.4429406
50
9.6571907
51
26.1932807
0
ARC
8
DEFAULT_255_1_234
10
14.0815701
20
0.0595118
40
0.3406537
50
26.5777228
51
40.1532208
0
ARC
8
DEFAULT_255_1_234
10
14.1071428
20
0.0794619
40
0.308246
50
40.3840491
51
80.1431104
0
ARC
8
DEFAULT_255_1_234
10
14.0744545
20
-0.0654667
40
0.4566909
50
79.2152159
51
89.7445637
0
LINE
8
DEFAULT_255_1_234
10
15.4097591
20
0.5181211
11
15.4097591
21
-0.258548
0
LINE
8
DEFAULT_255_1_234
10
15.4097591
20
-0.258548
11
15.5720002
21
-0.258548
0
LINE
8
DEFAULT_255_1_234
10
15.5720002
20
-0.258548
11
15.5720002
21
-0.3798272
0
LINE
8
DEFAULT_255_1_234
10
15.5720002
20
-0.3798272
11
15.4097591
21
-0.3798272
0
LINE
8
DEFAULT_255_1_234
10
15.4097591
20
-0.3798272
11
15.4097591
21
-0.6513
0
LINE
8
DEFAULT_255_1_234
10
15.4097591
20
-0.6513
11
15.2603688
21
-0.6513
0
LINE
8
DEFAULT_255_1_234
10
15.2603688
20
-0.6513
11
15.2603688
21
-0.3798272
0
LINE
8
DEFAULT_255_1_234
10
15.2603688
20
-0.3798272
11
14.7278645
21
-0.3798272
0
LINE
8
DEFAULT_255_1_234
10
14.7278645
20
-0.3798272
11
14.7278645
21
-0.2922813
0
LINE
8
DEFAULT_255_1_234
10
14.7278645
20
-0.2922813
11
15.2515338
21
0.5181211
0
LINE
8
DEFAULT_255_1_234
10
15.2515338
20
0.5181211
11
15.4097591
21
0.5181211
0
LINE
8
DEFAULT_255_1_234
10
15.2426989
20
0.2827912
11
14.896531
21
-0.258548
0
LINE
8
DEFAULT_255_1_234
10
14.896531
20
-0.258548
11
15.2603688
21
-0.258548
0
LINE
8
DEFAULT_255_1_234
10
15.2603688
20
-0.258548
11
15.2603688
21
0.3149181
0
LINE
8
DEFAULT_255_1_234
10
15.2603688
20
0.3149181
11
15.2426989
21
0.2827912
0
LINE
8
DEFAULT_255_1_234
10
16.0683616
20
-0.6513
11
15.7446826
21
-0.6513
0
LINE
8
DEFAULT_255_1_234
10
15.7446826
20
-0.6513
11
15.7446826
21
0.5181211
0
LINE
8
DEFAULT_255_1_234
10
15.7446826
20
0.5181211
11
16.074787
21
0.5181211
0
LINE
8
DEFAULT_255_1_234
10
16.5904246
20
-0.0272339
11
16.5904246
21
-0.1019291
0
LINE
8
DEFAULT_255_1_234
10
16.0788029
20
0.3912196
11
15.8988919
21
0.3912196
0
LINE
8
DEFAULT_255_1_234
10
15.8988919
20
0.3912196
11
15.8988919
21
-0.5252017
0
LINE
8
DEFAULT_255_1_234
10
15.8988919
20
-0.5252017
11
16.0611331
21
-0.5252017
0
LINE
8
DEFAULT_255_1_234
10
16.4378216
20
-0.0987164
11
16.4378216
21
-0.0304466
0
ARC
8
DEFAULT_255_1_234
10
16.0786813
20
-0.0684106
40
0.5865446
50
75.4101064
51
90.3804066
0
ARC
8
DEFAULT_255_1_234
10
16.1016326
20
0.0272492
40
0.4881916
50
60.145586
51
75.1888407
0
ARC
8
DEFAULT_255_1_234
10
16.1175102
20
0.0549199
40
0.4562893
50
26.5253612
51
60.1450928
0
ARC
8
DEFAULT_255_1_234
10
16.0054851
20
-0.0044842
40
0.5830602
50
7.4030428
51
26.8320788
0
ARC
8
DEFAULT_255_1_234
10
15.8460608
20
-0.0293196
40
0.7443669
50
0.1605367
51
7.7176192
0
ARC
8
DEFAULT_255_1_234
10
15.8624512
20
-0.1057566
40
0.7279835
50
348.7289388
51
0.3012466
0
ARC
8
DEFAULT_255_1_234
10
16.0280943
20
-0.1386614
40
0.559104
50
333.0706509
51
348.7181832
0
ARC
8
DEFAULT_255_1_234
10
16.12477
20
-0.1911681
40
0.4491417
50
299.2531685
51
333.4571258
0
ARC
8
DEFAULT_255_1_234
10
16.088684
20
-0.1226172
40
0.5265881
50
278.107187
51
299.0339503
0
ARC
8
DEFAULT_255_1_234
10
16.0630919
20
0.0281216
40
0.679442
50
270.4443897
51
278.4511052
0
ARC
8
DEFAULT_255_1_234
10
16.0651749
20
-0.0647787
40
0.4604407
50
269.4970433
51
284.0205042
0
ARC
8
DEFAULT_255_1_234
10
16.100705
20
-0.2013022
40
0.3193797
50
283.7700273
51
318.1555492
0
ARC
8
DEFAULT_255_1_234
10
16.0669808
20
-0.1760633
40
0.3613588
50
318.7415601
51
343.6873628
0
ARC
8
DEFAULT_255_1_234
10
15.8865831
20
-0.1197168
40
0.5503313
50
343.3325091
51
355.8548958
0
ARC
8
DEFAULT_255_1_234
10
15.6767515
20
-0.0997681
40
0.7610708
50
355.4988528
51
0.0791727
0
ARC
8
DEFAULT_255_1_234
10
15.7550138
20
-0.026222
40
0.6828208
50
359.6455037
51
9.8607896
0
ARC
8
DEFAULT_255_1_234
10
15.9910836
20
0.0164099
40
0.4429406
50
9.6571907
51
26.1932807
0
ARC
8
DEFAULT_255_1_234
10
16.0838825
20
0.0595118
40
0.3406537
50
26.5777228
51
40.1532208
0
ARC
8
DEFAULT_255_1_234
10
16.1094551
20
0.0794619
40
0.308246
50
40.3840491
51
80.1431104
0
ARC
8
DEFAULT_255_1_234
10
16.0767669
20
-0.0654667
40
0.4566909
50
79.2152159
51
89.7445637
0
LINE
8
DEFAULT_255_1_234
10
17.5638713
20
-0.6513
11
17.4522301
21
-0.3460939
0
LINE
8
DEFAULT_255_1_234
10
17.4522301
20
-0.3460939
11
16.9622941
21
-0.3460939
0
LINE
8
DEFAULT_255_1_234
10
16.9622941
20
-0.3460939
11
16.8522593
21
-0.6513
0
LINE
8
DEFAULT_255_1_234
10
16.8522593
20
-0.6513
11
16.6932309
21
-0.6513
0
LINE
8
DEFAULT_255_1_234
10
16.6932309
20
-0.6513
11
17.1397955
21
0.5181211
0
LINE
8
DEFAULT_255_1_234
10
17.1397955
20
0.5181211
11
17.2747287
21
0.5181211
0
LINE
8
DEFAULT_255_1_234
10
17.2747287
20
0.5181211
11
17.7220965
21
-0.6513
0
LINE
8
DEFAULT_255_1_234
10
17.7220965
20
-0.6513
11
17.5638713
21
-0.6513
0
LINE
8
DEFAULT_255_1_234
10
17.2072621
20
0.3277689
11
17.0088782
21
-0.2191925
0
LINE
8
DEFAULT_255_1_234
10
17.0088782
20
-0.2191925
11
17.4064492
21
-0.2191925
0
LINE
8
DEFAULT_255_1_234
10
17.4064492
20
-0.2191925
11
17.2072621
21
0.3277689
0
LINE
8
DEFAULT_255_1_234
10
18.1654485
20
-0.0938974
11
18.1654485
21
-0.2151766
0
LINE
8
DEFAULT_255_1_234
10
18.1654485
20
-0.2151766
11
17.7734997
21
-0.2151766
0
LINE
8
DEFAULT_255_1_234
10
17.7734997
20
-0.2151766
11
17.7734997
21
-0.0938974
0
LINE
8
DEFAULT_255_1_234
10
17.7734997
20
-0.0938974
11
18.1654485
21
-0.0938974
0
LINE
8
DEFAULT_255_1_234
10
19.0609873
20
-0.5300208
11
19.0609873
21
-0.6513
0
LINE
8
DEFAULT_255_1_234
10
19.0609873
20
-0.6513
11
18.2947595
21
-0.6513
0
LINE
8
DEFAULT_255_1_234
10
18.2947595
20
-0.6513
11
18.2947595
21
-0.5444779
0
LINE
8
DEFAULT_255_1_234
10
18.2947595
20
-0.5444779
11
18.6995591
21
-0.0947005
0
LINE
8
DEFAULT_255_1_234
10
18.4208578
20
0.1735595
11
18.2722706
21
0.1735595
0
LINE
8
DEFAULT_255_1_234
10
18.787105
20
-0.1902782
11
18.4738672
21
-0.5300208
0
LINE
8
DEFAULT_255_1_234
10
18.4738672
20
-0.5300208
11
19.0609873
21
-0.5300208
0
ARC
8
DEFAULT_255_1_234
10
17.3505424
20
1.0982527
40
1.8008286
50
318.5132453
51
320.7828378
0
ARC
8
DEFAULT_255_1_234
10
17.8792399
20
0.6679426
40
1.1191493
50
320.7372736
51
323.9737074
0
ARC
8
DEFAULT_255_1_234
10
18.2712255
20
0.3839361
40
0.6350923
50
323.8961724
51
328.6421089
0
ARC
8
DEFAULT_255_1_234
10
18.475885
20
0.2577031
40
0.3946393
50
328.8299013
51
331.789948
0
ARC
8
DEFAULT_255_1_234
10
18.5756029
20
0.2062509
40
0.2824501
50
331.4255242
51
352.9364833
0
ARC
8
DEFAULT_255_1_234
10
18.589253
20
0.2031976
40
0.2685315
50
353.2248685
51
0.0169286
0
ARC
8
DEFAULT_255_1_234
10
18.6102406
20
0.205495
40
0.2475536
50
359.4866256
51
15.9339782
0
ARC
8
DEFAULT_255_1_234
10
18.6609392
20
0.2191286
40
0.1950618
50
16.1714718
51
43.5284424
0
ARC
8
DEFAULT_255_1_234
10
18.66867
20
0.2268573
40
0.184134
50
43.4415429
51
83.1661404
0
ARC
8
DEFAULT_255_1_234
10
18.6552618
20
0.1531771
40
0.258926
50
82.160215
51
90.1505798
0
ARC
8
DEFAULT_255_1_234
10
18.6521046
20
0.0994865
40
0.3126255
50
89.5460705
51
102.5418777
0
ARC
8
DEFAULT_255_1_234
10
18.6278132
20
0.2025665
40
0.2067346
50
102.1739365
51
129.2061916
0
ARC
8
DEFAULT_255_1_234
10
18.6199204
20
0.2150094
40
0.1921118
50
129.7279328
51
135.7542026
0
ARC
8
DEFAULT_255_1_234
10
18.6320731
20
0.2053045
40
0.2075944
50
136.175737
51
166.3674722
0
ARC
8
DEFAULT_255_1_234
10
18.732765
20
0.1783182
40
0.3118201
50
165.9092917
51
178.8683903
0
ARC
8
DEFAULT_255_1_234
10
18.8192512
20
0.1736179
40
0.3983935
50
178.438168
51
180.0083905
0
ARC
8
DEFAULT_255_1_234
10
18.6791114
20
0.1775231
40
0.4068601
50
163.2878735
51
180.5581814
0
ARC
8
DEFAULT_255_1_234
10
18.5989375
20
0.199584
40
0.3237344
50
133.454115
51
162.9470031
0
ARC
8
DEFAULT_255_1_234
10
18.6167917
20
0.1806
40
0.349795
50
100.7869394
51
133.4384016
0
ARC
8
DEFAULT_255_1_234
10
18.6515688
20
0.0257319
40
0.5084616
50
89.6605301
51
101.3704185
0
ARC
8
DEFAULT_255_1_234
10
18.6582027
20
0.0318496
40
0.502348
50
78.2171172
51
90.4130393
0
ARC
8
DEFAULT_255_1_234
10
18.6937105
20
0.1942637
40
0.3361092
50
55.9268222
51
78.4888551
0
ARC
8
DEFAULT_255_1_234
10
18.7133545
20
0.2281324
40
0.2970617
50
47.9292255
51
55.4054003
0
ARC
8
DEFAULT_255_1_234
10
18.7235106
20
0.2384502
40
0.2825983
50
4.3347696
51
48.0560701
0
ARC
8
DEFAULT_255_1_234
10
18.61395
20
0.2214601
40
0.393225
50
359.925209
51
5.5967654
0
ARC
8
DEFAULT_255_1_234
10
18.6568391
20
0.2270816
40
0.3503892
50
337.8914096
51
358.9967724
0
ARC
8
DEFAULT_255_1_234
10
18.3854804
20
0.3317706
40
0.6412172
50
326.9135351
51
338.3505194
0
ARC
8
DEFAULT_255_1_234
10
17.9869107
20
0.5872284
40
1.1146189
50
319.6472867
51
327.095818
0
ARC
8
DEFAULT_255_1_234
10
17.603611
20
0.9034
40
1.6114559
50
317.2586784
51
319.9046139
0
LINE
8
DEFAULT_255_1_234
10
8.5461344
20
70.5825091
11
8.2706458
21
70.5825091
0
LINE
8
DEFAULT_255_1_234
10
8.2706458
20
70.5825091
11
8.2706458
21
70.1247
0
LINE
8
DEFAULT_255_1_234
10
8.2706458
20
70.1247
11
8.1164364
21
70.1247
0
LINE
8
DEFAULT_255_1_234
10
8.1164364
20
70.1247
11
8.1164364
21
71.2941211
0
LINE
8
DEFAULT_255_1_234
10
8.1164364
20
71.2941211
11
8.5477407
21
71.2941211
0
LINE
8
DEFAULT_255_1_234
10
8.2706458
20
71.1672196
11
8.2706458
21
70.7086074
0
LINE
8
DEFAULT_255_1_234
10
8.2706458
20
70.7086074
11
8.5477407
21
70.7086074
0
LINE
8
DEFAULT_255_1_234
10
8.5565756
20
71.1672196
11
8.2706458
21
71.1672196
0
ARC
8
DEFAULT_255_1_234
10
8.5519534
20
70.6882195
40
0.6059162
50
78.8378113
51
90.3983573
0
ARC
8
DEFAULT_255_1_234
10
8.5935548
20
70.8902879
40
0.3996205
50
58.9632738
51
79.0810598
0
ARC
8
DEFAULT_255_1_234
10
8.623709
20
70.9462721
40
0.3361177
50
48.0197965
51
58.447194
0
ARC
8
DEFAULT_255_1_234
10
8.6325951
20
70.9548225
40
0.3238191
50
3.3375044
51
48.1766626
0
ARC
8
DEFAULT_255_1_234
10
8.509579
20
70.9371171
40
0.4477806
50
359.9477528
51
4.6829065
0
ARC
8
DEFAULT_255_1_234
10
8.5219107
20
70.9328628
40
0.4354656
50
346.1877825
51
0.5060252
0
ARC
8
DEFAULT_255_1_234
10
8.6577975
20
70.8975731
40
0.295089
50
310.8831995
51
346.5426355
0
ARC
8
DEFAULT_255_1_234
10
8.6269395
20
70.9392695
40
0.3468331
50
286.6925341
51
310.2288297
0
ARC
8
DEFAULT_255_1_234
10
8.5700226
20
71.1182882
40
0.5346654
50
274.6850312
51
287.0245141
0
ARC
8
DEFAULT_255_1_234
10
8.5474949
20
71.3391932
40
0.7566852
50
269.8969846
51
275.018904
0
ARC
8
DEFAULT_255_1_234
10
8.550254
20
71.1312707
40
0.4226708
50
269.6593078
51
279.4153575
0
ARC
8
DEFAULT_255_1_234
10
8.5759815
20
70.9822133
40
0.2714146
50
279.2049762
51
294.9900808
0
ARC
8
DEFAULT_255_1_234
10
8.6050141
20
70.9174508
40
0.2004525
50
295.2888114
51
311.2911209
0
ARC
8
DEFAULT_255_1_234
10
8.6121035
20
70.906922
40
0.1878703
50
311.7854996
51
347.2861051
0
ARC
8
DEFAULT_255_1_234
10
8.5137194
20
70.9322092
40
0.2894234
50
346.6893224
51
0.1059443
0
ARC
8
DEFAULT_255_1_234
10
8.4382089
20
70.9350685
40
0.3649409
50
359.6350983
51
0.0053152
0
ARC
8
DEFAULT_255_1_234
10
8.5352417
20
70.9375937
40
0.2679199
50
359.4672059
51
15.5933957
0
ARC
8
DEFAULT_255_1_234
10
8.5977306
20
70.9544779
40
0.2031932
50
15.7442113
51
46.6203375
0
ARC
8
DEFAULT_255_1_234
10
8.5829527
20
70.9374484
40
0.2257226
50
46.8628658
51
75.6676503
0
ARC
8
DEFAULT_255_1_234
10
8.5535347
20
70.8315718
40
0.3355939
50
75.276167
51
88.2915297
0
ARC
8
DEFAULT_255_1_234
10
8.5477054
20
70.7437524
40
0.4235602
50
87.8575022
51
88.8000139
0
LINE
8
DEFAULT_255_1_234
10
9.5509048
20
70.9985531
11
9.5509048
21
70.8604072
0
LINE
8
DEFAULT_255_1_234
10
9.2794321
20
70.7415375
11
9.2794321
21
70.1247
0
LINE
8
DEFAULT_255_1_234
10
9.2794321
20
70.1247
11
9.1308449
21
70.1247
0
LINE
8
DEFAULT_255_1_234
10
9.1308449
20
70.1247
11
9.1308449
21
70.9937341
0
LINE
8
DEFAULT_255_1_234
10
9.1308449
20
70.9937341
11
9.2754162
21
70.9937341
0
LINE
8
DEFAULT_255_1_234
10
9.2754162
20
70.9937341
11
9.2778257
21
70.8933374
0
ARC
8
DEFAULT_255_1_234
10
9.4842454
20
70.4544342
40
0.4114092
50
80.6754243
51
86.8932892
0
ARC
8
DEFAULT_255_1_234
10
9.4781988
20
70.35767
40
0.5083596
50
86.8038578
51
90.0431435
0
ARC
8
DEFAULT_255_1_234
10
9.4744969
20
70.6033866
40
0.2626638
50
89.2759698
51
106.6213787
0
ARC
8
DEFAULT_255_1_234
10
9.4540533
20
70.677683
40
0.1856317
50
107.1346045
51
157.6458115
0
ARC
8
DEFAULT_255_1_234
10
9.5232134
20
70.6393311
40
0.2643398
50
155.6586782
51
157.2539184
0
ARC
8
DEFAULT_255_1_234
10
9.5027337
20
70.7562157
40
0.2634121
50
127.8165941
51
148.6302098
0
ARC
8
DEFAULT_255_1_234
10
9.4773806
20
70.7822218
40
0.2273596
50
91.3329982
51
126.7875809
0
ARC
8
DEFAULT_255_1_234
10
9.4849746
20
70.7107195
40
0.299078
50
89.986594
51
92.4688449
0
ARC
8
DEFAULT_255_1_234
10
9.4858141
20
70.7382078
40
0.2715908
50
85.3589899
51
90.1623399
0
ARC
8
DEFAULT_255_1_234
10
9.4942657
20
70.8386164
40
0.1708278
50
78.401942
51
85.4594656
0
ARC
8
DEFAULT_255_1_234
10
9.5087541
20
70.9077236
40
0.1002194
50
67.7858312
51
78.5728455
0
ARC
8
DEFAULT_255_1_234
10
9.5195393
20
70.9356887
40
0.0702548
50
63.4835954
51
67.3062642
0
LINE
8
DEFAULT_255_1_234
10
9.6320254
20
70.5568075
11
9.6320254
21
70.5672488
0
LINE
8
DEFAULT_255_1_234
10
10.4231516
20
70.5600202
11
10.4231516
21
70.549579
0
ARC
8
DEFAULT_255_1_234
10
10.1906433
20
70.5704837
40
0.5586273
50
166.3003825
51
180.3317926
0
ARC
8
DEFAULT_255_1_234
10
10.1043593
20
70.5897964
40
0.4702272
50
153.8608245
51
166.0967125
0
ARC
8
DEFAULT_255_1_234
10
10.0377995
20
70.625475
40
0.3947658
50
135.1316692
51
154.253643
0
ARC
8
DEFAULT_255_1_234
10
10.0099555
20
70.6500666
40
0.3576898
50
121.7044358
51
134.776924
0
ARC
8
DEFAULT_255_1_234
10
10.0166548
20
70.6371867
40
0.3721701
50
93.4002104
51
121.5398234
0
ARC
8
DEFAULT_255_1_234
10
10.0261504
20
70.5546228
40
0.4551749
50
89.9706281
51
93.9769836
0
ARC
8
DEFAULT_255_1_234
10
10.0308596
20
70.5936362
40
0.4161854
50
71.3323442
51
90.6161982
0
ARC
8
DEFAULT_255_1_234
10
10.0471293
20
70.6538578
40
0.3539455
50
41.1815071
51
70.707185
0
ARC
8
DEFAULT_255_1_234
10
9.9993693
20
70.6104919
40
0.4184468
50
12.1971897
51
41.3445735
0
ARC
8
DEFAULT_255_1_234
10
9.80677
20
70.5646425
40
0.616399
50
359.5703439
51
12.5804035
0
ARC
8
DEFAULT_255_1_234
10
9.8540775
20
70.5464116
40
0.5690829
50
347.0197749
51
0.3188898
0
ARC
8
DEFAULT_255_1_234
10
9.9499277
20
70.5257808
40
0.4710501
50
334.3504053
51
346.846361
0
ARC
8
DEFAULT_255_1_234
10
10.0344701
20
70.4818805
40
0.3758475
50
310.422922
51
334.8045033
0
ARC
8
DEFAULT_255_1_234
10
10.0426526
20
70.4754782
40
0.3656736
50
301.8486886
51
310.097356
0
ARC
8
DEFAULT_255_1_234
10
10.0394252
20
70.4830638
40
0.3738224
50
274.307774
51
301.655379
0
ARC
8
DEFAULT_255_1_234
10
10.028356
20
70.5708361
40
0.4621997
50
269.9546461
51
274.8588071
0
ARC
8
DEFAULT_255_1_234
10
10.0234493
20
70.5207249
40
0.4121134
50
250.888809
51
270.631312
0
ARC
8
DEFAULT_255_1_234
10
10.0084413
20
70.4648277
40
0.3544073
50
221.1701932
51
250.2227191
0
ARC
8
DEFAULT_255_1_234
10
10.0568568
20
70.5089439
40
0.4198961
50
191.6263638
51
221.3526367
0
ARC
8
DEFAULT_255_1_234
10
10.2456563
20
70.5526329
40
0.6136451
50
179.610213
51
192.0693181
0
ARC
8
DEFAULT_255_1_234
10
10.2879791
20
70.5463633
40
0.5065736
50
179.636298
51
190.6162791
0
ARC
8
DEFAULT_255_1_234
10
10.1237459
20
70.514359
40
0.3392576
50
190.4136628
51
208.7170242
0
ARC
8
DEFAULT_255_1_234
10
10.0727084
20
70.4890366
40
0.2823401
50
209.1867941
51
217.4225593
0
ARC
8
DEFAULT_255_1_234
10
10.0197918
20
70.4424558
40
0.2120636
50
216.1156896
51
265.2575835
0
ARC
8
DEFAULT_255_1_234
10
10.0277066
20
70.4998109
40
0.2698952
50
264.5897417
51
270.0601757
0
ARC
8
DEFAULT_255_1_234
10
10.0310127
20
70.4618185
40
0.2319225
50
269.2532621
51
291.8792492
0
ARC
8
DEFAULT_255_1_234
10
10.0339348
20
70.4440238
40
0.2143562
50
292.9269754
51
323.1776747
0
ARC
8
DEFAULT_255_1_234
10
9.994617
20
70.4788452
40
0.2667346
50
322.2518483
51
323.0930371
0
ARC
8
DEFAULT_255_1_234
10
9.9651829
20
70.496999
40
0.3011886
50
323.6941278
51
343.8493282
0
ARC
8
DEFAULT_255_1_234
10
9.8073372
20
70.545035
40
0.4661719
50
343.5748474
51
355.0079071
0
ARC
8
DEFAULT_255_1_234
10
9.6065618
20
70.5658424
40
0.6680042
50
354.7285225
51
0.1206288
0
ARC
8
DEFAULT_255_1_234
10
9.7834084
20
70.5704751
40
0.4911667
50
359.623636
51
11.2015604
0
ARC
8
DEFAULT_255_1_234
10
9.9368311
20
70.602064
40
0.3345323
50
10.9989411
51
30.8319188
0
ARC
8
DEFAULT_255_1_234
10
9.9764184
20
70.6229297
40
0.2898553
50
31.3008956
51
37.3959224
0
ARC
8
DEFAULT_255_1_234
10
10.0260762
20
70.6648653
40
0.2249582
50
36.5915954
51
62.2442953
0
ARC
8
DEFAULT_255_1_234
10
10.0307216
20
70.6645602
40
0.2231053
50
63.3365542
51
89.7195421
0
ARC
8
DEFAULT_255_1_234
10
10.0264069
20
70.6076884
40
0.2800267
50
88.8936788
51
90.0047485
0
ARC
8
DEFAULT_255_1_234
10
10.0232429
20
70.6649787
40
0.2227586
50
89.1921125
51
114.7099455
0
ARC
8
DEFAULT_255_1_234
10
10.0261193
20
70.6687628
40
0.2205633
50
115.7997161
51
142.2900762
0
ARC
8
DEFAULT_255_1_234
10
10.0699925
20
70.6297658
40
0.2791541
50
141.4658779
51
142.3795754
0
ARC
8
DEFAULT_255_1_234
10
10.080883
20
70.6254557
40
0.2904292
50
143.0175714
51
163.234115
0
ARC
8
DEFAULT_255_1_234
10
10.2387002
20
70.5755054
40
0.4559523
50
162.9447461
51
174.3732162
0
ARC
8
DEFAULT_255_1_234
10
10.4532816
20
70.5514143
40
0.6718682
50
174.1228657
51
180.1565175
0
LINE
8
DEFAULT_255_1_234
10
10.5733451
20
70.5552012
11
10.5733451
21
70.5664456
0
LINE
8
DEFAULT_255_1_234
10
11.1580557
20
70.905385
11
11.1580557
21
71.358375
0
LINE
8
DEFAULT_255_1_234
10
11.1580557
20
71.358375
11
11.3066428
21
71.358375
0
LINE
8
DEFAULT_255_1_234
10
11.3066428
20
71.358375
11
11.3066428
21
70.1247
0
LINE
8
DEFAULT_255_1_234
10
11.3066428
20
70.1247
11
11.1701033
21
70.1247
0
LINE
8
DEFAULT_255_1_234
10
11.1701033
20
70.1247
11
11.1628747
21
70.2178682
0
LINE
8
DEFAULT_255_1_234
10
11.1580557
20
70.3616363
11
11.1580557
21
70.7608137
0
ARC
8
DEFAULT_255_1_234
10
11.2608605
20
70.5708457
40
0.6875294
50
169.1661407
51
180.3666851
0
ARC
8
DEFAULT_255_1_234
10
11.041225
20
70.6146387
40
0.4635805
50
150.2838427
51
169.3798909
0
ARC
8
DEFAULT_255_1_234
10
10.9778867
20
70.6470238
40
0.392532
50
142.1062393
51
149.806405
0
ARC
8
DEFAULT_255_1_234
10
10.9206599
20
70.6968749
40
0.3167807
50
118.4283255
51
142.8643566
0
ARC
8
DEFAULT_255_1_234
10
10.9107944
20
70.7031137
40
0.3066506
50
89.9199246
51
117.3621547
0
ARC
8
DEFAULT_255_1_234
10
10.9162923
20
70.6273731
40
0.3824245
50
89.9987914
51
90.7595231
0
ARC
8
DEFAULT_255_1_234
10
10.9200314
20
70.6508667
40
0.3589502
50
72.8978905
51
90.5955712
0
ARC
8
DEFAULT_255_1_234
10
10.9398262
20
70.7223123
40
0.2848505
50
39.9932841
51
72.477307
0
ARC
8
DEFAULT_255_1_234
10
10.936901
20
70.4010579
40
0.2908996
50
275.084999
51
320.969419
0
ARC
8
DEFAULT_255_1_234
10
10.915473
20
70.5277893
40
0.4191533
50
269.8935077
51
276.4672393
0
ARC
8
DEFAULT_255_1_234
10
10.9086745
20
70.4010703
40
0.2924958
50
222.0839186
51
271.1792213
0
ARC
8
DEFAULT_255_1_234
10
10.9697255
20
70.4635816
40
0.3797413
50
217.5160585
51
222.9101888
0
ARC
8
DEFAULT_255_1_234
10
11.0191094
20
70.4975781
40
0.4396261
50
193.0962774
51
217.1109254
0
ARC
8
DEFAULT_255_1_234
10
11.2148193
20
70.5464128
40
0.6413192
50
181.1070734
51
193.3838631
0
ARC
8
DEFAULT_255_1_234
10
11.3814252
20
70.5550869
40
0.8080801
50
179.9919009
51
181.4937549
0
ARC
8
DEFAULT_255_1_234
10
11.2997854
20
70.546472
40
0.5778615
50
179.6919417
51
188.6549204
0
ARC
8
DEFAULT_255_1_234
10
11.097827
20
70.5146672
40
0.3734182
50
188.4936033
51
202.2187731
0
ARC
8
DEFAULT_255_1_234
10
11.0010978
20
70.4763391
40
0.2693801
50
202.4517848
51
215.9307642
0
ARC
8
DEFAULT_255_1_234
10
10.9418424
20
70.4291191
40
0.1937215
50
214.9062306
51
264.2077075
0
ARC
8
DEFAULT_255_1_234
10
10.9512252
20
70.488915
40
0.2541804
50
263.4637896
51
270.0934907
0
ARC
8
DEFAULT_255_1_234
10
10.9552169
20
70.4797045
40
0.2449958
50
269.1634649
51
291.0931088
0
ARC
8
DEFAULT_255_1_234
10
10.9633874
20
70.4464994
40
0.2111194
50
292.2674853
51
328.1937478
0
ARC
8
DEFAULT_255_1_234
10
10.8942292
20
70.4964026
40
0.2962539
50
327.0410354
51
332.9414029
0
ARC
8
DEFAULT_255_1_234
10
10.935549
20
70.6440886
40
0.2512647
50
27.6811062
51
48.7893196
0
ARC
8
DEFAULT_255_1_234
10
10.9638771
20
70.6701916
40
0.2130039
50
49.8959006
51
87.010286
0
ARC
8
DEFAULT_255_1_234
10
10.9534629
20
70.5914504
40
0.292249
50
85.7764096
51
90.0424572
0
ARC
8
DEFAULT_255_1_234
10
10.9505345
20
70.6574006
40
0.2263149
50
89.313423
51
109.4265906
0
ARC
8
DEFAULT_255_1_234
10
10.9431056
20
70.6878962
40
0.1951098
50
110.3478057
51
145.1577858
0
ARC
8
DEFAULT_255_1_234
10
11.0084849
20
70.640275
40
0.2759807
50
144.7982748
51
162.8715388
0
ARC
8
DEFAULT_255_1_234
10
11.1779499
20
70.5857842
40
0.453983
50
162.5984223
51
173.3418672
0
ARC
8
DEFAULT_255_1_234
10
11.4447277
20
70.5526851
40
0.7228019
50
173.1877442
51
180.2462216
0
LINE
8
DEFAULT_255_1_234
10
12.0768865
20
70.1247
11
12.0736738
21
70.2106396
0
LINE
8
DEFAULT_255_1_234
10
11.533941
20
70.4282997
11
11.533941
21
70.9937341
0
LINE
8
DEFAULT_255_1_234
10
11.533941
20
70.9937341
11
11.6825282
21
70.9937341
0
LINE
8
DEFAULT_255_1_234
10
11.6825282
20
70.9937341
11
11.6825282
21
70.4323156
0
LINE
8
DEFAULT_255_1_234
10
12.069658
20
70.3616363
11
12.069658
21
70.9937341
0
LINE
8
DEFAULT_255_1_234
10
12.069658
20
70.9937341
11
12.2182451
21
70.9937341
0
LINE
8
DEFAULT_255_1_234
10
12.2182451
20
70.9937341
11
12.2182451
21
70.1247
0
LINE
8
DEFAULT_255_1_234
10
12.2182451
20
70.1247
11
12.0768865
21
70.1247
0
ARC
8
DEFAULT_255_1_234
10
11.8621203
20
70.392406
40
0.2789157
50
282.5436552
51
319.3308843
0
ARC
8
DEFAULT_255_1_234
10
11.8234036
20
70.5430137
40
0.4343667
50
269.8917857
51
283.214153
0
ARC
8
DEFAULT_255_1_234
10
11.8190721
20
70.6590183
40
0.5503818
50
269.9995424
51
270.3655186
0
ARC
8
DEFAULT_255_1_234
10
11.8160197
20
70.489953
40
0.3813286
50
257.7355913
51
270.4579866
0
ARC
8
DEFAULT_255_1_234
10
11.7862896
20
70.3600503
40
0.2480795
50
233.3384413
51
258.0721298
0
ARC
8
DEFAULT_255_1_234
10
11.7728503
20
70.3381041
40
0.2224626
50
221.9626381
51
232.7401232
0
ARC
8
DEFAULT_255_1_234
10
11.8008552
20
70.359633
40
0.2576959
50
197.9450831
51
221.3585622
0
ARC
8
DEFAULT_255_1_234
10
11.9403747
20
70.4072997
40
0.4051213
50
185.8088195
51
198.2790125
0
ARC
8
DEFAULT_255_1_234
10
12.129555
20
70.4297963
40
0.5956158
50
180.1439627
51
186.1199408
0
ARC
8
DEFAULT_255_1_234
10
12.0394418
20
70.428756
40
0.3569313
50
179.4285986
51
191.0735588
0
ARC
8
DEFAULT_255_1_234
10
11.8710846
20
70.3940017
40
0.1850421
50
190.5251661
51
212.6990766
0
ARC
8
DEFAULT_255_1_234
10
11.8246639
20
70.368383
40
0.1321852
50
214.2246197
51
264.4398755
0
ARC
8
DEFAULT_255_1_234
10
11.8423975
20
70.4593426
40
0.224609
50
262.1850223
51
270.1952455
0
ARC
8
DEFAULT_255_1_234
10
11.8465865
20
70.5869524
40
0.3522342
50
269.4431043
51
282.9585023
0
ARC
8
DEFAULT_255_1_234
10
11.8802555
20
70.4499561
40
0.2111871
50
282.391263
51
311.9722193
0
ARC
8
DEFAULT_255_1_234
10
11.8810152
20
70.4426809
40
0.2053153
50
313.1724425
51
336.7506893
0
LINE
8
DEFAULT_255_1_234
10
12.9973237
20
70.3985823
11
13.1378792
21
70.3985823
0
LINE
8
DEFAULT_255_1_234
10
12.4053846
20
70.5511853
11
12.4053846
21
70.5760837
0
LINE
8
DEFAULT_255_1_234
10
13.1378792
20
70.6949534
11
12.9973237
21
70.6949534
0
LINE
8
DEFAULT_255_1_234
10
12.5539718
20
70.5704615
11
12.5539718
21
70.5423504
0
ARC
8
DEFAULT_255_1_234
10
12.7961273
20
70.4439121
40
0.2140268
50
269.0327816
51
309.2224514
0
ARC
8
DEFAULT_255_1_234
10
12.8171027
20
70.4224108
40
0.1841255
50
308.396669
51
329.6984113
0
ARC
8
DEFAULT_255_1_234
10
12.8308882
20
70.411982
40
0.166974
50
330.401383
51
355.3970571
0
ARC
8
DEFAULT_255_1_234
10
12.8765748
20
70.4137082
40
0.2617417
50
329.2357853
51
356.6870514
0
ARC
8
DEFAULT_255_1_234
10
12.821577
20
70.4427971
40
0.3238945
50
324.8706984
51
329.7905871
0
ARC
8
DEFAULT_255_1_234
10
12.8137489
20
70.4495106
40
0.3341614
50
298.8769168
51
324.7016144
0
ARC
8
DEFAULT_255_1_234
10
12.780568
20
70.5023917
40
0.3965068
50
296.9023738
51
299.385174
0
ARC
8
DEFAULT_255_1_234
10
12.7935294
20
70.4736422
40
0.365007
50
269.8406811
51
297.1299281
0
ARC
8
DEFAULT_255_1_234
10
12.788195
20
70.5374407
40
0.4288259
50
253.315473
51
270.5771285
0
ARC
8
DEFAULT_255_1_234
10
12.7634985
20
70.4480739
40
0.3361372
50
221.1002312
51
252.9744583
0
ARC
8
DEFAULT_255_1_234
10
12.8094983
20
70.487559
40
0.3967576
50
194.5394537
51
221.0302238
0
ARC
8
DEFAULT_255_1_234
10
12.9943804
20
70.5390952
40
0.5886672
50
182.0499201
51
194.8773585
0
ARC
8
DEFAULT_255_1_234
10
13.1714002
20
70.550906
40
0.7660157
50
179.9791086
51
182.4591564
0
ARC
8
DEFAULT_255_1_234
10
12.9976046
20
70.5790498
40
0.5922274
50
168.614861
51
180.2869651
0
ARC
8
DEFAULT_255_1_234
10
12.8774191
20
70.6026269
40
0.4697532
50
154.9162259
51
168.5402336
0
ARC
8
DEFAULT_255_1_234
10
12.7852699
20
70.648163
40
0.3669966
50
133.5746694
51
155.2558665
0
ARC
8
DEFAULT_255_1_234
10
12.7689857
20
70.6620467
40
0.3457206
50
122.0165146
51
133.2055214
0
ARC
8
DEFAULT_255_1_234
10
12.7725696
20
70.6532361
40
0.355095
50
97.8731644
51
121.7531281
0
ARC
8
DEFAULT_255_1_234
10
12.7904779
20
70.5475159
40
0.4622833
50
89.8471353
51
98.2769494
0
ARC
8
DEFAULT_255_1_234
10
12.7953531
20
70.6085091
40
0.401305
50
73.3760412
51
90.5199766
0
ARC
8
DEFAULT_255_1_234
10
12.8149895
20
70.6807516
40
0.3264695
50
47.7085968
51
73.0509704
0
ARC
8
DEFAULT_255_1_234
10
12.8279765
20
70.6920128
40
0.309407
50
3.7443473
51
48.0843753
0
ARC
8
DEFAULT_255_1_234
10
12.7292714
20
70.6762614
40
0.4090351
50
2.6192045
51
5.0432185
0
ARC
8
DEFAULT_255_1_234
10
12.7749568
20
70.6802592
40
0.2228519
50
3.780656
51
23.9356886
0
ARC
8
DEFAULT_255_1_234
10
12.7978184
20
70.6883155
40
0.198697
50
24.4869552
51
46.9440088
0
ARC
8
DEFAULT_255_1_234
10
12.7979034
20
70.6906484
40
0.1969404
50
46.498716
51
89.3298174
0
ARC
8
DEFAULT_255_1_234
10
12.7917388
20
70.6311723
40
0.2565428
50
88.1083975
51
90.0061569
0
ARC
8
DEFAULT_255_1_234
10
12.7889818
20
70.6365759
40
0.251154
50
89.3773333
51
107.2071161
0
ARC
8
DEFAULT_255_1_234
10
12.7746941
20
70.688319
40
0.1975072
50
107.6883219
51
143.3583002
0
ARC
8
DEFAULT_255_1_234
10
12.8314325
20
70.6456873
40
0.2684762
50
143.2846717
51
162.935323
0
ARC
8
DEFAULT_255_1_234
10
12.9819926
20
70.5973652
40
0.4265927
50
162.6650068
51
174.0805419
0
ARC
8
DEFAULT_255_1_234
10
13.1962766
20
70.5724636
40
0.6423078
50
173.8423985
51
180.1785963
0
ARC
8
DEFAULT_255_1_234
10
13.1414866
20
70.5393039
40
0.5875227
50
179.7028978
51
188.2277152
0
ARC
8
DEFAULT_255_1_234
10
12.9313167
20
70.5078247
40
0.3750127
50
188.0629871
51
201.1160002
0
ARC
8
DEFAULT_255_1_234
10
12.8215366
20
70.4659238
40
0.2575093
50
201.2187293
51
216.9761968
0
ARC
8
DEFAULT_255_1_234
10
12.7763929
20
70.4320993
40
0.2010998
50
217.0135981
51
265.2056839
0
ARC
8
DEFAULT_255_1_234
10
12.7919788
20
70.5242695
40
0.2943543
50
263.681807
51
270.104251
0
LINE
8
DEFAULT_255_1_234
10
13.3579488
20
71.2041656
11
13.5065359
21
71.2041656
0
LINE
8
DEFAULT_255_1_234
10
13.5065359
20
71.2041656
11
13.5065359
21
70.9937341
0
LINE
8
DEFAULT_255_1_234
10
13.5065359
20
70.9937341
11
13.6687771
21
70.9937341
0
LINE
8
DEFAULT_255_1_234
10
13.6687771
20
70.9937341
11
13.6687771
21
70.8788802
0
LINE
8
DEFAULT_255_1_234
10
13.6687771
20
70.8788802
11
13.5065359
21
70.8788802
0
LINE
8
DEFAULT_255_1_234
10
13.5065359
20
70.8788802
11
13.5065359
21
70.3399506
0
LINE
8
DEFAULT_255_1_234
10
13.6727929
20
70.2451761
11
13.6727929
21
70.1247
0
LINE
8
DEFAULT_255_1_234
10
13.3579488
20
70.3399506
11
13.3579488
21
70.8788802
0
LINE
8
DEFAULT_255_1_234
10
13.3579488
20
70.8788802
11
13.1997235
21
70.8788802
0
LINE
8
DEFAULT_255_1_234
10
13.1997235
20
70.8788802
11
13.1997235
21
70.9937341
0
LINE
8
DEFAULT_255_1_234
10
13.1997235
20
70.9937341
11
13.3579488
21
70.9937341
0
LINE
8
DEFAULT_255_1_234
10
13.3579488
20
70.9937341
11
13.3579488
21
71.2041656
0
ARC
8
DEFAULT_255_1_234
10
13.7072862
20
70.3389084
40
0.200753
50
179.7025659
51
187.917967
0
ARC
8
DEFAULT_255_1_234
10
13.6326888
20
70.3281724
40
0.1253883
50
187.7545981
51
200.2447476
0
ARC
8
DEFAULT_255_1_234
10
13.5906209
20
70.3124859
40
0.0804913
50
200.130383
51
219.174133
0
ARC
8
DEFAULT_255_1_234
10
13.5770386
20
70.3032515
40
0.0641445
50
220.4434483
51
249.6172
0
ARC
8
DEFAULT_255_1_234
10
13.5925236
20
70.3421968
40
0.1060489
50
249.1032952
51
262.775154
0
ARC
8
DEFAULT_255_1_234
10
13.6013408
20
70.4050715
40
0.1695354
50
262.4913187
51
270.2611758
0
ARC
8
DEFAULT_255_1_234
10
13.6010825
20
70.4266103
40
0.191075
50
270.3091804
51
275.6625139
0
ARC
8
DEFAULT_255_1_234
10
13.586805
20
70.5767435
40
0.3418851
50
275.5610264
51
279.0879356
0
ARC
8
DEFAULT_255_1_234
10
13.5537927
20
70.7862699
40
0.5539959
50
279.0365489
51
281.5011378
0
ARC
8
DEFAULT_255_1_234
10
13.5181004
20
70.9666423
40
0.7378639
50
281.4243939
51
282.1017894
0
ARC
8
DEFAULT_255_1_234
10
13.5524251
20
70.5584858
40
0.4501761
50
275.2597045
51
285.5083879
0
ARC
8
DEFAULT_255_1_234
10
13.5585576
20
70.5028606
40
0.3942242
50
270.0268409
51
275.1132796
0
ARC
8
DEFAULT_255_1_234
10
13.5565541
20
70.3701614
40
0.261534
50
257.3573315
51
270.479383
0
ARC
8
DEFAULT_255_1_234
10
13.5352431
20
70.2803406
40
0.1692304
50
230.8037497
51
257.741658
0
ARC
8
DEFAULT_255_1_234
10
13.5284335
20
70.2693777
40
0.1564393
50
219.974146
51
230.1990686
0
ARC
8
DEFAULT_255_1_234
10
13.5616281
20
70.2947579
40
0.1981916
50
196.5084186
51
219.4318458
0
ARC
8
DEFAULT_255_1_234
10
13.6631727
20
70.3266194
40
0.3046086
50
184.6404872
51
196.8269686
0
ARC
8
DEFAULT_255_1_234
10
13.7876791
20
70.3391908
40
0.4297309
50
179.8986958
51
184.9681077
0
LINE
8
DEFAULT_255_1_234
10
14.0037005
20
70.9937341
11
14.0037005
21
70.1247
0
LINE
8
DEFAULT_255_1_234
10
14.0037005
20
70.1247
11
13.8551134
21
70.1247
0
LINE
8
DEFAULT_255_1_234
10
13.8551134
20
70.1247
11
13.8551134
21
70.9937341
0
LINE
8
DEFAULT_255_1_234
10
13.8551134
20
70.9937341
11
14.0037005
21
70.9937341
0
ARC
8
DEFAULT_255_1_234
10
13.9409282
20
71.2251889
40
0.097867
50
161.415052
51
180.5526306
0
ARC
8
DEFAULT_255_1_234
10
13.9285061
20
71.2286077
40
0.0850062
50
138.1827368
51
160.9307106
0
ARC
8
DEFAULT_255_1_234
10
13.9175006
20
71.2381588
40
0.0704362
50
104.6368899
51
138.0039868
0
ARC
8
DEFAULT_255_1_234
10
13.9282161
20
71.2014963
40
0.1086221
50
92.0600725
51
105.2189128
0
ARC
8
DEFAULT_255_1_234
10
13.9305509
20
71.1672117
40
0.1429728
50
89.9756393
51
92.5012496
0
ARC
8
DEFAULT_255_1_234
10
13.9315529
20
71.1897731
40
0.1204151
50
78.0235316
51
90.4478182
0
ARC
8
DEFAULT_255_1_234
10
13.9407621
20
71.2311295
40
0.0780493
50
55.051506
51
78.3369085
0
ARC
8
DEFAULT_255_1_234
10
13.9457895
20
71.2395711
40
0.0682538
50
42.0501187
51
54.4513741
0
ARC
8
DEFAULT_255_1_234
10
13.9322762
20
71.2271798
40
0.0865878
50
1.7497075
51
42.1496013
0
ARC
8
DEFAULT_255_1_234
10
13.9068095
20
71.2242738
40
0.1121515
50
359.9852656
51
2.8364544
0
ARC
8
DEFAULT_255_1_234
10
13.9234087
20
71.2233229
40
0.0955566
50
342.1070653
51
0.552888
0
ARC
8
DEFAULT_255_1_234
10
13.9376784
20
71.2193904
40
0.0807713
50
316.7107116
51
341.6516965
0
ARC
8
DEFAULT_255_1_234
10
13.9443822
20
71.2133823
40
0.0717724
50
285.4397031
51
316.5324284
0
ARC
8
DEFAULT_255_1_234
10
13.9333739
20
71.2499554
40
0.1099597
50
272.3547054
51
285.8953117
0
ARC
8
DEFAULT_255_1_234
10
13.9306897
20
71.2865048
40
0.1465932
50
269.9695369
51
272.8160237
0
ARC
8
DEFAULT_255_1_234
10
13.9297078
20
71.2645863
40
0.1246779
50
258.8431134
51
270.4153935
0
ARC
8
DEFAULT_255_1_234
10
13.920712
20
71.2210414
40
0.0802162
50
238.5431189
51
259.1288175
0
ARC
8
DEFAULT_255_1_234
10
13.9139005
20
71.2086856
40
0.0661247
50
222.5062634
51
237.9906969
0
ARC
8
DEFAULT_255_1_234
10
13.9266593
20
71.2202889
40
0.0833707
50
184.1069131
51
222.460413
0
ARC
8
DEFAULT_255_1_234
10
13.9535833
20
71.2241349
40
0.1105176
50
179.9429482
51
185.0960898
0
LINE
8
DEFAULT_255_1_234
10
14.3073002
20
70.9937341
11
14.528173
21
70.3262966
0
LINE
8
DEFAULT_255_1_234
10
14.528173
20
70.3262966
11
14.7434236
21
70.9937341
0
LINE
8
DEFAULT_255_1_234
10
14.7434236
20
70.9937341
11
14.8952235
21
70.9937341
0
LINE
8
DEFAULT_255_1_234
10
14.8952235
20
70.9937341
11
14.583592
21
70.1247
0
LINE
8
DEFAULT_255_1_234
10
14.583592
20
70.1247
11
14.4703445
21
70.1247
0
LINE
8
DEFAULT_255_1_234
10
14.4703445
20
70.1247
11
14.1555004
21
70.9937341
0
LINE
8
DEFAULT_255_1_234
10
14.1555004
20
70.9937341
11
14.3073002
21
70.9937341
0
LINE
8
DEFAULT_255_1_234
10
15.1996264
20
70.9937341
11
15.1996264
21
70.1247
0
LINE
8
DEFAULT_255_1_234
10
15.1996264
20
70.1247
11
15.0510392
21
70.1247
0
LINE
8
DEFAULT_255_1_234
10
15.0510392
20
70.1247
11
15.0510392
21
70.9937341
0
LINE
8
DEFAULT_255_1_234
10
15.0510392
20
70.9937341
11
15.1996264
21
70.9937341
0
ARC
8
DEFAULT_255_1_234
10
15.1368541
20
71.2251889
40
0.097867
50
161.415052
51
180.5526306
0
ARC
8
DEFAULT_255_1_234
10
15.1244319
20
71.2286077
40
0.0850062
50
138.1827368
51
160.9307106
0
ARC
8
DEFAULT_255_1_234
10
15.1134265
20
71.2381588
40
0.0704362
50
104.6368899
51
138.0039868
0
ARC
8
DEFAULT_255_1_234
10
15.1241419
20
71.2014963
40
0.1086221
50
92.0600725
51
105.2189128
0
ARC
8
DEFAULT_255_1_234
10
15.1264768
20
71.1672117
40
0.1429728
50
89.9756393
51
92.5012496
0
ARC
8
DEFAULT_255_1_234
10
15.1274787
20
71.1897731
40
0.1204151
50
78.0235316
51
90.4478182
0
ARC
8
DEFAULT_255_1_234
10
15.1366879
20
71.2311295
40
0.0780493
50
55.051506
51
78.3369085
0
ARC
8
DEFAULT_255_1_234
10
15.1417153
20
71.2395711
40
0.0682538
50
42.0501187
51
54.4513741
0
ARC
8
DEFAULT_255_1_234
10
15.128202
20
71.2271798
40
0.0865878
50
1.7497075
51
42.1496013
0
ARC
8
DEFAULT_255_1_234
10
15.1027353
20
71.2242738
40
0.1121515
50
359.9852656
51
2.8364544
0
ARC
8
DEFAULT_255_1_234
10
15.1193345
20
71.2233229
40
0.0955566
50
342.1070653
51
0.552888
0
ARC
8
DEFAULT_255_1_234
10
15.1336043
20
71.2193904
40
0.0807713
50
316.7107116
51
341.6516965
0
ARC
8
DEFAULT_255_1_234
10
15.140308
20
71.2133823
40
0.0717724
50
285.4397031
51
316.5324284
0
ARC
8
DEFAULT_255_1_234
10
15.1292997
20
71.2499554
40
0.1099597
50
272.3547054
51
285.8953117
0
ARC
8
DEFAULT_255_1_234
10
15.1266155
20
71.2865048
40
0.1465932
50
269.9695369
51
272.8160237
0
ARC
8
DEFAULT_255_1_234
10
15.1256336
20
71.2645863
40
0.1246779
50
258.8431134
51
270.4153935
0
ARC
8
DEFAULT_255_1_234
10
15.1166379
20
71.2210414
40
0.0802162
50
238.5431189
51
259.1288175
0
ARC
8
DEFAULT_255_1_234
10
15.1098264
20
71.2086856
40
0.0661247
50
222.5062634
51
237.9906969
0
ARC
8
DEFAULT_255_1_234
10
15.1225851
20
71.2202889
40
0.0833707
50
184.1069131
51
222.460413
0
ARC
8
DEFAULT_255_1_234
10
15.1495092
20
71.2241349
40
0.1105176
50
179.9429482
51
185.0960898
0
LINE
8
DEFAULT_255_1_234
10
15.4903753
20
71.2041656
11
15.6389625
21
71.2041656
0
LINE
8
DEFAULT_255_1_234
10
15.6389625
20
71.2041656
11
15.6389625
21
70.9937341
0
LINE
8
DEFAULT_255_1_234
10
15.6389625
20
70.9937341
11
15.8012036
21
70.9937341
0
LINE
8
DEFAULT_255_1_234
10
15.8012036
20
70.9937341
11
15.8012036
21
70.8788802
0
LINE
8
DEFAULT_255_1_234
10
15.8012036
20
70.8788802
11
15.6389625
21
70.8788802
0
LINE
8
DEFAULT_255_1_234
10
15.6389625
20
70.8788802
11
15.6389625
21
70.3399506
0
LINE
8
DEFAULT_255_1_234
10
15.8052194
20
70.2451761
11
15.8052194
21
70.1247
0
LINE
8
DEFAULT_255_1_234
10
15.4903753
20
70.3399506
11
15.4903753
21
70.8788802
0
LINE
8
DEFAULT_255_1_234
10
15.4903753
20
70.8788802
11
15.33215
21
70.8788802
0
LINE
8
DEFAULT_255_1_234
10
15.33215
20
70.8788802
11
15.33215
21
70.9937341
0
LINE
8
DEFAULT_255_1_234
10
15.33215
20
70.9937341
11
15.4903753
21
70.9937341
0
LINE
8
DEFAULT_255_1_234
10
15.4903753
20
70.9937341
11
15.4903753
21
71.2041656
0
ARC
8
DEFAULT_255_1_234
10
15.8397127
20
70.3389084
40
0.200753
50
179.7025659
51
187.917967
0
ARC
8
DEFAULT_255_1_234
10
15.7651153
20
70.3281724
40
0.1253883
50
187.7545981
51
200.2447476
0
ARC
8
DEFAULT_255_1_234
10
15.7230474
20
70.3124859
40
0.0804913
50
200.130383
51
219.174133
0
ARC
8
DEFAULT_255_1_234
10
15.7094651
20
70.3032515
40
0.0641445
50
220.4434483
51
249.6172
0
ARC
8
DEFAULT_255_1_234
10
15.7249501
20
70.3421968
40
0.1060489
50
249.1032952
51
262.775154
0
ARC
8
DEFAULT_255_1_234
10
15.7337673
20
70.4050715
40
0.1695354
50
262.4913187
51
270.2611758
0
ARC
8
DEFAULT_255_1_234
10
15.7335091
20
70.4266103
40
0.191075
50
270.3091804
51
275.6625139
0
ARC
8
DEFAULT_255_1_234
10
15.7192315
20
70.5767435
40
0.3418851
50
275.5610264
51
279.0879356
0
ARC
8
DEFAULT_255_1_234
10
15.6862192
20
70.7862699
40
0.5539959
50
279.0365489
51
281.5011378
0
ARC
8
DEFAULT_255_1_234
10
15.6505269
20
70.9666423
40
0.7378639
50
281.4243939
51
282.1017894
0
ARC
8
DEFAULT_255_1_234
10
15.6848516
20
70.5584858
40
0.4501761
50
275.2597045
51
285.5083879
0
ARC
8
DEFAULT_255_1_234
10
15.6909841
20
70.5028606
40
0.3942242
50
270.0268409
51
275.1132796
0
ARC
8
DEFAULT_255_1_234
10
15.6889806
20
70.3701614
40
0.261534
50
257.3573315
51
270.479383
0
ARC
8
DEFAULT_255_1_234
10
15.6676697
20
70.2803406
40
0.1692304
50
230.8037497
51
257.741658
0
ARC
8
DEFAULT_255_1_234
10
15.66086
20
70.2693777
40
0.1564393
50
219.974146
51
230.1990686
0
ARC
8
DEFAULT_255_1_234
10
15.6940546
20
70.2947579
40
0.1981916
50
196.5084186
51
219.4318458
0
ARC
8
DEFAULT_255_1_234
10
15.7955992
20
70.3266194
40
0.3046086
50
184.6404872
51
196.8269686
0
ARC
8
DEFAULT_255_1_234
10
15.9201056
20
70.3391908
40
0.4297309
50
179.8986958
51
184.9681077
0
LINE
8
DEFAULT_255_1_234
10
16.0421557
20
70.9937341
11
16.2590126
21
70.3423601
0
LINE
8
DEFAULT_255_1_234
10
16.2590126
20
70.3423601
11
16.4614125
21
70.9937341
0
LINE
8
DEFAULT_255_1_234
10
16.4614125
20
70.9937341
11
16.6204409
21
70.9937341
0
LINE
8
DEFAULT_255_1_234
10
16.6204409
20
70.9937341
11
16.2710603
21
69.99057
0
LINE
8
DEFAULT_255_1_234
10
16.0132415
20
69.773713
11
15.9851304
21
69.7761226
0
LINE
8
DEFAULT_255_1_234
10
15.9851304
20
69.7761226
11
15.9297114
21
69.7865638
0
LINE
8
DEFAULT_255_1_234
10
15.9297114
20
69.7865638
11
15.9297114
21
69.9070399
0
LINE
8
DEFAULT_255_1_234
10
15.9297114
20
69.9070399
11
15.9698701
21
69.9038272
0
LINE
8
DEFAULT_255_1_234
10
16.1570096
20
70.045989
11
16.1899397
21
70.1343381
0
LINE
8
DEFAULT_255_1_234
10
16.1899397
20
70.1343381
11
15.8799146
21
70.9937341
0
LINE
8
DEFAULT_255_1_234
10
15.8799146
20
70.9937341
11
16.0421557
21
70.9937341
0
ARC
8
DEFAULT_255_1_234
10
15.8075945
20
70.1590403
40
0.4931356
50
327.7224013
51
340.0237316
0
ARC
8
DEFAULT_255_1_234
10
15.9828161
20
70.045872
40
0.2845645
50
305.2163759
51
328.1469174
0
ARC
8
DEFAULT_255_1_234
10
16.0173212
20
70.0049893
40
0.2313123
50
268.9893887
51
304.0733175
0
ARC
8
DEFAULT_255_1_234
10
15.9713414
20
70.2073864
40
0.3035628
50
269.7222887
51
278.0404605
0
ARC
8
DEFAULT_255_1_234
10
15.9869237
20
70.1013823
40
0.1964222
50
277.8648378
51
290.8634365
0
ARC
8
DEFAULT_255_1_234
10
16.0077226
20
70.0458422
40
0.1371168
50
291.0076295
51
305.5967213
0
ARC
8
DEFAULT_255_1_234
10
16.0058417
20
70.0442702
40
0.1369553
50
306.6194038
51
324.1023288
0
ARC
8
DEFAULT_255_1_234
10
15.9311231
20
70.09972
40
0.2299972
50
323.8264381
51
334.2987676
0
ARC
8
DEFAULT_255_1_234
10
15.806734
20
70.1608087
40
0.3685747
50
334.1277399
51
340.8153554
0
ARC
8
DEFAULT_255_1_234
10
15.7091275
20
70.1967465
40
0.4725741
50
340.5889714
51
341.3967148
0
LINE
8
DEFAULT_255_1_234
10
17.5039321
20
70.2459792
11
17.5039321
21
70.1247
0
LINE
8
DEFAULT_255_1_234
10
17.5039321
20
70.1247
11
16.7377042
21
70.1247
0
LINE
8
DEFAULT_255_1_234
10
16.7377042
20
70.1247
11
16.7377042
21
70.2315221
0
LINE
8
DEFAULT_255_1_234
10
16.7377042
20
70.2315221
11
17.1425039
21
70.6812995
0
LINE
8
DEFAULT_255_1_234
10
16.8638025
20
70.9495595
11
16.7152154
21
70.9495595
0
LINE
8
DEFAULT_255_1_234
10
17.2300498
20
70.5857218
11
16.916812
21
70.2459792
0
LINE
8
DEFAULT_255_1_234
10
16.916812
20
70.2459792
11
17.5039321
21
70.2459792
0
ARC
8
DEFAULT_255_1_234
10
15.7934872
20
71.8742527
40
1.8008286
50
318.5132453
51
320.7828378
0
ARC
8
DEFAULT_255_1_234
10
16.3221846
20
71.4439426
40
1.1191493
50
320.7372736
51
323.9737074
0
ARC
8
DEFAULT_255_1_234
10
16.7141703
20
71.1599361
40
0.6350923
50
323.8961724
51
328.6421089
0
ARC
8
DEFAULT_255_1_234
10
16.9188298
20
71.0337031
40
0.3946393
50
328.8299013
51
331.789948
0
ARC
8
DEFAULT_255_1_234
10
17.0185477
20
70.9822509
40
0.2824501
50
331.4255242
51
352.9364833
0
ARC
8
DEFAULT_255_1_234
10
17.0321977
20
70.9791976
40
0.2685315
50
353.2248685
51
0.0169286
0
ARC
8
DEFAULT_255_1_234
10
17.0531854
20
70.981495
40
0.2475536
50
359.4866256
51
15.9339782
0
ARC
8
DEFAULT_255_1_234
10
17.1038839
20
70.9951286
40
0.1950618
50
16.1714718
51
43.5284424
0
ARC
8
DEFAULT_255_1_234
10
17.1116148
20
71.0028573
40
0.184134
50
43.4415429
51
83.1661404
0
ARC
8
DEFAULT_255_1_234
10
17.0982066
20
70.9291771
40
0.258926
50
82.160215
51
90.1505798
0
ARC
8
DEFAULT_255_1_234
10
17.0950494
20
70.8754865
40
0.3126255
50
89.5460705
51
102.5418777
0
ARC
8
DEFAULT_255_1_234
10
17.070758
20
70.9785665
40
0.2067346
50
102.1739365
51
129.2061916
0
ARC
8
DEFAULT_255_1_234
10
17.0628651
20
70.9910094
40
0.1921118
50
129.7279328
51
135.7542026
0
ARC
8
DEFAULT_255_1_234
10
17.0750179
20
70.9813045
40
0.2075944
50
136.175737
51
166.3674722
0
ARC
8
DEFAULT_255_1_234
10
17.1757098
20
70.9543182
40
0.3118201
50
165.9092917
51
178.8683903
0
ARC
8
DEFAULT_255_1_234
10
17.262196
20
70.9496179
40
0.3983935
50
178.438168
51
180.0083905
0
ARC
8
DEFAULT_255_1_234
10
17.1220562
20
70.9535231
40
0.4068601
50
163.2878735
51
180.5581814
0
ARC
8
DEFAULT_255_1_234
10
17.0418823
20
70.975584
40
0.3237344
50
133.454115
51
162.9470031
0
ARC
8
DEFAULT_255_1_234
10
17.0597364
20
70.9566
40
0.349795
50
100.7869394
51
133.4384016
0
ARC
8
DEFAULT_255_1_234
10
17.0945136
20
70.8017319
40
0.5084616
50
89.6605301
51
101.3704185
0
ARC
8
DEFAULT_255_1_234
10
17.1011475
20
70.8078496
40
0.502348
50
78.2171172
51
90.4130393
0
ARC
8
DEFAULT_255_1_234
10
17.1366553
20
70.9702637
40
0.3361092
50
55.9268222
51
78.4888551
0
ARC
8
DEFAULT_255_1_234
10
17.1562993
20
71.0041324
40
0.2970617
50
47.9292255
51
55.4054003
0
ARC
8
DEFAULT_255_1_234
10
17.1664554
20
71.0144502
40
0.2825983
50
4.3347696
51
48.0560701
0
ARC
8
DEFAULT_255_1_234
10
17.0568947
20
70.9974601
40
0.393225
50
359.925209
51
5.5967654
0
ARC
8
DEFAULT_255_1_234
10
17.0997839
20
71.0030816
40
0.3503892
50
337.8914096
51
358.9967724
0
ARC
8
DEFAULT_255_1_234
10
16.8284251
20
71.1077706
40
0.6412172
50
326.9135351
51
338.3505194
0
ARC
8
DEFAULT_255_1_234
10
16.4298555
20
71.3632284
40
1.1146189
50
319.6472867
51
327.095818
0
ARC
8
DEFAULT_255_1_234
10
16.0465558
20
71.6794
40
1.6114559
50
317.2586784
51
319.9046139
0
LINE
8
DEFAULT_255_1_234
10
18.3946519
20
70.8162327
11
18.3946519
21
70.6234709
0
LINE
8
DEFAULT_255_1_234
10
17.6565351
20
70.6033916
11
17.6565351
21
70.8017755
0
LINE
8
DEFAULT_255_1_234
10
18.2460647
20
70.5833123
11
18.2460647
21
70.8266739
0
LINE
8
DEFAULT_255_1_234
10
17.8051223
20
70.8379184
11
17.8051223
21
70.6001789
0
ARC
8
DEFAULT_255_1_234
10
17.1699408
20
70.6185805
40
1.2247208
50
353.8441951
51
0.2287902
0
ARC
8
DEFAULT_255_1_234
10
17.6338912
20
70.5667806
40
0.7578929
50
344.4934747
51
353.9765454
0
ARC
8
DEFAULT_255_1_234
10
17.9331502
20
70.4816981
40
0.4467846
50
329.2803592
51
344.7472793
0
ARC
8
DEFAULT_255_1_234
10
18.0324327
20
70.4272018
40
0.3336173
50
324.9352394
51
328.6160465
0
ARC
8
DEFAULT_255_1_234
10
18.0701436
20
70.4008427
40
0.2876076
50
280.580143
51
324.9173126
0
ARC
8
DEFAULT_255_1_234
10
18.0300228
20
70.5679099
40
0.4592847
50
269.5977311
51
281.6734359
0
ARC
8
DEFAULT_255_1_234
10
18.0228134
20
70.5559173
40
0.4472986
50
256.6228859
51
270.51044
0
ARC
8
DEFAULT_255_1_234
10
17.9826112
20
70.4010877
40
0.2873874
50
215.8618325
51
257.2788573
0
ARC
8
DEFAULT_255_1_234
10
18.0847143
20
70.4695977
40
0.4102928
50
197.9693508
51
215.2623606
0
ARC
8
DEFAULT_255_1_234
10
18.3332259
20
70.5534709
40
0.6725652
50
187.8816417
51
198.2346507
0
ARC
8
DEFAULT_255_1_234
10
18.7290467
20
70.6106079
40
1.0724845
50
180.8976217
51
188.0055519
0
ARC
8
DEFAULT_255_1_234
10
19.0090655
20
70.6209777
40
1.3526448
50
180.7449369
51
181.1510016
0
ARC
8
DEFAULT_255_1_234
10
18.8513384
20
70.8066042
40
1.1948131
50
173.7675579
51
180.231553
0
ARC
8
DEFAULT_255_1_234
10
18.3995531
20
70.8576666
40
0.7401564
50
164.3058563
51
173.9002247
0
ARC
8
DEFAULT_255_1_234
10
18.10836
20
70.9415656
40
0.4371288
50
148.7922025
51
164.568378
0
ARC
8
DEFAULT_255_1_234
10
18.0132052
20
70.9946929
40
0.3282386
50
144.5883898
51
148.1176286
0
ARC
8
DEFAULT_255_1_234
10
17.978895
20
71.0186315
40
0.2864044
50
101.6440918
51
144.514236
0
ARC
8
DEFAULT_255_1_234
10
18.0214017
20
70.8497069
40
0.4604934
50
89.5284041
51
102.5819763
0
ARC
8
DEFAULT_255_1_234
10
18.0293104
20
70.8458018
40
0.464401
50
77.0437873
51
90.5081339
0
ARC
8
DEFAULT_255_1_234
10
18.0695106
20
71.0100615
40
0.2953195
50
48.2778575
51
77.4994676
0
ARC
8
DEFAULT_255_1_234
10
18.0767737
20
71.0229746
40
0.2808655
50
36.3142134
51
47.6305865
0
ARC
8
DEFAULT_255_1_234
10
17.9899044
20
70.9644515
40
0.3855453
50
18.2931786
51
35.6769206
0
ARC
8
DEFAULT_255_1_234
10
17.7355803
20
70.8771593
40
0.654423
50
8.024666
51
18.5605216
0
ARC
8
DEFAULT_255_1_234
10
17.3192723
20
70.8156792
40
1.0752407
50
1.1274072
51
8.1718305
0
ARC
8
DEFAULT_255_1_234
10
16.9956914
20
70.8029885
40
1.3990231
50
0.5424119
51
1.3863029
0
ARC
8
DEFAULT_255_1_234
10
17.1778292
20
70.8302342
40
1.0682415
50
359.8090433
51
4.9407866
0
ARC
8
DEFAULT_255_1_234
10
17.5988306
20
70.8678113
40
0.6455691
50
4.8362157
51
12.2904523
0
ARC
8
DEFAULT_255_1_234
10
17.874342
20
70.9291965
40
0.3633074
50
12.0805627
51
23.8173984
0
ARC
8
DEFAULT_255_1_234
10
17.9917126
20
70.9788919
40
0.2358723
50
24.2871213
51
31.3935614
0
ARC
8
DEFAULT_255_1_234
10
18.0441823
20
71.0132233
40
0.1732111
50
30.7407893
51
82.4657128
0
ARC
8
DEFAULT_255_1_234
10
18.0261957
20
70.9248691
40
0.263235
50
81.1060089
51
90.2184952
0
ARC
8
DEFAULT_255_1_234
10
18.0226256
20
70.9506924
40
0.2374236
50
89.3806855
51
105.6762551
0
ARC
8
DEFAULT_255_1_234
10
18.0042887
20
71.0173567
40
0.1682847
50
105.7981136
51
149.7388061
0
ARC
8
DEFAULT_255_1_234
10
18.1106965
20
70.953395
40
0.2924306
50
149.4208916
51
163.6286378
0
ARC
8
DEFAULT_255_1_234
10
18.3197853
20
70.889625
40
0.5110213
50
163.3763315
51
172.1410975
0
ARC
8
DEFAULT_255_1_234
10
18.6498572
20
70.8423518
40
0.8444586
50
172.0259487
51
178.0703232
0
ARC
8
DEFAULT_255_1_234
10
18.9528662
20
70.8279906
40
1.1477868
50
177.8631668
51
179.5044149
0
ARC
8
DEFAULT_255_1_234
10
18.8456066
20
70.5965389
40
1.0404907
50
179.7995573
51
185.2460446
0
ARC
8
DEFAULT_255_1_234
10
18.4413105
20
70.5582513
40
0.6343885
50
185.1411642
51
193.0079639
0
ARC
8
DEFAULT_255_1_234
10
18.1769578
20
70.4957641
40
0.3627568
50
192.7897626
51
205.2507664
0
ARC
8
DEFAULT_255_1_234
10
18.0723125
20
70.4490415
40
0.2481908
50
205.8005384
51
211.2537509
0
ARC
8
DEFAULT_255_1_234
10
18.0199565
20
70.413958
40
0.1852521
50
210.3789793
51
238.4008143
0
ARC
8
DEFAULT_255_1_234
10
18.0180087
20
70.4186376
40
0.1882621
50
239.6520629
51
265.9793761
0
ARC
8
DEFAULT_255_1_234
10
18.0265288
20
70.4858427
40
0.2559272
50
265.1315437
51
270.060332
0
ARC
8
DEFAULT_255_1_234
10
18.0294066
20
70.4534534
40
0.2235528
50
269.3314664
51
287.2178029
0
ARC
8
DEFAULT_255_1_234
10
18.0431918
20
70.4031279
40
0.1714108
50
287.7958004
51
329.080874
0
ARC
8
DEFAULT_255_1_234
10
17.9474375
20
70.462893
40
0.2842745
50
328.6634704
51
343.3325132
0
ARC
8
DEFAULT_255_1_234
10
17.7301395
20
70.5305863
40
0.5118644
50
343.0499468
51
351.9393422
0
ARC
8
DEFAULT_255_1_234
10
17.3834695
20
70.5816949
40
0.8622784
50
351.8069023
51
357.7959224
0
ARC
8
DEFAULT_255_1_234
10
17.0599251
20
70.5984721
40
1.1862365
50
357.5871873
51
359.2677531
0
LINE
8
DEFAULT_255_1_234
10
19.3183018
20
70.8162327
11
19.3183018
21
70.6234709
0
LINE
8
DEFAULT_255_1_234
10
18.580185
20
70.6033916
11
18.580185
21
70.8017755
0
LINE
8
DEFAULT_255_1_234
10
19.1697146
20
70.5833123
11
19.1697146
21
70.8266739
0
LINE
8
DEFAULT_255_1_234
10
18.7287722
20
70.8379184
11
18.7287722
21
70.6001789
0
ARC
8
DEFAULT_255_1_234
10
18.0935907
20
70.6185805
40
1.2247208
50
353.8441951
51
0.2287902
0
ARC
8
DEFAULT_255_1_234
10
18.5575411
20
70.5667806
40
0.7578929
50
344.4934747
51
353.9765454
0
ARC
8
DEFAULT_255_1_234
10
18.8568001
20
70.4816981
40
0.4467846
50
329.2803592
51
344.7472793
0
ARC
8
DEFAULT_255_1_234
10
18.9560826
20
70.4272018
40
0.3336173
50
324.9352394
51
328.6160465
0
ARC
8
DEFAULT_255_1_234
10
18.9937935
20
70.4008427
40
0.2876076
50
280.580143
51
324.9173126
0
ARC
8
DEFAULT_255_1_234
10
18.9536727
20
70.5679099
40
0.4592847
50
269.5977311
51
281.6734359
0
ARC
8
DEFAULT_255_1_234
10
18.9464633
20
70.5559173
40
0.4472986
50
256.6228859
51
270.51044
0
ARC
8
DEFAULT_255_1_234
10
18.9062611
20
70.4010877
40
0.2873874
50
215.8618325
51
257.2788573
0
ARC
8
DEFAULT_255_1_234
10
19.0083642
20
70.4695977
40
0.4102928
50
197.9693508
51
215.2623606
0
ARC
8
DEFAULT_255_1_234
10
19.2568758
20
70.5534709
40
0.6725652
50
187.8816417
51
198.2346507
0
ARC
8
DEFAULT_255_1_234
10
19.6526966
20
70.6106079
40
1.0724845
50
180.8976217
51
188.0055519
0
ARC
8
DEFAULT_255_1_234
10
19.9327154
20
70.6209777
40
1.3526448
50
180.7449369
51
181.1510016
0
ARC
8
DEFAULT_255_1_234
10
19.7749883
20
70.8066042
40
1.1948131
50
173.7675579
51
180.231553
0
ARC
8
DEFAULT_255_1_234
10
19.323203
20
70.8576666
40
0.7401564
50
164.3058563
51
173.9002247
0
ARC
8
DEFAULT_255_1_234
10
19.0320099
20
70.9415656
40
0.4371288
50
148.7922025
51
164.568378
0
ARC
8
DEFAULT_255_1_234
10
18.9368551
20
70.9946929
40
0.3282386
50
144.5883898
51
148.1176286
0
ARC
8
DEFAULT_255_1_234
10
18.9025449
20
71.0186315
40
0.2864044
50
101.6440918
51
144.514236
0
ARC
8
DEFAULT_255_1_234
10
18.9450516
20
70.8497069
40
0.4604934
50
89.5284041
51
102.5819763
0
ARC
8
DEFAULT_255_1_234
10
18.9529603
20
70.8458018
40
0.464401
50
77.0437873
51
90.5081339
0
ARC
8
DEFAULT_255_1_234
10
18.9931605
20
71.0100615
40
0.2953195
50
48.2778575
51
77.4994676
0
ARC
8
DEFAULT_255_1_234
10
19.0004236
20
71.0229746
40
0.2808655
50
36.3142134
51
47.6305865
0
ARC
8
DEFAULT_255_1_234
10
18.9135543
20
70.9644515
40
0.3855453
50
18.2931786
51
35.6769206
0
ARC
8
DEFAULT_255_1_234
10
18.6592302
20
70.8771593
40
0.654423
50
8.024666
51
18.5605216
0
ARC
8
DEFAULT_255_1_234
10
18.2429222
20
70.8156792
40
1.0752407
50
1.1274072
51
8.1718305
0
ARC
8
DEFAULT_255_1_234
10
17.9193413
20
70.8029885
40
1.3990231
50
0.5424119
51
1.3863029
0
ARC
8
DEFAULT_255_1_234
10
18.1014791
20
70.8302342
40
1.0682415
50
359.8090433
51
4.9407866
0
ARC
8
DEFAULT_255_1_234
10
18.5224805
20
70.8678113
40
0.6455691
50
4.8362157
51
12.2904523
0
ARC
8
DEFAULT_255_1_234
10
18.797992
20
70.9291965
40
0.3633074
50
12.0805627
51
23.8173984
0
ARC
8
DEFAULT_255_1_234
10
18.9153625
20
70.9788919
40
0.2358723
50
24.2871213
51
31.3935614
0
ARC
8
DEFAULT_255_1_234
10
18.9678322
20
71.0132233
40
0.1732111
50
30.7407893
51
82.4657128
0
ARC
8
DEFAULT_255_1_234
10
18.9498456
20
70.9248691
40
0.263235
50
81.1060089
51
90.2184952
0
ARC
8
DEFAULT_255_1_234
10
18.9462755
20
70.9506924
40
0.2374236
50
89.3806855
51
105.6762551
0
ARC
8
DEFAULT_255_1_234
10
18.9279386
20
71.0173567
40
0.1682847
50
105.7981136
51
149.7388061
0
ARC
8
DEFAULT_255_1_234
10
19.0343464
20
70.953395
40
0.2924306
50
149.4208916
51
163.6286378
0
ARC
8
DEFAULT_255_1_234
10
19.2434352
20
70.889625
40
0.5110213
50
163.3763315
51
172.1410975
0
ARC
8
DEFAULT_255_1_234
10
19.5735071
20
70.8423518
40
0.8444586
50
172.0259487
51
178.0703232
0
ARC
8
DEFAULT_255_1_234
10
19.8765161
20
70.8279906
40
1.1477868
50
177.8631668
51
179.5044149
0
ARC
8
DEFAULT_255_1_234
10
19.7692565
20
70.5965389
40
1.0404907
50
179.7995573
51
185.2460446
0
ARC
8
DEFAULT_255_1_234
10
19.3649604
20
70.5582513
40
0.6343885
50
185.1411642
51
193.0079639
0
ARC
8
DEFAULT_255_1_234
10
19.1006077
20
70.4957641
40
0.3627568
50
192.7897626
51
205.2507664
0
ARC
8
DEFAULT_255_1_234
10
18.9959624
20
70.4490415
40
0.2481908
50
205.8005384
51
211.2537509
0
ARC
8
DEFAULT_255_1_234
10
18.9436064
20
70.413958
40
0.1852521
50
210.3789793
51
238.4008143
0
ARC
8
DEFAULT_255_1_234
10
18.9416586
20
70.4186376
40
0.1882621
50
239.6520629
51
265.9793761
0
ARC
8
DEFAULT_255_1_234
10
18.9501787
20
70.4858427
40
0.2559272
50
265.1315437
51
270.060332
0
ARC
8
DEFAULT_255_1_234
10
18.9530565
20
70.4534534
40
0.2235528
50
269.3314664
51
287.2178029
0
ARC
8
DEFAULT_255_1_234
10
18.9668417
20
70.4031279
40
0.1714108
50
287.7958004
51
329.080874
0
ARC
8
DEFAULT_255_1_234
10
18.8710874
20
70.462893
40
0.2842745
50
328.6634704
51
343.3325132
0
ARC
8
DEFAULT_255_1_234
10
18.6537894
20
70.5305863
40
0.5118644
50
343.0499468
51
351.9393422
0
ARC
8
DEFAULT_255_1_234
10
18.3071194
20
70.5816949
40
0.8622784
50
351.8069023
51
357.7959224
0
ARC
8
DEFAULT_255_1_234
10
17.983575
20
70.5984721
40
1.1862365
50
357.5871873
51
359.2677531
0
LINE
8
DEFAULT_255_1_234
10
20.2419517
20
70.8162327
11
20.2419517
21
70.6234709
0
LINE
8
DEFAULT_255_1_234
10
19.5038349
20
70.6033916
11
19.5038349
21
70.8017755
0
LINE
8
DEFAULT_255_1_234
10
20.0933645
20
70.5833123
11
20.0933645
21
70.8266739
0
LINE
8
DEFAULT_255_1_234
10
19.6524221
20
70.8379184
11
19.6524221
21
70.6001789
0
ARC
8
DEFAULT_255_1_234
10
19.0172406
20
70.6185805
40
1.2247208
50
353.8441951
51
0.2287902
0
ARC
8
DEFAULT_255_1_234
10
19.481191
20
70.5667806
40
0.7578929
50
344.4934747
51
353.9765454
0
ARC
8
DEFAULT_255_1_234
10
19.78045
20
70.4816981
40
0.4467846
50
329.2803592
51
344.7472793
0
ARC
8
DEFAULT_255_1_234
10
19.8797325
20
70.4272018
40
0.3336173
50
324.9352394
51
328.6160465
0
ARC
8
DEFAULT_255_1_234
10
19.9174434
20
70.4008427
40
0.2876076
50
280.580143
51
324.9173126
0
ARC
8
DEFAULT_255_1_234
10
19.8773226
20
70.5679099
40
0.4592847
50
269.5977311
51
281.6734359
0
ARC
8
DEFAULT_255_1_234
10
19.8701132
20
70.5559173
40
0.4472986
50
256.6228859
51
270.51044
0
ARC
8
DEFAULT_255_1_234
10
19.829911
20
70.4010877
40
0.2873874
50
215.8618325
51
257.2788573
0
ARC
8
DEFAULT_255_1_234
10
19.9320141
20
70.4695977
40
0.4102928
50
197.9693508
51
215.2623606
0
ARC
8
DEFAULT_255_1_234
10
20.1805257
20
70.5534709
40
0.6725652
50
187.8816417
51
198.2346507
0
ARC
8
DEFAULT_255_1_234
10
20.5763465
20
70.6106079
40
1.0724845
50
180.8976217
51
188.0055519
0
ARC
8
DEFAULT_255_1_234
10
20.8563653
20
70.6209777
40
1.3526448
50
180.7449369
51
181.1510016
0
ARC
8
DEFAULT_255_1_234
10
20.6986382
20
70.8066042
40
1.1948131
50
173.7675579
51
180.231553
0
ARC
8
DEFAULT_255_1_234
10
20.2468529
20
70.8576666
40
0.7401564
50
164.3058563
51
173.9002247
0
ARC
8
DEFAULT_255_1_234
10
19.9556598
20
70.9415656
40
0.4371288
50
148.7922025
51
164.568378
0
ARC
8
DEFAULT_255_1_234
10
19.860505
20
70.9946929
40
0.3282386
50
144.5883898
51
148.1176286
0
ARC
8
DEFAULT_255_1_234
10
19.8261948
20
71.0186315
40
0.2864044
50
101.6440918
51
144.514236
0
ARC
8
DEFAULT_255_1_234
10
19.8687015
20
70.8497069
40
0.4604934
50
89.5284041
51
102.5819763
0
ARC
8
DEFAULT_255_1_234
10
19.8766102
20
70.8458018
40
0.464401
50
77.0437873
51
90.5081339
0
ARC
8
DEFAULT_255_1_234
10
19.9168104
20
71.0100615
40
0.2953195
50
48.2778575
51
77.4994676
0
ARC
8
DEFAULT_255_1_234
10
19.9240735
20
71.0229746
40
0.2808655
50
36.3142134
51
47.6305865
0
ARC
8
DEFAULT_255_1_234
10
19.8372042
20
70.9644515
40
0.3855453
50
18.2931786
51
35.6769206
0
ARC
8
DEFAULT_255_1_234
10
19.5828801
20
70.8771593
40
0.654423
50
8.024666
51
18.5605216
0
ARC
8
DEFAULT_255_1_234
10
19.1665721
20
70.8156792
40
1.0752407
50
1.1274072
51
8.1718305
0
ARC
8
DEFAULT_255_1_234
10
18.8429912
20
70.8029885
40
1.3990231
50
0.5424119
51
1.3863029
0
ARC
8
DEFAULT_255_1_234
10
19.025129
20
70.8302342
40
1.0682415
50
359.8090433
51
4.9407866
0
ARC
8
DEFAULT_255_1_234
10
19.4461304
20
70.8678113
40
0.6455691
50
4.8362157
51
12.2904523
0
ARC
8
DEFAULT_255_1_234
10
19.7216419
20
70.9291965
40
0.3633074
50
12.0805627
51
23.8173984
0
ARC
8
DEFAULT_255_1_234
10
19.8390124
20
70.9788919
40
0.2358723
50
24.2871213
51
31.3935614
0
ARC
8
DEFAULT_255_1_234
10
19.8914821
20
71.0132233
40
0.1732111
50
30.7407893
51
82.4657128
0
ARC
8
DEFAULT_255_1_234
10
19.8734955
20
70.9248691
40
0.263235
50
81.1060089
51
90.2184952
0
ARC
8
DEFAULT_255_1_234
10
19.8699254
20
70.9506924
40
0.2374236
50
89.3806855
51
105.6762551
0
ARC
8
DEFAULT_255_1_234
10
19.8515885
20
71.0173567
40
0.1682847
50
105.7981136
51
149.7388061
0
ARC
8
DEFAULT_255_1_234
10
19.9579963
20
70.953395
40
0.2924306
50
149.4208916
51
163.6286378
0
ARC
8
DEFAULT_255_1_234
10
20.1670851
20
70.889625
40
0.5110213
50
163.3763315
51
172.1410975
0
ARC
8
DEFAULT_255_1_234
10
20.497157
20
70.8423518
40
0.8444586
50
172.0259487
51
178.0703232
0
ARC
8
DEFAULT_255_1_234
10
20.800166
20
70.8279906
40
1.1477868
50
177.8631668
51
179.5044149
0
ARC
8
DEFAULT_255_1_234
10
20.6929064
20
70.5965389
40
1.0404907
50
179.7995573
51
185.2460446
0
ARC
8
DEFAULT_255_1_234
10
20.2886104
20
70.5582513
40
0.6343885
50
185.1411642
51
193.0079639
0
ARC
8
DEFAULT_255_1_234
10
20.0242576
20
70.4957641
40
0.3627568
50
192.7897626
51
205.2507664
0
ARC
8
DEFAULT_255_1_234
10
19.9196123
20
70.4490415
40
0.2481908
50
205.8005384
51
211.2537509
0
ARC
8
DEFAULT_255_1_234
10
19.8672564
20
70.413958
40
0.1852521
50
210.3789793
51
238.4008143
0
ARC
8
DEFAULT_255_1_234
10
19.8653085
20
70.4186376
40
0.1882621
50
239.6520629
51
265.9793761
0
ARC
8
DEFAULT_255_1_234
10
19.8738286
20
70.4858427
40
0.2559272
50
265.1315437
51
270.060332
0
ARC
8
DEFAULT_255_1_234
10
19.8767064
20
70.4534534
40
0.2235528
50
269.3314664
51
287.2178029
0
ARC
8
DEFAULT_255_1_234
10
19.8904916
20
70.4031279
40
0.1714108
50
287.7958004
51
329.080874
0
ARC
8
DEFAULT_255_1_234
10
19.7947373
20
70.462893
40
0.2842745
50
328.6634704
51
343.3325132
0
ARC
8
DEFAULT_255_1_234
10
19.5774393
20
70.5305863
40
0.5118644
50
343.0499468
51
351.9393422
0
ARC
8
DEFAULT_255_1_234
10
19.2307693
20
70.5816949
40
0.8622784
50
351.8069023
51
357.7959224
0
ARC
8
DEFAULT_255_1_234
10
18.9072249
20
70.5984721
40
1.1862365
50
357.5871873
51
359.2677531
0
ARC
8
DEFAULT_255_2_778
10
8.4842378
20
74.1308433
40
0.4373747
50
56.3665942
51
72.7074496
0
ARC
8
DEFAULT_255_2_778
10
8.5215053
20
74.2444036
40
0.3178747
50
73.036784
51
89.7973226
0
ARC
8
DEFAULT_255_2_778
10
8.5288513
20
74.2220167
40
0.3403165
50
91.0475309
51
125.5485458
0
ARC
8
DEFAULT_255_2_778
10
8.6945904
20
73.9731582
40
0.6392287
50
124.6669492
51
139.114563
0
ARC
8
DEFAULT_255_2_778
10
8.9360319
20
73.7497476
40
0.9680575
50
138.4713305
51
142.1157612
0
ARC
8
DEFAULT_255_2_778
10
8.5585787
20
73.7804798
40
0.5212765
50
117.7453356
51
135.8758074
0
ARC
8
DEFAULT_255_2_778
10
8.4614378
20
73.9628273
40
0.3146729
50
90.4656379
51
117.5483702
0
ARC
8
DEFAULT_255_2_778
10
8.4553272
20
73.9475634
40
0.3299454
50
64.3679478
51
89.3829577
0
ARC
8
DEFAULT_255_2_778
10
8.4230062
20
73.8659901
40
0.4175182
50
64.8738747
51
65.2115951
0
LINE
8
DEFAULT_255_2_778
10
8.1719896
20
74.3442008
11
8.1719896
21
74.5202008
0
LINE
8
DEFAULT_255_2_778
10
8.1719896
20
74.5202008
11
7.8316896
21
74.5202008
0
LINE
8
DEFAULT_255_2_778
10
7.8316896
20
74.5202008
11
7.8316896
21
73.3015008
0
LINE
8
DEFAULT_255_2_778
10
7.8316896
20
73.3015008
11
8.1970896
21
73.3015008
0
LINE
8
DEFAULT_255_2_778
10
8.1970896
20
73.3015008
11
8.1843896
21
74.1434008
0
LINE
8
DEFAULT_255_2_778
10
8.6002896
20
74.2440008
11
8.7264896
21
74.4950008
0
ARC
8
DEFAULT_255_2_778
10
12.3462297
20
73.6889166
40
0.1058286
50
290.4109967
51
338.4144294
0
ARC
8
DEFAULT_255_2_778
10
12.162295
20
74.058021
40
0.5177505
50
282.5203845
51
295.2483499
0
ARC
8
DEFAULT_255_2_778
10
12.2164596
20
73.9246179
40
0.3756367
50
270.2518229
51
277.9224239
0
ARC
8
DEFAULT_255_2_778
10
12.2019255
20
73.7121058
40
0.163922
50
191.9135594
51
275.6664103
0
ARC
8
DEFAULT_255_2_778
10
12.266424
20
73.8396972
40
0.6680449
50
207.8643513
51
221.7718618
0
ARC
8
DEFAULT_255_2_778
10
12.0489477
20
73.6332613
40
0.3684417
50
220.3588923
51
270.0277924
0
ARC
8
DEFAULT_255_2_778
10
12.0434926
20
73.7653085
40
0.5005206
50
270.6449322
51
287.6494066
0
ARC
8
DEFAULT_255_2_778
10
11.9529907
20
74.0612608
40
0.8099892
50
287.4026496
51
297.6988649
0
ARC
8
DEFAULT_255_2_778
10
11.7449905
20
74.4644576
40
1.2636684
50
297.5514274
51
304.3018591
0
LINE
8
DEFAULT_255_2_778
10
12.0415344
20
73.6782664
11
12.0351344
21
74.5262664
0
LINE
8
DEFAULT_255_2_778
10
12.0351344
20
74.5262664
11
11.6758344
21
74.5262664
0
LINE
8
DEFAULT_255_2_778
10
11.6758344
20
74.5262664
11
11.6758344
21
73.5274664
0
LINE
8
DEFAULT_255_2_778
10
12.4571344
20
73.4205664
11
12.4698344
21
73.3075664
0
LINE
8
DEFAULT_255_2_778
10
12.4698344
20
73.3075664
11
12.8101344
21
73.3075664
0
LINE
8
DEFAULT_255_2_778
10
12.8101344
20
73.3075664
11
12.8101344
21
74.5389664
0
LINE
8
DEFAULT_255_2_778
10
12.8101344
20
74.5389664
11
12.4444344
21
74.5389664
0
LINE
8
DEFAULT_255_2_778
10
12.4444344
20
74.5389664
11
12.4444344
21
73.6467664
0
LINE
8
DEFAULT_255_2_778
10
15.1797344
20
73.3012664
11
15.1797344
21
74.5326664
0
LINE
8
DEFAULT_255_2_778
10
15.1797344
20
74.5326664
11
15.5453344
21
74.5326664
0
LINE
8
DEFAULT_255_2_778
10
15.5453344
20
74.5326664
11
15.5453344
21
73.3012664
0
LINE
8
DEFAULT_255_2_778
10
15.5453344
20
73.3012664
11
15.1797344
21
73.3012664
0
ARC
8
DEFAULT_255_2_778
10
15.3647435
20
74.925366
40
0.1978332
50
90.7257917
51
180.9507563
0
ARC
8
DEFAULT_255_2_778
10
15.3597161
20
74.9254493
40
0.1977501
50
359.0247012
51
89.2694187
0
ARC
8
DEFAULT_255_2_778
10
15.3597161
20
74.9187174
40
0.1977501
50
270.7305813
51
0.9752988
0
ARC
8
DEFAULT_255_2_778
10
15.3647435
20
74.9188007
40
0.1978332
50
179.0492437
51
269.2742083
0
LINE
8
DEFAULT_255_2_778
10
15.1669375
20
74.9220833
11
15.1669375
21
74.9220833
0
LINE
8
DEFAULT_255_2_778
10
16.8729729
20
73.2979854
11
16.8729729
21
74.5293854
0
LINE
8
DEFAULT_255_2_778
10
16.8729729
20
74.5293854
11
17.2386729
21
74.5293854
0
LINE
8
DEFAULT_255_2_778
10
17.2386729
20
74.5293854
11
17.2386729
21
73.2979854
0
LINE
8
DEFAULT_255_2_778
10
17.2386729
20
73.2979854
11
16.8729729
21
73.2979854
0
ARC
8
DEFAULT_255_2_778
10
17.0581435
20
74.922166
40
0.1978332
50
90.7257917
51
180.9507563
0
ARC
8
DEFAULT_255_2_778
10
17.0531161
20
74.9222493
40
0.1977501
50
359.0247012
51
89.2694187
0
ARC
8
DEFAULT_255_2_778
10
17.0531161
20
74.9155174
40
0.1977501
50
270.7305813
51
0.9752988
0
ARC
8
DEFAULT_255_2_778
10
17.0581435
20
74.9156007
40
0.1978332
50
179.0492437
51
269.2742083
0
LINE
8
DEFAULT_255_2_778
10
16.8603375
20
74.9188833
11
16.8603375
21
74.9188833
0
ARC
8
DEFAULT_255_2_778
10
21.970418
20
73.1564227
40
0.3997146
50
186.2131711
51
214.6577436
0
ARC
8
DEFAULT_255_2_778
10
21.8841491
20
73.1168601
40
0.3066997
50
217.744646
51
266.8145684
0
ARC
8
DEFAULT_255_2_778
10
21.9237244
20
73.3277036
40
0.5201599
50
263.7511447
51
266.7848801
0
ARC
8
DEFAULT_255_2_778
10
21.9002471
20
73.1334163
40
0.2402213
50
195.2759813
51
268.6413445
0
ARC
8
DEFAULT_255_2_778
10
22.1728439
20
73.2590818
40
0.5385664
50
193.3133601
51
200.5393414
0
ARC
8
DEFAULT_255_2_778
10
21.9558314
20
73.1061054
40
0.3084425
50
141.9154932
51
174.6130531
0
ARC
8
DEFAULT_255_2_778
10
21.8946765
20
73.1320396
40
0.2449229
50
90.0292982
51
137.86297
0
ARC
8
DEFAULT_255_2_778
10
21.8900311
20
73.1501835
40
0.3117117
50
89.169111
51
162.3562446
0
ARC
8
DEFAULT_255_2_778
10
22.1495641
20
73.0185256
40
0.6007672
50
157.8882743
51
162.6116909
0
ARC
8
DEFAULT_255_2_778
10
13.7518475
20
73.710969
40
0.434232
50
284.0737984
51
307.1283935
0
ARC
8
DEFAULT_255_2_778
10
13.6603344
20
74.0475455
40
0.7829896
50
272.5675489
51
284.5802087
0
ARC
8
DEFAULT_255_2_778
10
13.6344156
20
74.4064403
40
1.1427274
50
269.9523961
51
273.0596894
0
ARC
8
DEFAULT_255_2_778
10
13.6383034
20
74.7881179
40
1.5244123
50
264.3721605
51
269.8181894
0
ARC
8
DEFAULT_255_2_778
10
13.7027881
20
75.4598919
40
2.1992727
50
260.3040359
51
264.4165702
0
ARC
8
DEFAULT_255_2_778
10
13.7920902
20
76.0123156
40
2.75885
50
259.2299789
51
260.4081406
0
ARC
8
DEFAULT_255_2_778
10
13.5130405
20
73.8618783
40
0.6077178
50
188.8927198
51
247.0988028
0
ARC
8
DEFAULT_255_2_778
10
13.8555895
20
73.9530217
40
0.9609548
50
185.1081288
51
191.1050073
0
ARC
8
DEFAULT_255_2_778
10
13.7233792
20
73.880517
40
0.8250312
50
161.5072483
51
180.9066349
0
ARC
8
DEFAULT_255_2_778
10
13.4744453
20
73.9592627
40
0.5639907
50
120.4701872
51
161.0725957
0
ARC
8
DEFAULT_255_2_778
10
13.5600933
20
73.892527
40
0.6661417
50
90.0499347
51
123.9108507
0
ARC
8
DEFAULT_255_2_778
10
13.573003
20
73.735998
40
0.8227812
50
89.9974966
51
90.9394619
0
ARC
8
DEFAULT_255_2_778
10
13.567053
20
73.5749594
40
0.9838382
50
77.8335832
51
89.6513936
0
ARC
8
DEFAULT_255_2_778
10
13.4795686
20
73.1570554
40
1.4107957
50
69.8093959
51
77.9373312
0
ARC
8
DEFAULT_255_2_778
10
13.3760065
20
72.8552908
40
1.7297745
50
69.0266426
51
70.0397415
0
ARC
8
DEFAULT_255_2_778
10
13.5343739
20
72.8772164
40
1.4359408
50
73.9178594
51
79.2452957
0
ARC
8
DEFAULT_255_2_778
10
13.6318735
20
73.3975106
40
0.9065925
50
79.1629935
51
86.6049203
0
ARC
8
DEFAULT_255_2_778
10
13.649902
20
73.648833
40
0.654651
50
86.8774046
51
89.9568351
0
ARC
8
DEFAULT_255_2_778
10
13.64243
20
73.8861025
40
0.4174572
50
88.9067133
51
108.0688095
0
ARC
8
DEFAULT_255_2_778
10
13.5852023
20
74.0598459
40
0.2345328
50
107.942404
51
152.2459688
0
ARC
8
DEFAULT_255_2_778
10
14.2993316
20
73.7295872
40
1.0210941
50
154.5072776
51
162.5682748
0
ARC
8
DEFAULT_255_2_778
10
13.9273868
20
73.8443314
40
0.6318603
50
162.3915767
51
174.8213024
0
ARC
8
DEFAULT_255_2_778
10
13.7622439
20
73.8631421
40
0.4657093
50
175.2922289
51
179.9490984
0
ARC
8
DEFAULT_255_2_778
10
13.635088
20
73.8557528
40
0.338643
50
178.6796766
51
234.9381893
0
ARC
8
DEFAULT_255_2_778
10
13.6327313
20
73.8674177
40
0.3469445
50
236.3635337
51
264.9414885
0
ARC
8
DEFAULT_255_2_778
10
13.6587955
20
74.0429041
40
0.5241505
50
263.7947872
51
270.1188666
0
ARC
8
DEFAULT_255_2_778
10
13.6535226
20
74.2802912
40
0.7615633
50
270.4785196
51
281.0719661
0
ARC
8
DEFAULT_255_2_778
10
13.5692117
20
74.7341518
40
1.2231753
50
280.8649891
51
287.2606546
0
ARC
8
DEFAULT_255_2_778
10
14.6239491
20
75.5670775
40
2.2970478
50
276.5245429
51
279.5045514
0
ARC
8
DEFAULT_255_2_778
10
14.6893389
20
74.9894423
40
1.7157236
50
272.7759418
51
276.5469051
0
ARC
8
DEFAULT_255_2_778
10
14.7091281
20
74.6091849
40
1.3349546
50
270.0439674
51
272.7180028
0
ARC
8
DEFAULT_255_2_778
10
14.7005118
20
74.1410255
40
0.8668484
50
258.6359382
51
270.6372354
0
ARC
8
DEFAULT_255_2_778
10
14.6078537
20
73.7051002
40
0.4212409
50
235.5405817
51
259.3086539
0
ARC
8
DEFAULT_255_2_778
10
14.5467662
20
73.5977689
40
0.2983588
50
181.5929591
51
233.550276
0
ARC
8
DEFAULT_255_2_778
10
14.7449853
20
73.6277298
40
0.4979343
50
179.9387066
51
184.4062155
0
ARC
8
DEFAULT_255_2_778
10
14.8385536
20
73.7237996
40
0.2332136
50
194.3846046
51
259.805052
0
ARC
8
DEFAULT_255_2_778
10
14.9431857
20
74.0890482
40
0.6124159
50
256.2164989
51
270.9014371
0
ARC
8
DEFAULT_255_2_778
10
14.9523166
20
74.4559885
40
0.9792806
50
270.0294815
51
272.249316
0
LINE
8
DEFAULT_255_2_778
10
15.5956513
20
74.5262625
11
15.9422513
21
74.5262625
0
LINE
8
DEFAULT_255_2_778
10
15.9422513
20
74.5262625
11
16.2131513
21
73.7849625
0
LINE
8
DEFAULT_255_2_778
10
16.2131513
20
73.7849625
11
16.4840513
21
74.5326625
0
LINE
8
DEFAULT_255_2_778
10
16.4840513
20
74.5326625
11
16.7928513
21
74.5326625
0
LINE
8
DEFAULT_255_2_778
10
16.7928513
20
74.5326625
11
16.2885513
21
73.2824625
0
LINE
8
DEFAULT_255_2_778
10
16.2885513
20
73.2824625
11
16.0678513
21
73.2824625
0
LINE
8
DEFAULT_255_2_778
10
16.0678513
20
73.2824625
11
15.5956513
21
74.5262625
0
LINE
8
DEFAULT_255_2_778
10
6.2182513
20
75.1546625
11
6.3002513
21
75.1546625
0
LINE
8
DEFAULT_255_2_778
10
6.3002513
20
75.1546625
11
6.3002513
21
73.1977625
0
LINE
8
DEFAULT_255_2_778
10
6.3002513
20
73.1977625
11
18.5070513
21
73.1946625
0
LINE
8
DEFAULT_255_2_778
10
18.5070513
20
73.1946625
11
18.5102513
21
73.1128625
0
LINE
8
DEFAULT_255_2_778
10
18.5102513
20
73.1128625
11
6.2182513
21
73.1128625
0
LINE
8
DEFAULT_255_2_778
10
6.2182513
20
73.1128625
11
6.2182513
21
75.1483625
0
LINE
8
DEFAULT_255_2_778
10
18.9671513
20
73.2009625
11
18.9671513
21
73.1131625
0
LINE
8
DEFAULT_255_2_778
10
18.9671513
20
73.1131625
11
21.5730513
21
73.1131625
0
LINE
8
DEFAULT_255_2_778
10
21.8945513
20
72.8083625
11
21.8945513
21
72.8932625
0
LINE
8
DEFAULT_255_2_778
10
21.8945513
20
73.3769625
11
21.8945513
21
73.4618625
0
LINE
8
DEFAULT_255_2_778
10
21.5762513
20
73.1980625
11
18.9735513
21
73.1980625
0
LINE
8
DEFAULT_255_2_778
10
13.9382513
20
73.5658625
11
14.0139513
21
73.3647625
0
LINE
8
DEFAULT_255_2_778
10
13.9951513
20
74.4704625
11
13.9321513
21
74.2569625
0
LINE
8
DEFAULT_255_2_778
10
14.2470513
20
73.6282625
11
14.2470513
21
74.3190625
0
LINE
8
DEFAULT_255_2_778
10
14.2470513
20
74.3190625
11
14.0578513
21
74.3190625
0
LINE
8
DEFAULT_255_2_778
10
14.0578513
20
74.3190625
11
14.0578513
21
74.5326625
0
LINE
8
DEFAULT_255_2_778
10
14.0578513
20
74.5326625
11
14.2470513
21
74.5326625
0
LINE
8
DEFAULT_255_2_778
10
14.2470513
20
74.5326625
11
14.3856513
21
75.0350625
0
LINE
8
DEFAULT_255_2_778
10
14.3856513
20
75.0350625
11
14.5999513
21
75.0350625
0
LINE
8
DEFAULT_255_2_778
10
14.5999513
20
75.0350625
11
14.6126513
21
74.5326625
0
LINE
8
DEFAULT_255_2_778
10
14.6126513
20
74.5326625
11
14.9529513
21
74.5326625
0
LINE
8
DEFAULT_255_2_778
10
14.9529513
20
74.5326625
11
14.9529513
21
74.3190625
0
LINE
8
DEFAULT_255_2_778
10
14.9529513
20
74.3190625
11
14.6126513
21
74.3190625
0
LINE
8
DEFAULT_255_2_778
10
14.6126513
20
74.3190625
11
14.6126513
21
73.6658625
0
LINE
8
DEFAULT_255_2_778
10
14.9907513
20
73.4774625
11
15.0032513
21
73.3015625
0
ARC
8
DEFAULT_255_2_778
10
18.2771567
20
73.1608016
40
0.588921
50
314.1465216
51
331.9330914
0
ARC
8
DEFAULT_255_2_778
10
18.4147245
20
73.0206113
40
0.3925118
50
269.0312524
51
313.9901377
0
ARC
8
DEFAULT_255_2_778
10
18.4130071
20
73.2129619
40
0.584827
50
255.6549108
51
269.5180973
0
ARC
8
DEFAULT_255_2_778
10
18.4880411
20
73.5161139
40
0.8971207
50
246.7072254
51
255.8091359
0
ARC
8
DEFAULT_255_2_778
10
18.6124803
20
73.8186796
40
1.2242447
50
243.4735796
51
246.9574492
0
ARC
8
DEFAULT_255_2_778
10
18.3377307
20
73.2493958
40
0.365718
50
238.6975405
51
269.7536991
0
ARC
8
DEFAULT_255_2_778
10
18.3341625
20
73.2833672
40
0.3996911
50
270.2861506
51
285.9235992
0
ARC
8
DEFAULT_255_2_778
10
18.3190528
20
73.1040257
40
0.2399938
50
301.3239159
51
328.5484084
0
ARC
8
DEFAULT_255_2_778
10
17.8344662
20
73.4302796
40
0.8240117
50
326.7768178
51
337.3925755
0
ARC
8
DEFAULT_255_2_778
10
16.7758869
20
73.8889406
40
1.9776351
50
336.9149998
51
342.1307954
0
ARC
8
DEFAULT_255_2_778
10
18.1003835
20
73.6935501
40
0.1954042
50
190.120766
51
263.958695
0
ARC
8
DEFAULT_255_2_778
10
18.1765334
20
73.9961691
40
0.5062622
50
258.9866291
51
270.5697296
0
ARC
8
DEFAULT_255_2_778
10
18.179421
20
74.3136009
40
0.8236717
50
270.1493118
51
275.0745303
0
ARC
8
DEFAULT_255_2_778
10
18.1623931
20
74.5306991
40
1.0414275
50
274.9512067
51
276.4741818
0
ARC
8
DEFAULT_255_2_778
10
17.8865118
20
75.7869593
40
2.5197089
50
276.512457
51
279.4178429
0
ARC
8
DEFAULT_255_2_778
10
17.9623799
20
75.1166109
40
1.8450814
50
272.9002784
51
276.532699
0
ARC
8
DEFAULT_255_2_778
10
17.9860581
20
74.674308
40
1.4021477
50
270.0528156
51
272.8484525
0
ARC
8
DEFAULT_255_2_778
10
17.9780255
20
74.1655179
40
0.8934054
50
259.5071449
51
270.5980454
0
ARC
8
DEFAULT_255_2_778
10
17.887913
20
73.7045607
40
0.4237716
50
238.7101736
51
260.1371304
0
ARC
8
DEFAULT_255_2_778
10
17.8040731
20
73.5581077
40
0.2551147
50
181.256628
51
237.7180126
0
LINE
8
DEFAULT_255_2_778
10
18.0657198
20
72.7233129
11
18.1477198
21
72.9369129
0
LINE
8
DEFAULT_255_2_778
10
18.6581198
20
73.2821129
11
18.2295198
21
74.3124129
0
LINE
8
DEFAULT_255_2_778
10
18.2295198
20
74.3124129
11
17.9080198
21
74.3124129
0
LINE
8
DEFAULT_255_2_778
10
17.9080198
20
74.3124129
11
17.9080198
21
73.6592129
0
LINE
8
DEFAULT_255_2_778
10
18.2798198
20
73.4959129
11
18.2988198
21
73.3012129
0
LINE
8
DEFAULT_255_2_778
10
17.5490198
20
73.5525129
11
17.5363198
21
74.3190129
0
LINE
8
DEFAULT_255_2_778
10
17.5363198
20
74.3190129
11
17.3471198
21
74.3190129
0
LINE
8
DEFAULT_255_2_778
10
17.3471198
20
74.3190129
11
17.3471198
21
74.5326129
0
LINE
8
DEFAULT_255_2_778
10
17.3471198
20
74.5326129
11
17.5487198
21
74.5326129
0
LINE
8
DEFAULT_255_2_778
10
17.5487198
20
74.5326129
11
17.6747198
21
75.0350129
0
LINE
8
DEFAULT_255_2_778
10
17.6747198
20
75.0350129
11
17.8890198
21
75.0350129
0
LINE
8
DEFAULT_255_2_778
10
17.8890198
20
75.0350129
11
17.9017198
21
74.5326129
0
LINE
8
DEFAULT_255_2_778
10
17.9017198
20
74.5326129
11
18.5319198
21
74.5326129
0
LINE
8
DEFAULT_255_2_778
10
18.5319198
20
74.5326129
11
18.8343198
21
73.7034129
0
LINE
8
DEFAULT_255_2_778
10
18.8343198
20
73.7034129
11
19.1367198
21
74.5326129
0
LINE
8
DEFAULT_255_2_778
10
19.1367198
20
74.5326129
11
19.4519198
21
74.5326129
0
LINE
8
DEFAULT_255_2_778
10
19.4519198
20
74.5326129
11
18.7965198
21
72.8866129
0
ARC
8
DEFAULT_255_2_778
10
19.6924911
20
74.4865064
40
0.0240119
50
28.9725327
51
103.4850922
0
ARC
8
DEFAULT_255_2_778
10
19.6675258
20
74.2713978
40
0.2392435
50
85.3570436
51
90.3180147
0
ARC
8
DEFAULT_255_2_778
10
19.68302
20
73.8749354
40
0.7352792
50
91.4451573
51
94.5103719
0
ARC
8
DEFAULT_255_2_778
10
19.6762642
20
74.1000413
40
0.5100756
50
90.0204387
51
91.3242457
0
ARC
8
DEFAULT_255_2_778
10
19.6820782
20
74.3787926
40
0.231402
50
77.5838349
51
91.484776
0
ARC
8
DEFAULT_255_2_778
10
19.7300541
20
74.5729087
40
0.0319233
50
15.1916927
51
86.8071299
0
ARC
8
DEFAULT_255_2_778
10
19.7392759
20
74.5790197
40
0.0217032
50
359.9550511
51
5.9623374
0
ARC
8
DEFAULT_255_2_778
10
19.7113423
20
74.5839073
40
0.0498786
50
318.6903529
51
354.3569627
0
ARC
8
DEFAULT_255_2_778
10
19.59333
20
74.6714286
40
0.1966754
50
312.4194177
51
322.2354785
0
ARC
8
DEFAULT_255_2_778
10
19.7074456
20
74.4834292
40
0.0466555
50
7.7623904
51
66.56899
0
ARC
8
DEFAULT_255_2_778
10
19.5728806
20
74.4554086
40
0.184022
50
4.3922991
51
10.7492459
0
ARC
8
DEFAULT_255_2_778
10
19.7790464
20
74.4657679
40
0.0229895
50
170.6523659
51
230.6545988
0
ARC
8
DEFAULT_255_2_778
10
19.7669101
20
74.4562613
40
0.0086241
50
253.5721784
51
270.5831571
0
ARC
8
DEFAULT_255_2_778
10
19.6864906
20
74.5529188
40
0.034333
50
13.334954
51
106.2290103
0
ARC
8
DEFAULT_255_2_778
10
19.6694514
20
74.405895
40
0.1801426
50
87.631716
51
90.0488074
0
ARC
8
DEFAULT_255_2_778
10
19.6792828
20
74.6048746
40
0.0666888
50
261.3891358
51
304.5653386
0
ARC
8
DEFAULT_255_2_778
10
19.7080184
20
74.5575951
40
0.0118802
50
319.9940947
51
0.6866831
0
ARC
8
DEFAULT_255_2_778
10
19.6909745
20
74.5294613
40
0.1602765
50
89.8843696
51
180.00852
0
ARC
8
DEFAULT_255_2_778
10
19.6918123
20
74.5296526
40
0.1600857
50
359.923006
51
90.1841118
0
ARC
8
DEFAULT_255_2_778
10
19.6917276
20
74.5292075
40
0.1601705
50
269.8462838
51
0.0822692
0
ARC
8
DEFAULT_255_2_778
10
19.6908681
20
74.5292074
40
0.1601705
50
179.9177057
51
270.1537517
0
ARC
8
DEFAULT_255_2_778
10
19.6934473
20
74.5305555
40
0.1249544
50
179.9900418
51
180.5126445
0
ARC
8
DEFAULT_255_2_778
10
19.6931073
20
74.5306266
40
0.1246146
50
135.6497696
51
180.0227234
0
ARC
8
DEFAULT_255_2_778
10
19.6926982
20
74.5309377
40
0.1241046
50
90.5079979
51
135.6204406
0
ARC
8
DEFAULT_255_2_778
10
19.6904941
20
74.5311676
40
0.1238749
50
44.3347873
51
89.4894407
0
ARC
8
DEFAULT_255_2_778
10
19.6899885
20
74.5306266
40
0.1246146
50
359.9772766
51
44.3502304
0
ARC
8
DEFAULT_255_2_778
10
19.6896485
20
74.5305555
40
0.1249546
50
359.4873555
51
0.0099582
0
ARC
8
DEFAULT_255_2_778
10
19.6889212
20
74.5283161
40
0.1256817
50
359.9900717
51
0.5112118
0
ARC
8
DEFAULT_255_2_778
10
19.6899314
20
74.5281718
40
0.1246718
50
315.6604182
51
0.0563277
0
ARC
8
DEFAULT_255_2_778
10
19.690317
20
74.5280233
40
0.1242924
50
270.5905059
51
315.5851458
0
ARC
8
DEFAULT_255_2_778
10
19.6928761
20
74.5282548
40
0.1245239
50
224.4596468
51
269.4118891
0
ARC
8
DEFAULT_255_2_778
10
19.6931644
20
74.5281718
40
0.1246718
50
179.9436723
51
224.3395818
0
ARC
8
DEFAULT_255_2_778
10
19.6941746
20
74.5283161
40
0.1256819
50
179.4887882
51
180.0099283
0
LINE
8
DEFAULT_255_2_778
10
19.7671979
20
74.4479375
11
19.7261979
21
74.4479375
0
LINE
8
DEFAULT_255_2_778
10
19.7261979
20
74.4479375
11
19.7134979
21
74.4981375
0
LINE
8
DEFAULT_255_2_778
10
19.6661979
20
74.5106375
11
19.6661979
21
74.4479375
0
LINE
8
DEFAULT_255_2_778
10
19.6661979
20
74.4479375
11
19.6282979
21
74.4479375
0
LINE
8
DEFAULT_255_2_778
10
19.6282979
20
74.4479375
11
19.6251979
21
74.6079375
0
LINE
8
DEFAULT_255_2_778
10
19.7669979
20
74.4476375
11
19.7671979
21
74.4479375
0
LINE
8
DEFAULT_255_2_778
10
19.6692979
20
74.5860375
11
19.6692979
21
74.5389375
0
LINE
8
DEFAULT_255_2_778
10
19.5306979
20
74.5294375
11
19.5306979
21
74.5294375
0
LINE
8
DEFAULT_255_2_778
10
19.5684979
20
74.5294375
11
19.5684979
21
74.5294375
0
LINE
8
DEFAULT_255_2_778
10
11.0900688
20
74.2568698
11
11.0900688
21
73.6285698
0
ARC
8
DEFAULT_255_2_778
10
10.4258178
20
74.8217512
40
1.3656176
50
292.8223416
51
299.1049387
0
ARC
8
DEFAULT_255_2_778
10
10.6923229
20
74.1800623
40
0.6708024
50
282.4794629
51
293.1002978
0
ARC
8
DEFAULT_255_2_778
10
10.7656801
20
73.8545416
40
0.3371233
50
270.5838487
51
282.2615078
0
ARC
8
DEFAULT_255_2_778
10
10.7637817
20
73.687928
40
0.1705756
50
241.3798642
51
271.7918735
0
ARC
8
DEFAULT_255_2_778
10
10.7476697
20
73.651112
40
0.1305871
50
222.8095502
51
239.8477433
0
ARC
8
DEFAULT_255_2_778
10
10.8383448
20
73.7756648
40
0.2833162
50
195.5923976
51
228.8379937
0
ARC
8
DEFAULT_255_2_778
10
11.2233514
20
73.8994125
40
0.6875956
50
182.8988217
51
196.901328
0
ARC
8
DEFAULT_255_2_778
10
11.7297763
20
73.9415595
40
1.1956176
50
179.9089191
51
183.6886871
0
ARC
8
DEFAULT_255_2_778
10
12.0981229
20
73.9419544
40
1.5639636
50
177.2544012
51
179.9448392
0
LINE
8
DEFAULT_255_2_778
10
10.5359547
20
74.0168705
11
10.5359688
21
74.0171698
0
ARC
8
DEFAULT_255_2_778
10
11.0005754
20
73.9522208
40
0.4691244
50
149.0121274
51
172.0420019
0
ARC
8
DEFAULT_255_2_778
10
10.8347413
20
74.0426494
40
0.280511
50
88.5440138
51
147.4067729
0
ARC
8
DEFAULT_255_2_778
10
10.7657193
20
73.4924864
40
0.8340669
50
72.0203436
51
84.7616527
0
ARC
8
DEFAULT_255_2_778
10
10.8831282
20
73.8705191
40
0.4382821
50
61.8252032
51
71.3646611
0
ARC
8
DEFAULT_255_2_778
10
10.4737962
20
74.5409032
40
1.2918982
50
287.0682731
51
298.4915226
0
ARC
8
DEFAULT_255_2_778
10
10.6328818
20
74.0179772
40
0.7453122
50
270.6811176
51
287.1763457
0
ARC
8
DEFAULT_255_2_778
10
10.6416525
20
73.8519494
40
0.5792318
50
267.7358327
51
270.0088232
0
ARC
8
DEFAULT_255_2_778
10
10.6221952
20
73.6923768
40
0.4192211
50
203.9093897
51
269.5317059
0
ARC
8
DEFAULT_255_2_778
10
11.0896726
20
73.9517122
40
0.9528801
50
192.6009015
51
206.7737237
0
ARC
8
DEFAULT_255_2_778
10
11.4914822
20
74.0600427
40
1.3687639
50
192.6165694
51
193.3570279
0
ARC
8
DEFAULT_255_2_778
10
11.1915444
20
73.9542151
40
1.05363
50
182.6356817
51
190.5628607
0
ARC
8
DEFAULT_255_2_778
10
11.0380576
20
73.9446692
40
0.89987
50
180.0135228
51
182.4779265
0
ARC
8
DEFAULT_255_2_778
10
10.8122185
20
73.9605664
40
0.6742234
50
136.7456723
51
181.3691273
0
ARC
8
DEFAULT_255_2_778
10
10.662857
20
74.0493873
40
0.5059802
50
89.2314975
51
132.4774114
0
ARC
8
DEFAULT_255_2_778
10
10.6695571
20
73.9386601
40
0.6166618
50
87.8056342
51
89.9919799
0
ARC
8
DEFAULT_255_2_778
10
10.6807164
20
73.3969717
40
1.157965
50
70.3175508
51
89.3838437
0
ARC
8
DEFAULT_255_2_778
10
10.5893508
20
73.0894874
40
1.4783609
50
70.2024224
51
70.9971735
0
ARC
8
DEFAULT_255_2_778
10
9.3624819
20
73.9233426
40
0.1950108
50
91.6788031
51
181.813939
0
ARC
8
DEFAULT_255_2_778
10
9.350989
20
73.9232798
40
0.1950756
50
358.2051219
51
88.3021655
0
ARC
8
DEFAULT_255_2_778
10
9.3509891
20
73.9110596
40
0.1950754
50
271.6978133
51
1.7949071
0
ARC
8
DEFAULT_255_2_778
10
9.3624819
20
73.9109969
40
0.1950108
50
178.186061
51
268.3211969
0
ARC
8
DEFAULT_255_2_778
10
9.5084727
20
73.9239309
40
0.4668529
50
145.043768
51
180.8298084
0
ARC
8
DEFAULT_255_2_778
10
9.3653029
20
74.0316132
40
0.287883
50
91.6987406
51
146.2830079
0
ARC
8
DEFAULT_255_2_778
10
9.3415457
20
74.0146621
40
0.3050877
50
23.4934874
51
87.1398977
0
ARC
8
DEFAULT_255_2_778
10
9.1870732
20
73.9207629
40
0.484809
50
359.5753549
51
26.3944218
0
ARC
8
DEFAULT_255_2_778
10
9.2053375
20
73.91042
40
0.4665802
50
325.0256173
51
0.8288991
0
ARC
8
DEFAULT_255_2_778
10
9.3482106
20
73.8028699
40
0.2879274
50
271.7032906
51
326.2656695
0
ARC
8
DEFAULT_255_2_778
10
9.3720078
20
73.8199987
40
0.3053095
50
203.3271307
51
267.1389871
0
ARC
8
DEFAULT_255_2_778
10
9.5267258
20
73.913593
40
0.4850703
50
179.5775117
51
206.2433806
0
ARC
8
DEFAULT_255_2_778
10
9.3462242
20
73.8982025
40
0.6700752
50
95.9615992
51
178.9168048
0
ARC
8
DEFAULT_255_2_778
10
9.3692457
20
73.8301302
40
0.7403396
50
89.982733
51
97.186551
0
ARC
8
DEFAULT_255_2_778
10
9.3737015
20
73.8603279
40
0.7101545
50
48.1622127
51
90.3414937
0
ARC
8
DEFAULT_255_2_778
10
9.4198028
20
73.9093697
40
0.6428678
50
0.1336951
51
48.3079447
0
ARC
8
DEFAULT_255_2_778
10
9.3927134
20
73.923537
40
0.6700752
50
275.9615992
51
358.9168048
0
ARC
8
DEFAULT_255_2_778
10
9.3696919
20
73.9916094
40
0.7403396
50
269.982733
51
277.186551
0
ARC
8
DEFAULT_255_2_778
10
9.3652362
20
73.9614116
40
0.7101545
50
228.1622127
51
270.3414937
0
ARC
8
DEFAULT_255_2_778
10
9.3191349
20
73.9123698
40
0.6428678
50
180.1336951
51
228.3079447
0
ARC
8
DEFAULT_255_2_778
10
6.8107463
20
74.6078908
40
0.4410946
50
358.399361
51
20.0218069
0
ARC
8
DEFAULT_255_2_778
10
7.0252301
20
74.6839859
40
0.2135292
50
20.5419455
51
86.7410997
0
ARC
8
DEFAULT_255_2_778
10
6.9403671
20
74.6440134
40
0.3150485
50
287.9324001
51
351.1547913
0
ARC
8
DEFAULT_255_2_778
10
7.0381682
20
74.59225
40
0.6191268
50
4.9683528
51
29.9289322
0
ARC
8
DEFAULT_255_2_778
10
7.1427871
20
74.6333443
40
0.508227
50
31.7987523
51
73.6168205
0
ARC
8
DEFAULT_255_2_778
10
7.0076309
20
74.2522148
40
0.9122727
50
72.2244713
51
84.9667071
0
ARC
8
DEFAULT_255_2_778
10
6.9731565
20
75.0162673
40
0.9427779
50
276.9765222
51
292.3131775
0
ARC
8
DEFAULT_255_2_778
10
7.152457
20
74.6087302
40
0.4978062
50
291.0302401
51
353.4987619
0
ARC
8
DEFAULT_255_2_778
10
6.882936
20
74.6640679
40
0.7722473
50
351.6832812
51
358.6496898
0
LINE
8
DEFAULT_255_2_778
10
11.0900688
20
74.2568698
11
11.0900688
21
74.2568698
0
LINE
8
DEFAULT_255_2_778
10
11.0900688
20
74.4802698
11
11.0900688
21
75.2326698
0
LINE
8
DEFAULT_255_2_778
10
11.0900688
20
75.2326698
11
11.4538688
21
75.2739698
0
LINE
8
DEFAULT_255_2_778
10
11.4538688
20
75.2739698
11
11.4538688
21
73.3062698
0
LINE
8
DEFAULT_255_2_778
10
11.4538688
20
73.3062698
11
11.0982688
21
73.3062698
0
LINE
8
DEFAULT_255_2_778
10
11.0982688
20
73.3062698
11
11.0900688
21
73.4054698
0
LINE
8
DEFAULT_255_2_778
10
11.0900688
20
74.4804698
11
11.0900688
21
74.4802698
0
LINE
8
DEFAULT_255_2_778
10
9.1675688
20
73.9171698
11
9.1675688
21
73.9171698
0
LINE
8
DEFAULT_255_2_778
10
9.0416688
20
73.9171698
11
9.0416688
21
73.9171698
0
LINE
8
DEFAULT_255_2_778
10
8.6762688
20
73.9108698
11
8.6762688
21
73.9108698
0
LINE
8
DEFAULT_255_2_778
10
7.0373688
20
74.8971698
11
6.7728688
21
74.8971698
0
LINE
8
DEFAULT_255_2_778
10
6.7728688
20
74.8971698
11
6.7728688
21
74.3442698
0
LINE
8
DEFAULT_255_2_778
10
6.7728688
20
74.3442698
11
7.0373688
21
74.3442698
0
LINE
8
DEFAULT_255_2_778
10
7.2516688
20
74.5955698
11
7.2516688
21
74.5955698
0
LINE
8
DEFAULT_255_2_778
10
7.0876688
20
75.1609698
11
6.3817688
21
75.1609698
0
LINE
8
DEFAULT_255_2_778
10
6.3817688
20
75.1609698
11
6.3817688
21
73.3014698
0
LINE
8
DEFAULT_255_2_778
10
6.3817688
20
73.3014698
11
6.7725688
21
73.3014698
0
LINE
8
DEFAULT_255_2_778
10
6.7725688
20
73.3014698
11
6.7725688
21
74.0804698
0
LINE
8
DEFAULT_255_2_778
10
6.7725688
20
74.0804698
11
7.0876688
21
74.0804698
0
LINE
8
DEFAULT_255_2_778
10
7.6549688
20
74.6458698
11
7.6549688
21
74.6458698
0
ARC
8
DEFAULT_255_2_778
10
22.0341103
20
73.1396325
40
0.1933696
50
91.2195322
51
181.3554583
0
ARC
8
DEFAULT_255_2_778
10
22.0258793
20
73.1396325
40
0.1933696
50
358.6445319
51
88.7804717
0
ARC
8
DEFAULT_255_2_778
10
22.0258794
20
73.1304841
40
0.1933695
50
271.2194968
51
1.3554733
0
ARC
8
DEFAULT_255_2_778
10
22.0341102
20
73.1304841
40
0.1933696
50
178.6445267
51
268.7805032
0
ARC
8
DEFAULT_255_2_778
10
22.500592
20
73.1396522
40
0.1933518
50
91.2438577
51
181.3614136
0
ARC
8
DEFAULT_255_2_778
10
22.4922792
20
73.1396325
40
0.1933696
50
358.6445428
51
88.7804459
0
ARC
8
DEFAULT_255_2_778
10
22.4922795
20
73.1304841
40
0.1933694
50
271.219471
51
1.3554842
0
ARC
8
DEFAULT_255_2_778
10
22.5005921
20
73.1304647
40
0.1933519
50
178.638633
51
268.7561308
0
ARC
8
DEFAULT_255_2_778
10
22.966792
20
73.152352
40
0.1933518
50
91.2438477
51
181.3613675
0
ARC
8
DEFAULT_255_2_778
10
22.9584792
20
73.1523325
40
0.1933696
50
358.6445428
51
88.7804459
0
ARC
8
DEFAULT_255_2_778
10
22.9584795
20
73.1431841
40
0.1933694
50
271.219471
51
1.3554842
0
ARC
8
DEFAULT_255_2_778
10
22.9667921
20
73.1431645
40
0.1933517
50
178.6385825
51
268.7561312
0
LINE
8
DEFAULT_255_2_778
10
21.8407948
20
73.1350583
11
21.8407948
21
73.1350583
0
LINE
8
DEFAULT_255_2_778
10
22.3072948
20
73.1350583
11
22.3072948
21
73.1350583
0
LINE
8
DEFAULT_255_2_778
10
22.7734948
20
73.1477583
11
22.7734948
21
73.1477583
0
LINE
8
DEFAULT_255_2_778
10
21.8956365
20
72.891124
11
21.8665365
21
72.895924
0
LINE
8
DEFAULT_255_2_778
10
21.8665365
20
72.895924
11
21.8059365
21
72.905724
0
LINE
8
DEFAULT_255_2_778
10
21.8059365
20
72.905724
11
21.7299365
21
72.963924
0
LINE
8
DEFAULT_255_2_778
10
21.7299365
20
72.963924
11
21.6728365
21
73.039624
0
LINE
8
DEFAULT_255_2_778
10
21.6728365
20
73.039624
11
21.6476365
21
73.133024
0
LINE
8
DEFAULT_255_2_778
10
21.6476365
20
73.133024
11
21.6728365
21
73.226624
0
LINE
8
DEFAULT_255_2_778
10
21.6728365
20
73.226624
11
21.7294365
21
73.303424
0
LINE
8
DEFAULT_255_2_778
10
21.7294365
20
73.303424
11
21.8053365
21
73.362924
0
LINE
8
DEFAULT_255_2_778
10
21.8053365
20
73.362924
11
21.8665365
21
73.372924
0
LINE
8
DEFAULT_255_2_778
10
21.8665365
20
73.372924
11
21.8958365
21
73.377724
0
LINE
8
DEFAULT_255_2_778
10
21.8958365
20
72.808124
11
21.8546365
21
72.813624
0
LINE
8
DEFAULT_255_2_778
10
21.8546365
20
72.813624
11
21.7707365
21
72.825024
0
LINE
8
DEFAULT_255_2_778
10
21.7707365
20
72.825024
11
21.6683365
21
72.899624
0
LINE
8
DEFAULT_255_2_778
10
21.6683365
20
72.899624
11
21.5950365
21
72.998324
0
LINE
8
DEFAULT_255_2_778
10
21.5950365
20
72.998324
11
21.5733365
21
73.113924
0
ARC
8
DEFAULT_255_2_778
10
19.6071242
20
73.7321303
40
0.3581298
50
180.0162757
51
182.2699138
0
ARC
8
DEFAULT_255_2_778
10
19.4534829
20
73.7457764
40
0.2049502
50
100.1638691
51
183.8462269
0
ARC
8
DEFAULT_255_2_778
10
19.5515993
20
73.4171455
40
0.5471003
50
90.0234402
51
104.2080975
0
ARC
8
DEFAULT_255_2_778
10
19.5528834
20
73.7704699
40
0.1937818
50
5.5175223
51
90.4458723
0
ARC
8
DEFAULT_255_2_778
10
19.3612362
20
73.7300775
40
0.3890348
50
359.7014597
51
8.726641
0
ARC
8
DEFAULT_255_2_778
10
19.2420728
20
73.7282577
40
0.5081929
50
357.7544822
51
359.976639
0
ARC
8
DEFAULT_255_2_778
10
19.3437255
20
73.7730098
40
0.4112653
50
340.4695402
51
350.9537506
0
ARC
8
DEFAULT_255_2_778
10
19.6819855
20
73.6526134
40
0.0522194
50
319.1329344
51
340.8933383
0
ARC
8
DEFAULT_255_2_778
10
19.1300329
20
73.835169
40
0.4858933
50
337.8212904
51
346.2526281
0
ARC
8
DEFAULT_255_2_778
10
19.5379362
20
73.7340825
40
0.0656649
50
347.3486169
51
358.3972422
0
ARC
8
DEFAULT_255_2_778
10
19.3892367
20
73.7412112
40
0.2145262
50
357.6048162
51
359.9743471
0
ARC
8
DEFAULT_255_2_778
10
19.521739
20
73.7546395
40
0.0831313
50
350.6371276
51
96.844243
0
ARC
8
DEFAULT_255_2_778
10
19.5122091
20
73.6365521
40
0.2006266
50
90.1076454
51
94.8990763
0
ARC
8
DEFAULT_255_2_778
10
19.503355
20
73.7330673
40
0.1037096
50
94.579045
51
177.4355725
0
ARC
8
DEFAULT_255_2_778
10
19.6879275
20
73.6784788
40
0.2942018
50
168.3858307
51
173.2328678
0
LINE
8
DEFAULT_255_2_778
10
19.3955754
20
73.7131458
11
19.2492754
21
73.7179458
0
LINE
8
DEFAULT_255_2_778
10
19.7214754
20
73.6184458
11
19.4571754
21
73.3199458
0
LINE
8
DEFAULT_255_2_778
10
19.4571754
20
73.3199458
11
19.7784754
21
73.3199458
0
LINE
8
DEFAULT_255_2_778
10
19.7784754
20
73.3199458
11
19.7784754
21
73.1969458
0
LINE
8
DEFAULT_255_2_778
10
19.7784754
20
73.1969458
11
19.2682754
21
73.1969458
0
LINE
8
DEFAULT_255_2_778
10
19.2682754
20
73.1969458
11
19.2682754
21
73.3012458
0
LINE
8
DEFAULT_255_2_778
10
19.2682754
20
73.3012458
11
19.5799754
21
73.6517458
0
LINE
8
DEFAULT_255_2_778
10
19.3957754
20
73.7131458
11
19.3955754
21
73.7131458
0
ARC
8
DEFAULT_255_2_778
10
21.6491338
20
73.5979013
40
0.5330281
50
158.8297779
51
180.8126209
0
ARC
8
DEFAULT_255_2_778
10
21.3443043
20
73.7240829
40
0.2033429
50
124.0119958
51
160.9659866
0
ARC
8
DEFAULT_255_2_778
10
21.2743176
20
73.817462
40
0.0869831
50
90.4994457
51
120.2017555
0
ARC
8
DEFAULT_255_2_778
10
21.2600082
20
73.7790586
40
0.1261132
50
24.6798401
51
83.8315083
0
ARC
8
DEFAULT_255_2_778
10
21.0025231
20
73.623952
40
0.4261556
50
6.130385
51
29.1785479
0
ARC
8
DEFAULT_255_2_778
10
20.8148831
20
73.5909702
40
0.6163766
50
359.941576
51
7.3161118
0
ARC
8
DEFAULT_255_2_778
10
20.8991049
20
73.5827366
40
0.5322088
50
338.8055679
51
0.8187669
0
ARC
8
DEFAULT_255_2_778
10
21.2033747
20
73.4566684
40
0.203082
50
303.9150541
51
340.932466
0
ARC
8
DEFAULT_255_2_778
10
21.2728185
20
73.3637902
40
0.0874515
50
270.4854298
51
300.1080748
0
ARC
8
DEFAULT_255_2_778
10
21.2871918
20
73.4020041
40
0.1263997
50
204.3281643
51
263.8084993
0
ARC
8
DEFAULT_255_2_778
10
21.5498039
20
73.5580123
40
0.4313014
50
185.613152
51
208.8453558
0
ARC
8
DEFAULT_255_2_778
10
21.738281
20
73.5897819
40
0.6221217
50
179.9484445
51
186.8272745
0
ARC
8
DEFAULT_255_2_778
10
21.5396261
20
73.5944048
40
0.5243157
50
152.5254433
51
180.7827883
0
ARC
8
DEFAULT_255_2_778
10
21.3138339
20
73.7218837
40
0.2653266
50
108.4095367
51
154.4544086
0
ARC
8
DEFAULT_255_2_778
10
21.2768034
20
73.8006783
40
0.1791635
50
90.0140927
51
105.1293658
0
ARC
8
DEFAULT_255_2_778
10
21.2623719
20
73.7489205
40
0.231369
50
28.2822033
51
86.4348199
0
ARC
8
DEFAULT_255_2_778
10
21.0418618
20
73.6017258
40
0.4959362
50
2.837394
51
31.1881489
0
ARC
8
DEFAULT_255_2_778
10
20.9404116
20
73.5873304
40
0.5980477
50
359.9914968
51
3.7337628
0
ARC
8
DEFAULT_255_2_778
10
21.0137058
20
73.5801164
40
0.524802
50
332.6504535
51
0.7779361
0
ARC
8
DEFAULT_255_2_778
10
21.2395936
20
73.4531026
40
0.265965
50
288.44039
51
334.5981325
0
ARC
8
DEFAULT_255_2_778
10
21.2767199
20
73.3743438
40
0.1798021
50
270.0125899
51
285.1541198
0
ARC
8
DEFAULT_255_2_778
10
21.2909632
20
73.4251186
40
0.2310141
50
208.1688806
51
266.4749618
0
ARC
8
DEFAULT_255_2_778
10
21.513001
20
73.5725235
40
0.4969751
50
182.8019459
51
211.0671432
0
ARC
8
DEFAULT_255_2_778
10
21.6169279
20
73.5871537
40
0.6015684
50
179.9916184
51
183.7098813
0
LINE
8
DEFAULT_255_2_778
10
21.1161594
20
73.5903417
11
21.1161594
21
73.5903417
0
LINE
8
DEFAULT_255_2_778
10
21.0153594
20
73.5872417
11
21.0153594
21
73.5872417
0
ARC
8
DEFAULT_255_2_778
10
21.0567338
20
73.5979013
40
0.5330281
50
158.8297779
51
180.8126209
0
ARC
8
DEFAULT_255_2_778
10
20.7519043
20
73.7240829
40
0.2033429
50
124.0119958
51
160.9659866
0
ARC
8
DEFAULT_255_2_778
10
20.6819176
20
73.817462
40
0.0869831
50
90.4994457
51
120.2017555
0
ARC
8
DEFAULT_255_2_778
10
20.6676082
20
73.7790586
40
0.1261132
50
24.6798401
51
83.8315083
0
ARC
8
DEFAULT_255_2_778
10
20.4101231
20
73.623952
40
0.4261556
50
6.130385
51
29.1785479
0
ARC
8
DEFAULT_255_2_778
10
20.2224831
20
73.5909702
40
0.6163766
50
359.941576
51
7.3161118
0
ARC
8
DEFAULT_255_2_778
10
20.3067049
20
73.5827366
40
0.5322088
50
338.8055679
51
0.8187669
0
ARC
8
DEFAULT_255_2_778
10
20.6109747
20
73.4566684
40
0.203082
50
303.9150541
51
340.932466
0
ARC
8
DEFAULT_255_2_778
10
20.6804185
20
73.3637902
40
0.0874515
50
270.4854298
51
300.1080748
0
ARC
8
DEFAULT_255_2_778
10
20.6947918
20
73.4020041
40
0.1263997
50
204.3281643
51
263.8084993
0
ARC
8
DEFAULT_255_2_778
10
20.9574039
20
73.5580123
40
0.4313014
50
185.613152
51
208.8453558
0
ARC
8
DEFAULT_255_2_778
10
21.145881
20
73.5897819
40
0.6221217
50
179.9484445
51
186.8272745
0
ARC
8
DEFAULT_255_2_778
10
20.9472261
20
73.5944048
40
0.5243157
50
152.5254433
51
180.7827883
0
ARC
8
DEFAULT_255_2_778
10
20.7214339
20
73.7218837
40
0.2653266
50
108.4095367
51
154.4544086
0
ARC
8
DEFAULT_255_2_778
10
20.6844034
20
73.8006783
40
0.1791635
50
90.0140927
51
105.1293658
0
ARC
8
DEFAULT_255_2_778
10
20.6699719
20
73.7489205
40
0.231369
50
28.2822033
51
86.4348199
0
ARC
8
DEFAULT_255_2_778
10
20.4494618
20
73.6017258
40
0.4959362
50
2.837394
51
31.1881489
0
ARC
8
DEFAULT_255_2_778
10
20.3480116
20
73.5873304
40
0.5980477
50
359.9914968
51
3.7337628
0
ARC
8
DEFAULT_255_2_778
10
20.4213058
20
73.5801164
40
0.524802
50
332.6504535
51
0.7779361
0
ARC
8
DEFAULT_255_2_778
10
20.6471936
20
73.4531026
40
0.265965
50
288.44039
51
334.5981325
0
ARC
8
DEFAULT_255_2_778
10
20.6843199
20
73.3743438
40
0.1798021
50
270.0125899
51
285.1541198
0
ARC
8
DEFAULT_255_2_778
10
20.6985632
20
73.4251186
40
0.2310141
50
208.1688806
51
266.4749618
0
ARC
8
DEFAULT_255_2_778
10
20.920601
20
73.5725235
40
0.4969751
50
182.8019459
51
211.0671432
0
ARC
8
DEFAULT_255_2_778
10
21.0245279
20
73.5871537
40
0.6015684
50
179.9916184
51
183.7098813
0
LINE
8
DEFAULT_255_2_778
10
20.5237594
20
73.5903417
11
20.5237594
21
73.5903417
0
LINE
8
DEFAULT_255_2_778
10
20.4229594
20
73.5872417
11
20.4229594
21
73.5872417
0
ARC
8
DEFAULT_255_2_778
10
20.4643338
20
73.5979013
40
0.5330281
50
158.8297779
51
180.8126209
0
ARC
8
DEFAULT_255_2_778
10
20.1595043
20
73.7240829
40
0.2033429
50
124.0119958
51
160.9659866
0
ARC
8
DEFAULT_255_2_778
10
20.0895176
20
73.817462
40
0.0869831
50
90.4994457
51
120.2017555
0
ARC
8
DEFAULT_255_2_778
10
20.0752082
20
73.7790586
40
0.1261132
50
24.6798401
51
83.8315083
0
ARC
8
DEFAULT_255_2_778
10
19.8177231
20
73.623952
40
0.4261556
50
6.130385
51
29.1785479
0
ARC
8
DEFAULT_255_2_778
10
19.6300831
20
73.5909702
40
0.6163766
50
359.941576
51
7.3161118
0
ARC
8
DEFAULT_255_2_778
10
19.7143049
20
73.5827366
40
0.5322088
50
338.8055679
51
0.8187669
0
ARC
8
DEFAULT_255_2_778
10
20.0185747
20
73.4566684
40
0.203082
50
303.9150541
51
340.932466
0
ARC
8
DEFAULT_255_2_778
10
20.0880185
20
73.3637902
40
0.0874515
50
270.4854298
51
300.1080748
0
ARC
8
DEFAULT_255_2_778
10
20.1023918
20
73.4020041
40
0.1263997
50
204.3281643
51
263.8084993
0
ARC
8
DEFAULT_255_2_778
10
20.3650039
20
73.5580123
40
0.4313014
50
185.613152
51
208.8453558
0
ARC
8
DEFAULT_255_2_778
10
20.553481
20
73.5897819
40
0.6221217
50
179.9484445
51
186.8272745
0
ARC
8
DEFAULT_255_2_778
10
20.3548261
20
73.5944048
40
0.5243157
50
152.5254433
51
180.7827883
0
ARC
8
DEFAULT_255_2_778
10
20.1290339
20
73.7218837
40
0.2653266
50
108.4095367
51
154.4544086
0
ARC
8
DEFAULT_255_2_778
10
20.0920034
20
73.8006783
40
0.1791635
50
90.0140927
51
105.1293658
0
ARC
8
DEFAULT_255_2_778
10
20.0775719
20
73.7489205
40
0.231369
50
28.2822033
51
86.4348199
0
ARC
8
DEFAULT_255_2_778
10
19.8570618
20
73.6017258
40
0.4959362
50
2.837394
51
31.1881489
0
ARC
8
DEFAULT_255_2_778
10
19.7556116
20
73.5873304
40
0.5980477
50
359.9914968
51
3.7337628
0
ARC
8
DEFAULT_255_2_778
10
19.8289058
20
73.5801164
40
0.524802
50
332.6504535
51
0.7779361
0
ARC
8
DEFAULT_255_2_778
10
20.0547936
20
73.4531026
40
0.265965
50
288.44039
51
334.5981325
0
ARC
8
DEFAULT_255_2_778
10
20.0919199
20
73.3743438
40
0.1798021
50
270.0125899
51
285.1541198
0
ARC
8
DEFAULT_255_2_778
10
20.1061632
20
73.4251186
40
0.2310141
50
208.1688806
51
266.4749618
0
ARC
8
DEFAULT_255_2_778
10
20.328201
20
73.5725235
40
0.4969751
50
182.8019459
51
211.0671432
0
ARC
8
DEFAULT_255_2_778
10
20.4321279
20
73.5871537
40
0.6015684
50
179.9916184
51
183.7098813
0
LINE
8
DEFAULT_255_2_778
10
19.9313594
20
73.5903417
11
19.9313594
21
73.5903417
0
LINE
8
DEFAULT_255_2_778
10
19.8305594
20
73.5872417
11
19.8305594
21
73.5872417
0
LINE
8
DEFAULT_255_2_778
10
9.3932417
20
60.721908
11
10.7161417
21
60.721908
0
LINE
8
DEFAULT_255_2_778
10
10.7161417
20
60.721908
11
10.7161417
21
35.586508
0
LINE
8
DEFAULT_255_2_778
10
9.3932834
20
35.5864333
11
12.0390834
21
35.5864333
0
LINE
8
DEFAULT_255_2_778
10
12.0390834
20
35.5864333
11
12.0390834
21
30.2947333
0
LINE
8
DEFAULT_255_2_778
10
12.0390834
20
30.2947333
11
9.3932834
21
30.2947333
0
LINE
8
DEFAULT_255_2_778
10
9.3932834
20
30.2947333
11
9.3932834
21
35.5864333
0
ARC
8
DEFAULT_255_2_778_1
10
13.1928591
20
30.397177
40
4.816461
50
120.9442904
51
122.351755
0
ARC
8
DEFAULT_255_2_778_1
10
12.7462523
20
31.1008039
40
3.9830657
50
122.3407904
51
124.1946752
0
ARC
8
DEFAULT_255_2_778_1
10
12.3063464
20
31.7473306
40
3.2010724
50
124.1855758
51
126.4338849
0
ARC
8
DEFAULT_255_2_778_1
10
11.9204129
20
32.2700611
40
2.5513094
50
126.4326926
51
128.8877368
0
ARC
8
DEFAULT_255_2_778_1
10
11.5855968
20
32.6844658
40
2.0185498
50
128.8749205
51
131.8726567
0
ARC
8
DEFAULT_255_2_778_1
10
11.2884677
20
33.0154854
40
1.5737356
50
131.8616166
51
135.4168838
0
ARC
8
DEFAULT_255_2_778_1
10
11.025668
20
33.2736765
40
1.2053256
50
135.3893975
51
139.9687014
0
ARC
8
DEFAULT_255_2_778_1
10
10.7927889
20
33.4685102
40
0.9016937
50
139.9301659
51
145.9260426
0
ARC
8
DEFAULT_255_2_778_1
10
10.596654
20
33.6005104
40
0.6652776
50
145.8787362
51
153.8146208
0
ARC
8
DEFAULT_255_2_778_1
10
10.4445553
20
33.6748797
40
0.4959714
50
153.770634
51
164.3484794
0
ARC
8
DEFAULT_255_2_778_1
10
10.3432387
20
33.7030786
40
0.3908039
50
164.3220276
51
179.8083066
0
ARC
8
DEFAULT_255_2_778_1
10
10.3642789
20
33.711215
40
0.4118985
50
180.9499449
51
213.8111542
0
ARC
8
DEFAULT_255_2_778_1
10
10.6401828
20
33.8807896
40
0.73561
50
212.8271214
51
224.258472
0
ARC
8
DEFAULT_255_2_778_1
10
11.0230335
20
34.2501236
40
1.267567
50
224.1376218
51
231.4508261
0
ARC
8
DEFAULT_255_2_778_1
10
11.6657195
20
35.0531168
40
2.2960809
50
231.3955893
51
236.1256478
0
ARC
8
DEFAULT_255_2_778_1
10
13.4980223
20
37.7996293
40
5.5976905
50
236.2233172
51
239.1314682
0
ARC
8
DEFAULT_255_2_778_1
10
25.447927
20
57.5273568
40
28.6623793
50
238.8606853
51
239.0711101
0
ARC
8
DEFAULT_255_2_778_1
10
6.2757281
20
25.4302653
40
8.7248518
50
57.2420924
51
59.4062964
0
ARC
8
DEFAULT_255_2_778_1
10
9.5034241
20
30.4612102
40
2.747542
50
52.8289294
51
57.079028
0
ARC
8
DEFAULT_255_2_778_1
10
10.2780783
20
31.4815488
40
1.466457
50
46.3041868
51
52.8596521
0
ARC
8
DEFAULT_255_2_778_1
10
10.7103073
20
31.9316842
40
0.8424061
50
36.2174211
51
46.4090895
0
ARC
8
DEFAULT_255_2_778_1
10
10.9948088
20
32.1365128
40
0.4918609
50
17.400375
51
36.5489745
0
ARC
8
DEFAULT_255_2_778_1
10
11.1088994
20
32.1763754
40
0.3710912
50
0.0676858
51
16.7951297
0
ARC
8
DEFAULT_255_2_778_1
10
11.0878613
20
32.1782428
40
0.3921317
50
343.8035191
51
359.7912046
0
ARC
8
DEFAULT_255_2_778_1
10
10.9815912
20
32.2087167
40
0.5026844
50
333.2506233
51
343.8465691
0
ARC
8
DEFAULT_255_2_778_1
10
10.8277757
20
32.2854313
40
0.6745679
50
325.6600948
51
333.3122657
0
ARC
8
DEFAULT_255_2_778_1
10
10.6323344
20
32.4182296
40
0.9108568
50
319.7560915
51
325.6976089
0
ARC
8
DEFAULT_255_2_778_1
10
10.404199
20
32.6100002
40
1.2088854
50
315.4577584
51
319.8037947
0
ARC
8
DEFAULT_255_2_778_1
10
10.1408127
20
32.8688507
40
1.5781764
50
311.7298824
51
315.4670864
0
ARC
8
DEFAULT_255_2_778_1
10
9.8317879
20
33.2144074
40
2.0417554
50
308.723055
51
311.7470879
0
ARC
8
DEFAULT_255_2_778_1
10
9.477589
20
33.6556492
40
2.6075745
50
306.1165163
51
308.7300151
0
ARC
8
DEFAULT_255_2_778_1
10
9.0746091
20
34.2069523
40
3.2904564
50
303.9559446
51
306.1266333
0
ARC
8
DEFAULT_255_2_778_1
10
8.6630432
20
34.816215
40
4.0257023
50
302.3733397
51
303.9712246
0
ARC
8
DEFAULT_255_2_778_1
10
8.2434347
20
35.4777058
40
4.8090549
50
300.9434827
51
302.3758078
0
LINE
8
DEFAULT_255_2_778
10
10.7161335
20
30.2947492
11
10.7161335
21
5.1593492
0
LINE
8
DEFAULT_255_2_778
10
10.7161335
20
5.1593492
11
9.3932335
21
5.1593492
0
LINE
8
DEFAULT_255_2_778
10
19.9765335
20
60.7218492
11
18.6536335
21
60.7218492
0
LINE
8
DEFAULT_255_2_778
10
18.6536335
20
60.7218492
11
18.6536335
21
51.4614492
0
LINE
8
DEFAULT_255_2_778
10
17.3307834
20
51.4614333
11
19.9765834
21
51.4614333
0
LINE
8
DEFAULT_255_2_778
10
19.9765834
20
51.4614333
11
19.9765834
21
46.1697333
0
LINE
8
DEFAULT_255_2_778
10
19.9765834
20
46.1697333
11
17.3307834
21
46.1697333
0
LINE
8
DEFAULT_255_2_778
10
17.3307834
20
46.1697333
11
17.3307834
21
51.4614333
0
ARC
8
DEFAULT_255_2_778_1
10
21.1303591
20
46.272177
40
4.816461
50
120.9442904
51
122.351755
0
ARC
8
DEFAULT_255_2_778_1
10
20.6837523
20
46.9758039
40
3.9830657
50
122.3407904
51
124.1946752
0
ARC
8
DEFAULT_255_2_778_1
10
20.2438464
20
47.6223306
40
3.2010724
50
124.1855758
51
126.4338849
0
ARC
8
DEFAULT_255_2_778_1
10
19.8579129
20
48.1450611
40
2.5513094
50
126.4326926
51
128.8877368
0
ARC
8
DEFAULT_255_2_778_1
10
19.5230968
20
48.5594658
40
2.0185498
50
128.8749205
51
131.8726567
0
ARC
8
DEFAULT_255_2_778_1
10
19.2259677
20
48.8904854
40
1.5737356
50
131.8616166
51
135.4168838
0
ARC
8
DEFAULT_255_2_778_1
10
18.963168
20
49.1486765
40
1.2053256
50
135.3893975
51
139.9687014
0
ARC
8
DEFAULT_255_2_778_1
10
18.7302889
20
49.3435102
40
0.9016937
50
139.9301659
51
145.9260426
0
ARC
8
DEFAULT_255_2_778_1
10
18.534154
20
49.4755104
40
0.6652776
50
145.8787362
51
153.8146208
0
ARC
8
DEFAULT_255_2_778_1
10
18.3820553
20
49.5498797
40
0.4959714
50
153.770634
51
164.3484794
0
ARC
8
DEFAULT_255_2_778_1
10
18.2807387
20
49.5780786
40
0.3908039
50
164.3220276
51
179.8083066
0
ARC
8
DEFAULT_255_2_778_1
10
18.3017789
20
49.586215
40
0.4118985
50
180.9499449
51
213.8111542
0
ARC
8
DEFAULT_255_2_778_1
10
18.5776828
20
49.7557896
40
0.73561
50
212.8271214
51
224.258472
0
ARC
8
DEFAULT_255_2_778_1
10
18.9605335
20
50.1251236
40
1.267567
50
224.1376218
51
231.4508261
0
ARC
8
DEFAULT_255_2_778_1
10
19.6032195
20
50.9281168
40
2.2960809
50
231.3955893
51
236.1256478
0
ARC
8
DEFAULT_255_2_778_1
10
21.4355223
20
53.6746293
40
5.5976905
50
236.2233172
51
239.1314682
0
ARC
8
DEFAULT_255_2_778_1
10
33.385427
20
73.4023568
40
28.6623793
50
238.8606853
51
239.0711101
0
ARC
8
DEFAULT_255_2_778_1
10
14.2132281
20
41.3052653
40
8.7248518
50
57.2420924
51
59.4062964
0
ARC
8
DEFAULT_255_2_778_1
10
17.4409241
20
46.3362102
40
2.747542
50
52.8289294
51
57.079028
0
ARC
8
DEFAULT_255_2_778_1
10
18.2155783
20
47.3565488
40
1.466457
50
46.3041868
51
52.8596521
0
ARC
8
DEFAULT_255_2_778_1
10
18.6478073
20
47.8066842
40
0.8424061
50
36.2174211
51
46.4090895
0
ARC
8
DEFAULT_255_2_778_1
10
18.9323088
20
48.0115128
40
0.4918609
50
17.400375
51
36.5489745
0
ARC
8
DEFAULT_255_2_778_1
10
19.0463994
20
48.0513754
40
0.3710912
50
0.0676858
51
16.7951297
0
ARC
8
DEFAULT_255_2_778_1
10
19.0253613
20
48.0532428
40
0.3921317
50
343.8035191
51
359.7912046
0
ARC
8
DEFAULT_255_2_778_1
10
18.9190912
20
48.0837167
40
0.5026844
50
333.2506233
51
343.8465691
0
ARC
8
DEFAULT_255_2_778_1
10
18.7652757
20
48.1604313
40
0.6745679
50
325.6600948
51
333.3122657
0
ARC
8
DEFAULT_255_2_778_1
10
18.5698344
20
48.2932296
40
0.9108568
50
319.7560915
51
325.6976089
0
ARC
8
DEFAULT_255_2_778_1
10
18.341699
20
48.4850002
40
1.2088854
50
315.4577584
51
319.8037947
0
ARC
8
DEFAULT_255_2_778_1
10
18.0783127
20
48.7438507
40
1.5781764
50
311.7298824
51
315.4670864
0
ARC
8
DEFAULT_255_2_778_1
10
17.7692879
20
49.0894074
40
2.0417554
50
308.723055
51
311.7470879
0
ARC
8
DEFAULT_255_2_778_1
10
17.415089
20
49.5306492
40
2.6075745
50
306.1165163
51
308.7300151
0
ARC
8
DEFAULT_255_2_778_1
10
17.0121091
20
50.0819523
40
3.2904564
50
303.9559446
51
306.1266333
0
ARC
8
DEFAULT_255_2_778_1
10
16.6005432
20
50.691215
40
4.0257023
50
302.3733397
51
303.9712246
0
ARC
8
DEFAULT_255_2_778_1
10
16.1809347
20
51.3527058
40
4.8090549
50
300.9434827
51
302.3758078
0
LINE
8
DEFAULT_255_2_778
10
18.6536417
20
46.1698082
11
18.6536417
21
36.9094082
0
LINE
8
DEFAULT_255_2_778
10
18.6536417
20
36.9094082
11
19.9765417
21
36.9094082
0
LINE
8
DEFAULT_255_1_234
10
4.9274119
20
68.2616792
11
4.9274119
21
68.1404
0
LINE
8
DEFAULT_255_1_234
10
4.9274119
20
68.1404
11
4.161184
21
68.1404
0
LINE
8
DEFAULT_255_1_234
10
4.161184
20
68.1404
11
4.161184
21
68.2472221
0
LINE
8
DEFAULT_255_1_234
10
4.161184
20
68.2472221
11
4.5659836
21
68.6969995
0
LINE
8
DEFAULT_255_1_234
10
4.2872823
20
68.9652595
11
4.1386952
21
68.9652595
0
LINE
8
DEFAULT_255_1_234
10
4.6535296
20
68.6014218
11
4.3402918
21
68.2616792
0
LINE
8
DEFAULT_255_1_234
10
4.3402918
20
68.2616792
11
4.9274119
21
68.2616792
0
ARC
8
DEFAULT_255_1_234
10
3.216967
20
69.8899527
40
1.8008286
50
318.5132453
51
320.7828378
0
ARC
8
DEFAULT_255_1_234
10
3.7456644
20
69.4596426
40
1.1191493
50
320.7372736
51
323.9737074
0
ARC
8
DEFAULT_255_1_234
10
4.1376501
20
69.1756361
40
0.6350923
50
323.8961724
51
328.6421089
0
ARC
8
DEFAULT_255_1_234
10
4.3423096
20
69.0494031
40
0.3946393
50
328.8299013
51
331.789948
0
ARC
8
DEFAULT_255_1_234
10
4.4420274
20
68.9979509
40
0.2824501
50
331.4255242
51
352.9364833
0
ARC
8
DEFAULT_255_1_234
10
4.4556775
20
68.9948976
40
0.2685315
50
353.2248685
51
0.0169286
0
ARC
8
DEFAULT_255_1_234
10
4.4766652
20
68.997195
40
0.2475536
50
359.4866256
51
15.9339782
0
ARC
8
DEFAULT_255_1_234
10
4.5273637
20
69.0108286
40
0.1950618
50
16.1714718
51
43.5284424
0
ARC
8
DEFAULT_255_1_234
10
4.5350946
20
69.0185573
40
0.184134
50
43.4415429
51
83.1661404
0
ARC
8
DEFAULT_255_1_234
10
4.5216864
20
68.9448771
40
0.258926
50
82.160215
51
90.1505798
0
ARC
8
DEFAULT_255_1_234
10
4.5185291
20
68.8911865
40
0.3126255
50
89.5460705
51
102.5418777
0
ARC
8
DEFAULT_255_1_234
10
4.4942377
20
68.9942665
40
0.2067346
50
102.1739365
51
129.2061916
0
ARC
8
DEFAULT_255_1_234
10
4.4863449
20
69.0067094
40
0.1921118
50
129.7279328
51
135.7542026
0
ARC
8
DEFAULT_255_1_234
10
4.4984977
20
68.9970045
40
0.2075944
50
136.175737
51
166.3674722
0
ARC
8
DEFAULT_255_1_234
10
4.5991896
20
68.9700182
40
0.3118201
50
165.9092917
51
178.8683903
0
ARC
8
DEFAULT_255_1_234
10
4.6856757
20
68.9653179
40
0.3983935
50
178.438168
51
180.0083905
0
ARC
8
DEFAULT_255_1_234
10
4.5455359
20
68.9692231
40
0.4068601
50
163.2878735
51
180.5581814
0
ARC
8
DEFAULT_255_1_234
10
4.4653621
20
68.991284
40
0.3237344
50
133.454115
51
162.9470031
0
ARC
8
DEFAULT_255_1_234
10
4.4832162
20
68.9723
40
0.349795
50
100.7869394
51
133.4384016
0
ARC
8
DEFAULT_255_1_234
10
4.5179934
20
68.8174319
40
0.5084616
50
89.6605301
51
101.3704185
0
ARC
8
DEFAULT_255_1_234
10
4.5246273
20
68.8235496
40
0.502348
50
78.2171172
51
90.4130393
0
ARC
8
DEFAULT_255_1_234
10
4.5601351
20
68.9859637
40
0.3361092
50
55.9268222
51
78.4888551
0
ARC
8
DEFAULT_255_1_234
10
4.5797791
20
69.0198324
40
0.2970617
50
47.9292255
51
55.4054003
0
ARC
8
DEFAULT_255_1_234
10
4.5899352
20
69.0301502
40
0.2825983
50
4.3347696
51
48.0560701
0
ARC
8
DEFAULT_255_1_234
10
4.4803745
20
69.0131601
40
0.393225
50
359.925209
51
5.5967654
0
ARC
8
DEFAULT_255_1_234
10
4.5232637
20
69.0187816
40
0.3503892
50
337.8914096
51
358.9967724
0
ARC
8
DEFAULT_255_1_234
10
4.2519049
20
69.1234706
40
0.6412172
50
326.9135351
51
338.3505194
0
ARC
8
DEFAULT_255_1_234
10
3.8533353
20
69.3789284
40
1.1146189
50
319.6472867
51
327.095818
0
ARC
8
DEFAULT_255_1_234
10
3.4700356
20
69.6951
40
1.6114559
50
317.2586784
51
319.9046139
0
LINE
8
DEFAULT_255_1_234
10
5.7121127
20
69.3098211
11
5.7121127
21
68.533152
0
LINE
8
DEFAULT_255_1_234
10
5.7121127
20
68.533152
11
5.8743538
21
68.533152
0
LINE
8
DEFAULT_255_1_234
10
5.8743538
20
68.533152
11
5.8743538
21
68.4118728
0
LINE
8
DEFAULT_255_1_234
10
5.8743538
20
68.4118728
11
5.7121127
21
68.4118728
0
LINE
8
DEFAULT_255_1_234
10
5.7121127
20
68.4118728
11
5.7121127
21
68.1404
0
LINE
8
DEFAULT_255_1_234
10
5.7121127
20
68.1404
11
5.5627224
21
68.1404
0
LINE
8
DEFAULT_255_1_234
10
5.5627224
20
68.1404
11
5.5627224
21
68.4118728
0
LINE
8
DEFAULT_255_1_234
10
5.5627224
20
68.4118728
11
5.0302181
21
68.4118728
0
LINE
8
DEFAULT_255_1_234
10
5.0302181
20
68.4118728
11
5.0302181
21
68.4994187
0
LINE
8
DEFAULT_255_1_234
10
5.0302181
20
68.4994187
11
5.5538875
21
69.3098211
0
LINE
8
DEFAULT_255_1_234
10
5.5538875
20
69.3098211
11
5.7121127
21
69.3098211
0
LINE
8
DEFAULT_255_1_234
10
5.5450525
20
69.0744912
11
5.1988846
21
68.533152
0
LINE
8
DEFAULT_255_1_234
10
5.1988846
20
68.533152
11
5.5627224
21
68.533152
0
LINE
8
DEFAULT_255_1_234
10
5.5627224
20
68.533152
11
5.5627224
21
69.1066181
0
LINE
8
DEFAULT_255_1_234
10
5.5627224
20
69.1066181
11
5.5450525
21
69.0744912
0
LINE
8
DEFAULT_255_1_234
10
6.101652
20
69.3098211
11
6.434166
21
68.3452093
0
LINE
8
DEFAULT_255_1_234
10
6.434166
20
68.3452093
11
6.7682863
21
69.3098211
0
LINE
8
DEFAULT_255_1_234
10
6.7682863
20
69.3098211
11
6.9369528
21
69.3098211
0
LINE
8
DEFAULT_255_1_234
10
6.9369528
20
69.3098211
11
6.5032389
21
68.1404
0
LINE
8
DEFAULT_255_1_234
10
6.5032389
20
68.1404
11
6.3666994
21
68.1404
0
LINE
8
DEFAULT_255_1_234
10
6.3666994
20
68.1404
11
5.9337887
21
69.3098211
0
LINE
8
DEFAULT_255_1_234
10
5.9337887
20
69.3098211
11
6.101652
21
69.3098211
0
LINE
8
DEFAULT_255_1_234
10
4.3193522
20
5.8098211
11
4.6518662
21
4.8452093
0
LINE
8
DEFAULT_255_1_234
10
4.6518662
20
4.8452093
11
4.9859865
21
5.8098211
0
LINE
8
DEFAULT_255_1_234
10
4.9859865
20
5.8098211
11
5.154653
21
5.8098211
0
LINE
8
DEFAULT_255_1_234
10
5.154653
20
5.8098211
11
4.7209391
21
4.6404
0
LINE
8
DEFAULT_255_1_234
10
4.7209391
20
4.6404
11
4.5843996
21
4.6404
0
LINE
8
DEFAULT_255_1_234
10
4.5843996
20
4.6404
11
4.1514889
21
5.8098211
0
LINE
8
DEFAULT_255_1_234
10
4.1514889
20
5.8098211
11
4.3193522
21
5.8098211
0
ARC
8
DEFAULT_255_1_234
10
5.6996979
20
5.5020703
40
0.2822356
50
338.8763615
51
0.5166041
0
ARC
8
DEFAULT_255_1_234
10
5.7165633
20
5.4975208
40
0.2648703
50
325.8412414
51
338.4795939
0
ARC
8
DEFAULT_255_1_234
10
5.6775001
20
5.5246042
40
0.3124019
50
296.7586019
51
325.753654
0
ARC
8
DEFAULT_255_1_234
10
5.6487109
20
5.5730789
40
0.368668
50
296.0902311
51
297.3618122
0
ARC
8
DEFAULT_255_1_234
10
5.6744567
20
4.9176041
40
0.3518806
50
47.9009248
51
67.1946869
0
ARC
8
DEFAULT_255_1_234
10
5.6940809
20
4.9422395
40
0.320451
50
35.236241
51
47.551371
0
ARC
8
DEFAULT_255_1_234
10
5.7202427
20
4.9596993
40
0.2890103
50
359.2759738
51
35.4014081
0
ARC
8
DEFAULT_255_1_234
10
5.6457458
20
4.9523826
40
0.3635026
50
343.1294516
51
0.5776525
0
ARC
8
DEFAULT_255_1_234
10
5.7182003
20
4.932433
40
0.2883832
50
310.8497458
51
342.744803
0
ARC
8
DEFAULT_255_1_234
10
5.6764116
20
4.9801294
40
0.3517954
50
281.5473923
51
310.9169905
0
ARC
8
DEFAULT_255_1_234
10
5.6407565
20
5.1354084
40
0.5110832
50
269.6192722
51
281.9789957
0
ARC
8
DEFAULT_255_1_234
10
5.6335355
20
5.1354828
40
0.5111606
50
257.4584469
51
270.4287458
0
ARC
8
DEFAULT_255_1_234
10
5.5954498
20
4.9751344
40
0.3463762
50
228.7553743
51
257.8484423
0
ARC
8
DEFAULT_255_1_234
10
5.5644696
20
4.9378442
40
0.297916
50
184.0104442
51
228.5071787
0
ARC
8
DEFAULT_255_1_234
10
5.680764
20
4.9555512
40
0.4152734
50
179.9315461
51
185.3254504
0
ARC
8
DEFAULT_255_1_234
10
5.5631286
20
4.9592992
40
0.2976554
50
145.6795913
51
180.6259649
0
ARC
8
DEFAULT_255_1_234
10
5.5794635
20
4.9478929
40
0.3175776
50
115.5537925
51
145.6416199
0
ARC
8
DEFAULT_255_1_234
10
5.6135565
20
4.8868028
40
0.3874232
50
113.2437915
51
116.2054627
0
ARC
8
DEFAULT_255_1_234
10
5.5982778
20
5.526658
40
0.3154751
50
222.9548379
51
244.1372485
0
ARC
8
DEFAULT_255_1_234
10
5.5860853
20
5.5129834
40
0.2972382
50
213.3439227
51
222.6271327
0
ARC
8
DEFAULT_255_1_234
10
5.5668788
20
5.4999308
40
0.274019
50
180.4316517
51
213.2713999
0
ARC
8
DEFAULT_255_1_234
10
5.6243789
20
5.504611
40
0.33158
50
179.9992944
51
181.1655061
0
ARC
8
DEFAULT_255_1_234
10
5.6653206
20
5.5080561
40
0.3725376
50
164.6186108
51
180.5292368
0
ARC
8
DEFAULT_255_1_234
10
5.5755069
20
5.5322101
40
0.2795349
50
132.2454369
51
164.5092287
0
ARC
8
DEFAULT_255_1_234
10
5.6042173
20
5.4997028
40
0.3229019
50
100.7052766
51
132.1387266
0
ARC
8
DEFAULT_255_1_234
10
5.6347145
20
5.3619086
40
0.4639835
50
89.6732617
51
101.2449487
0
ARC
8
DEFAULT_255_1_234
10
5.6409343
20
5.379399
40
0.4464999
50
76.2876631
51
90.4586123
0
ARC
8
DEFAULT_255_1_234
10
5.6715575
20
5.501622
40
0.3205023
50
47.8240157
51
76.4266918
0
ARC
8
DEFAULT_255_1_234
10
5.6938125
20
5.527659
40
0.2862661
50
6.9168658
51
47.6261438
0
ARC
8
DEFAULT_255_1_234
10
5.5751528
20
5.505737
40
0.4067708
50
359.8419705
51
7.9694496
0
ARC
8
DEFAULT_255_1_234
10
5.6093425
20
4.9616925
40
0.2513121
50
359.4454068
51
16.9256425
0
ARC
8
DEFAULT_255_1_234
10
5.6562236
20
4.9746033
40
0.2027071
50
17.292259
51
45.462717
0
ARC
8
DEFAULT_255_1_234
10
5.6508172
20
4.9699434
40
0.2098212
50
45.3028762
51
83.1921472
0
ARC
8
DEFAULT_255_1_234
10
5.6364856
20
4.8897895
40
0.2911472
50
82.2614531
51
90.143954
0
ARC
8
DEFAULT_255_1_234
10
5.6333976
20
4.913095
40
0.2678513
50
89.4959189
51
104.8579811
0
ARC
8
DEFAULT_255_1_234
10
5.6157235
20
4.980089
40
0.1985654
50
104.8855873
51
135.2448349
0
ARC
8
DEFAULT_255_1_234
10
5.6207008
20
4.9756336
40
0.2052373
50
135.3398955
51
172.104394
0
ARC
8
DEFAULT_255_1_234
10
5.7014066
20
4.9601925
40
0.2873299
50
171.2651929
51
180.1859362
0
ARC
8
DEFAULT_255_1_234
10
5.6844767
20
4.9569733
40
0.2704083
50
179.515471
51
193.6466734
0
ARC
8
DEFAULT_255_1_234
10
5.6028536
20
4.9361777
40
0.1861855
50
193.3540587
51
225.8256931
0
ARC
8
DEFAULT_255_1_234
10
5.6069293
20
4.9432524
40
0.1941102
50
226.418029
51
255.8553723
0
ARC
8
DEFAULT_255_1_234
10
5.6325726
20
5.0368998
40
0.2911917
50
255.4655572
51
268.7985967
0
ARC
8
DEFAULT_255_1_234
10
5.6372918
20
5.1207491
40
0.3751331
50
268.3464808
51
270.0104874
0
ARC
8
DEFAULT_255_1_234
10
5.6396306
20
5.0523138
40
0.3067064
50
269.575914
51
282.0823146
0
ARC
8
DEFAULT_255_1_234
10
5.6621215
20
4.9528803
40
0.2047712
50
281.7522535
51
306.6056425
0
ARC
8
DEFAULT_255_1_234
10
5.6719641
20
4.9367487
40
0.1859604
50
307.1350025
51
314.0277951
0
ARC
8
DEFAULT_255_1_234
10
5.6683725
20
4.9393766
40
0.1903475
50
314.2553419
51
350.169324
0
ARC
8
DEFAULT_255_1_234
10
5.5832194
20
4.9578409
40
0.2774269
50
349.4145679
51
0.2930737
0
ARC
8
DEFAULT_255_1_234
10
5.6352627
20
5.4737353
40
0.2300764
50
89.477591
51
105.729794
0
ARC
8
DEFAULT_255_1_234
10
5.621654
20
5.5242637
40
0.1777519
50
105.922966
51
135.1662921
0
ARC
8
DEFAULT_255_1_234
10
5.6237043
20
5.5228419
40
0.1802087
50
135.3053131
51
168.9882338
0
ARC
8
DEFAULT_255_1_234
10
5.7064615
20
5.5038721
40
0.2650806
50
168.3802067
51
180.3602358
0
ARC
8
DEFAULT_255_1_234
10
5.6836195
20
5.5001041
40
0.2422425
50
179.5029707
51
194.9126783
0
ARC
8
DEFAULT_255_1_234
10
5.6250856
20
5.484711
40
0.1817188
50
194.9722181
51
224.1943972
0
ARC
8
DEFAULT_255_1_234
10
5.6222723
20
5.4824169
40
0.1781027
50
224.2961434
51
262.0157375
0
ARC
8
DEFAULT_255_1_234
10
5.6364966
20
5.5555661
40
0.2525492
50
261.1250369
51
270.1959853
0
ARC
8
DEFAULT_255_1_234
10
5.6394721
20
5.5368339
40
0.233825
50
269.4825617
51
285.0988277
0
ARC
8
DEFAULT_255_1_234
10
5.654888
20
5.478999
40
0.1739712
50
285.1585659
51
315.9484648
0
ARC
8
DEFAULT_255_1_234
10
5.6459892
20
5.4871886
40
0.1860616
50
316.0412958
51
351.9162715
0
ARC
8
DEFAULT_255_1_234
10
5.5726847
20
5.5013245
40
0.2606517
50
351.1056823
51
0.1936567
0
ARC
8
DEFAULT_255_1_234
10
5.5989676
20
5.5043369
40
0.234377
50
359.4789506
51
16.0679113
0
ARC
8
DEFAULT_255_1_234
10
5.6465635
20
5.517181
40
0.1850875
50
16.3251951
51
44.791304
0
ARC
8
DEFAULT_255_1_234
10
5.6447916
20
5.5172339
40
0.186312
50
44.3958661
51
88.2498933
0
ARC
8
DEFAULT_255_1_234
10
5.637447
20
5.4561154
40
0.2476868
50
86.9833827
51
90.0200148
0
LINE
8
DEFAULT_255_1_234
10
6.6373119
20
5.6090276
11
6.6373119
21
5.2676788
0
LINE
8
DEFAULT_255_1_234
10
6.6373119
20
5.2676788
11
6.9634004
21
5.2676788
0
LINE
8
DEFAULT_255_1_234
10
6.9634004
20
5.2676788
11
6.9634004
21
5.1271233
0
LINE
8
DEFAULT_255_1_234
10
6.9634004
20
5.1271233
11
6.6373119
21
5.1271233
0
LINE
8
DEFAULT_255_1_234
10
6.6373119
20
5.1271233
11
6.6373119
21
4.7576634
0
LINE
8
DEFAULT_255_1_234
10
6.6373119
20
4.7576634
11
6.4879215
21
4.7576634
0
LINE
8
DEFAULT_255_1_234
10
6.4879215
20
4.7576634
11
6.4879215
21
5.1271233
0
LINE
8
DEFAULT_255_1_234
10
6.4879215
20
5.1271233
11
6.161833
21
5.1271233
0
LINE
8
DEFAULT_255_1_234
10
6.161833
20
5.1271233
11
6.161833
21
5.2676788
0
LINE
8
DEFAULT_255_1_234
10
6.161833
20
5.2676788
11
6.4879215
21
5.2676788
0
LINE
8
DEFAULT_255_1_234
10
6.4879215
20
5.2676788
11
6.4879215
21
5.6090276
0
LINE
8
DEFAULT_255_1_234
10
6.4879215
20
5.6090276
11
6.6373119
21
5.6090276
0
LINE
8
DEFAULT_255_1_234
10
4.3193522
20
13.7473211
11
4.6518662
21
12.7827093
0
LINE
8
DEFAULT_255_1_234
10
4.6518662
20
12.7827093
11
4.9859865
21
13.7473211
0
LINE
8
DEFAULT_255_1_234
10
4.9859865
20
13.7473211
11
5.154653
21
13.7473211
0
LINE
8
DEFAULT_255_1_234
10
5.154653
20
13.7473211
11
4.7209391
21
12.5779
0
LINE
8
DEFAULT_255_1_234
10
4.7209391
20
12.5779
11
4.5843996
21
12.5779
0
LINE
8
DEFAULT_255_1_234
10
4.5843996
20
12.5779
11
4.1514889
21
13.7473211
0
LINE
8
DEFAULT_255_1_234
10
4.1514889
20
13.7473211
11
4.3193522
21
13.7473211
0
LINE
8
DEFAULT_255_1_234
10
6.0277029
20
13.7473211
11
6.0277029
21
13.663791
0
LINE
8
DEFAULT_255_1_234
10
6.0277029
20
13.663791
11
5.5433891
21
12.5779
0
LINE
8
DEFAULT_255_1_234
10
5.5433891
20
12.5779
11
5.3875734
21
12.5779
0
LINE
8
DEFAULT_255_1_234
10
5.3875734
20
12.5779
11
5.8702809
21
13.6252387
0
LINE
8
DEFAULT_255_1_234
10
5.8702809
20
13.6252387
11
5.2373799
21
13.6252387
0
LINE
8
DEFAULT_255_1_234
10
5.2373799
20
13.6252387
11
5.2373799
21
13.7473211
0
LINE
8
DEFAULT_255_1_234
10
5.2373799
20
13.7473211
11
6.0277029
21
13.7473211
0
LINE
8
DEFAULT_255_1_234
10
6.6373119
20
13.5465276
11
6.6373119
21
13.2051788
0
LINE
8
DEFAULT_255_1_234
10
6.6373119
20
13.2051788
11
6.9634004
21
13.2051788
0
LINE
8
DEFAULT_255_1_234
10
6.9634004
20
13.2051788
11
6.9634004
21
13.0646233
0
LINE
8
DEFAULT_255_1_234
10
6.9634004
20
13.0646233
11
6.6373119
21
13.0646233
0
LINE
8
DEFAULT_255_1_234
10
6.6373119
20
13.0646233
11
6.6373119
21
12.6951634
0
LINE
8
DEFAULT_255_1_234
10
6.6373119
20
12.6951634
11
6.4879215
21
12.6951634
0
LINE
8
DEFAULT_255_1_234
10
6.4879215
20
12.6951634
11
6.4879215
21
13.0646233
0
LINE
8
DEFAULT_255_1_234
10
6.4879215
20
13.0646233
11
6.161833
21
13.0646233
0
LINE
8
DEFAULT_255_1_234
10
6.161833
20
13.0646233
11
6.161833
21
13.2051788
0
LINE
8
DEFAULT_255_1_234
10
6.161833
20
13.2051788
11
6.4879215
21
13.2051788
0
LINE
8
DEFAULT_255_1_234
10
6.4879215
20
13.2051788
11
6.4879215
21
13.5465276
0
LINE
8
DEFAULT_255_1_234
10
6.4879215
20
13.5465276
11
6.6373119
21
13.5465276
0
LINE
8
DEFAULT_255_1_234
10
4.3193522
20
21.6848211
11
4.6518662
21
20.7202093
0
LINE
8
DEFAULT_255_1_234
10
4.6518662
20
20.7202093
11
4.9859865
21
21.6848211
0
LINE
8
DEFAULT_255_1_234
10
4.9859865
20
21.6848211
11
5.154653
21
21.6848211
0
LINE
8
DEFAULT_255_1_234
10
5.154653
20
21.6848211
11
4.7209391
21
20.5154
0
LINE
8
DEFAULT_255_1_234
10
4.7209391
20
20.5154
11
4.5843996
21
20.5154
0
LINE
8
DEFAULT_255_1_234
10
4.5843996
20
20.5154
11
4.1514889
21
21.6848211
0
LINE
8
DEFAULT_255_1_234
10
4.1514889
20
21.6848211
11
4.3193522
21
21.6848211
0
LINE
8
DEFAULT_255_1_234
10
5.829319
20
21.6856243
11
5.8558237
21
21.6856243
0
LINE
8
DEFAULT_255_1_234
10
5.8558237
20
21.6856243
11
5.8558237
21
21.559526
0
LINE
8
DEFAULT_255_1_234
10
5.8558237
20
21.559526
11
5.8285158
21
21.559526
0
LINE
8
DEFAULT_255_1_234
10
5.2815544
20
20.9603583
11
5.2815544
21
21.0173836
0
LINE
8
DEFAULT_255_1_234
10
5.4309448
20
20.9981075
11
5.4309448
21
20.9434917
0
ARC
8
DEFAULT_255_1_234
10
5.8337506
20
21.0597455
40
0.4998079
50
90.6001036
51
104.514704
0
ARC
8
DEFAULT_255_1_234
10
5.7949022
20
21.2042131
40
0.3502176
50
104.2855254
51
133.862935
0
ARC
8
DEFAULT_255_1_234
10
5.8112779
20
21.193383
40
0.3693984
50
134.5302688
51
161.6210873
0
ARC
8
DEFAULT_255_1_234
10
5.9765968
20
21.1350895
40
0.5446739
50
161.2849839
51
174.2076652
0
ARC
8
DEFAULT_255_1_234
10
6.1172905
20
21.1156787
40
0.6866274
50
173.7810589
51
174.9254635
0
ARC
8
DEFAULT_255_1_234
10
5.6622737
20
20.9773839
40
0.3033419
50
95.8330959
51
138.9954921
0
ARC
8
DEFAULT_255_1_234
10
5.6846093
20
20.8495375
40
0.4328947
50
89.8753725
51
97.0544009
0
ARC
8
DEFAULT_255_1_234
10
5.6893559
20
20.9330748
40
0.3493769
50
71.6407809
51
90.6240094
0
ARC
8
DEFAULT_255_1_234
10
5.7044132
20
20.9885082
40
0.2920396
50
39.6367836
51
71.019018
0
ARC
8
DEFAULT_255_1_234
10
5.6407605
20
20.9334998
40
0.3761538
50
10.658731
51
39.9043955
0
ARC
8
DEFAULT_255_1_234
10
5.4859688
20
20.8998686
40
0.5345136
50
359.682601
51
11.132623
0
ARC
8
DEFAULT_255_1_234
10
5.4819819
20
20.892801
40
0.5385081
50
347.2486944
51
0.4369317
0
ARC
8
DEFAULT_255_1_234
10
5.6487296
20
20.8526807
40
0.3670249
50
318.1409698
51
347.6118597
0
ARC
8
DEFAULT_255_1_234
10
5.6812289
20
20.8259702
40
0.3250007
50
275.6342139
51
317.8248465
0
ARC
8
DEFAULT_255_1_234
10
5.65914
20
20.9559219
40
0.4565864
50
269.8874292
51
276.7917694
0
ARC
8
DEFAULT_255_1_234
10
5.6536471
20
20.8533743
40
0.3540676
50
246.9140195
51
270.7437342
0
ARC
8
DEFAULT_255_1_234
10
5.6542861
20
20.8391384
40
0.3412781
50
218.1665114
51
245.878116
0
ARC
8
DEFAULT_255_1_234
10
5.7422322
20
20.9127279
40
0.455911
50
191.4115814
51
218.6077802
0
ARC
8
DEFAULT_255_1_234
10
5.9360411
20
20.9561833
40
0.6545001
50
179.6345085
51
191.7836486
0
ARC
8
DEFAULT_255_1_234
10
6.4942748
20
21.0240697
40
1.2127388
50
171.4525249
51
180.3158839
0
ARC
8
DEFAULT_255_1_234
10
6.0547624
20
21.0924608
40
0.7679464
50
157.9802646
51
171.6246686
0
ARC
8
DEFAULT_255_1_234
10
5.8333645
20
21.1807421
40
0.5296008
50
141.4298019
51
157.854097
0
ARC
8
DEFAULT_255_1_234
10
5.7691965
20
21.2261381
40
0.4511509
50
102.8715806
51
140.8564722
0
ARC
8
DEFAULT_255_1_234
10
5.8339581
20
20.9821552
40
0.7034845
50
90.3778349
51
103.5869322
0
ARC
8
DEFAULT_255_1_234
10
5.6601357
20
20.921673
40
0.2370698
50
89.8751008
51
126.2071704
0
ARC
8
DEFAULT_255_1_234
10
5.6647147
20
20.9062303
40
0.2522934
50
124.9745049
51
144.895901
0
ARC
8
DEFAULT_255_1_234
10
5.6471337
20
20.920556
40
0.2296779
50
145.2974905
51
160.2660252
0
ARC
8
DEFAULT_255_1_234
10
5.9543876
20
20.9403071
40
0.5234525
50
179.6514266
51
190.2855912
0
ARC
8
DEFAULT_255_1_234
10
5.7850013
20
20.9083786
40
0.3510893
50
190.0945431
51
207.5098196
0
ARC
8
DEFAULT_255_1_234
10
5.7284283
20
20.8814623
40
0.288489
50
207.9583163
51
216.3251085
0
ARC
8
DEFAULT_255_1_234
10
5.6944391
20
20.8535105
40
0.2445587
50
215.7661442
51
232.5456785
0
ARC
8
DEFAULT_255_1_234
10
5.6561374
20
20.8048482
40
0.1826382
50
232.8005391
51
270.6605633
0
ARC
8
DEFAULT_255_1_234
10
5.6607075
20
20.8412612
40
0.2190529
50
269.35537
51
288.4744281
0
ARC
8
DEFAULT_255_1_234
10
5.6699972
20
20.8063118
40
0.1829749
50
289.1833337
51
322.9683818
0
ARC
8
DEFAULT_255_1_234
10
5.6088494
20
20.8545391
40
0.2608399
50
322.6007884
51
346.5182367
0
ARC
8
DEFAULT_255_1_234
10
5.493109
20
20.8840616
40
0.3802777
50
346.2582162
51
358.7741648
0
ARC
8
DEFAULT_255_1_234
10
5.3912759
20
20.8895965
40
0.4822176
50
358.3755224
51
0.0098023
0
ARC
8
DEFAULT_255_1_234
10
5.4668946
20
20.8923657
40
0.4066078
50
359.6214041
51
11.2839074
0
ARC
8
DEFAULT_255_1_234
10
5.5946093
20
20.9190066
40
0.2761514
50
11.0482309
51
31.8146458
0
ARC
8
DEFAULT_255_1_234
10
5.6255136
20
20.9357584
40
0.2410679
50
32.3035391
51
38.082671
0
ARC
8
DEFAULT_255_1_234
10
5.6675796
20
20.9738662
40
0.1844966
50
36.825067
51
85.7415724
0
ARC
8
DEFAULT_255_1_234
10
5.6608629
20
20.9238301
40
0.2349122
50
85.0140713
51
90.0513278
0
LINE
8
DEFAULT_255_1_234
10
6.6373119
20
21.4840276
11
6.6373119
21
21.1426788
0
LINE
8
DEFAULT_255_1_234
10
6.6373119
20
21.1426788
11
6.9634004
21
21.1426788
0
LINE
8
DEFAULT_255_1_234
10
6.9634004
20
21.1426788
11
6.9634004
21
21.0021233
0
LINE
8
DEFAULT_255_1_234
10
6.9634004
20
21.0021233
11
6.6373119
21
21.0021233
0
LINE
8
DEFAULT_255_1_234
10
6.6373119
20
21.0021233
11
6.6373119
21
20.6326634
0
LINE
8
DEFAULT_255_1_234
10
6.6373119
20
20.6326634
11
6.4879215
21
20.6326634
0
LINE
8
DEFAULT_255_1_234
10
6.4879215
20
20.6326634
11
6.4879215
21
21.0021233
0
LINE
8
DEFAULT_255_1_234
10
6.4879215
20
21.0021233
11
6.161833
21
21.0021233
0
LINE
8
DEFAULT_255_1_234
10
6.161833
20
21.0021233
11
6.161833
21
21.1426788
0
LINE
8
DEFAULT_255_1_234
10
6.161833
20
21.1426788
11
6.4879215
21
21.1426788
0
LINE
8
DEFAULT_255_1_234
10
6.4879215
20
21.1426788
11
6.4879215
21
21.4840276
0
LINE
8
DEFAULT_255_1_234
10
6.4879215
20
21.4840276
11
6.6373119
21
21.4840276
0
LINE
8
DEFAULT_255_1_234
10
4.3193522
20
29.6223211
11
4.6518662
21
28.6577093
0
LINE
8
DEFAULT_255_1_234
10
4.6518662
20
28.6577093
11
4.9859865
21
29.6223211
0
LINE
8
DEFAULT_255_1_234
10
4.9859865
20
29.6223211
11
5.154653
21
29.6223211
0
LINE
8
DEFAULT_255_1_234
10
5.154653
20
29.6223211
11
4.7209391
21
28.4529
0
LINE
8
DEFAULT_255_1_234
10
4.7209391
20
28.4529
11
4.5843996
21
28.4529
0
LINE
8
DEFAULT_255_1_234
10
4.5843996
20
28.4529
11
4.1514889
21
29.6223211
0
LINE
8
DEFAULT_255_1_234
10
4.1514889
20
29.6223211
11
4.3193522
21
29.6223211
0
LINE
8
DEFAULT_255_1_234
10
5.459859
20
29.0086963
11
5.3409893
21
29.0392169
0
LINE
8
DEFAULT_255_1_234
10
5.3409893
20
29.0392169
11
5.4004242
21
29.6223211
0
LINE
8
DEFAULT_255_1_234
10
5.4004242
20
29.6223211
11
5.9995918
21
29.6223211
0
LINE
8
DEFAULT_255_1_234
10
5.9995918
20
29.6223211
11
5.9995918
21
29.4849784
0
LINE
8
DEFAULT_255_1_234
10
5.9995918
20
29.4849784
11
5.5265225
21
29.4849784
0
LINE
8
DEFAULT_255_1_234
10
5.5265225
20
29.4849784
11
5.4911828
21
29.1661184
0
LINE
8
DEFAULT_255_1_234
10
5.2992243
20
28.7605156
11
5.4397797
21
28.7605156
0
LINE
8
DEFAULT_255_1_234
10
5.4992146
20
29.0408232
11
5.459859
21
29.0086963
0
ARC
8
DEFAULT_255_1_234
10
5.6766612
20
28.848123
40
0.3681349
50
93.7182161
51
120.2538958
0
ARC
8
DEFAULT_255_1_234
10
5.6860875
20
28.7673394
40
0.449379
50
89.9660152
51
94.2496022
0
ARC
8
DEFAULT_255_1_234
10
5.6901609
20
28.8262549
40
0.390482
50
73.8043271
51
90.5585896
0
ARC
8
DEFAULT_255_1_234
10
5.7136506
20
28.9120602
40
0.3015334
50
41.3071453
51
73.5430202
0
ARC
8
DEFAULT_255_1_234
10
5.6720333
20
28.8762324
40
0.3564457
50
13.5075983
51
41.2174222
0
ARC
8
DEFAULT_255_1_234
10
5.5078537
20
28.8332486
40
0.5261351
50
1.1331335
51
13.8829381
0
ARC
8
DEFAULT_255_1_234
10
5.3666906
20
28.8256665
40
0.6674378
50
359.9919444
51
1.544251
0
ARC
8
DEFAULT_255_1_234
10
5.4943732
20
28.821528
40
0.5397702
50
347.8572367
51
0.4293338
0
ARC
8
DEFAULT_255_1_234
10
5.669405
20
28.7818736
40
0.3603188
50
323.673004
51
348.1672506
0
ARC
8
DEFAULT_255_1_234
10
5.6988558
20
28.7639168
40
0.3259678
50
316.8171152
51
323.1492751
0
ARC
8
DEFAULT_255_1_234
10
5.7049747
20
28.760246
40
0.3189975
50
281.8396411
51
316.5457803
0
ARC
8
DEFAULT_255_1_234
10
5.6674011
20
28.9157762
40
0.4789527
50
269.5770101
51
282.4214771
0
ARC
8
DEFAULT_255_1_234
10
5.6602822
20
28.8944125
40
0.45759
50
256.2427136
51
270.4486331
0
ARC
8
DEFAULT_255_1_234
10
5.6303724
20
28.7744229
40
0.3339303
50
228.9023911
51
256.3314342
0
ARC
8
DEFAULT_255_1_234
10
5.6229957
20
28.7627746
40
0.32031
50
193.753695
51
228.5271154
0
ARC
8
DEFAULT_255_1_234
10
5.7467911
20
28.79908
40
0.4492253
50
184.924711
51
194.497588
0
ARC
8
DEFAULT_255_1_234
10
5.7660478
20
28.8026591
40
0.3289787
50
187.3600538
51
198.6732863
0
ARC
8
DEFAULT_255_1_234
10
5.6610772
20
28.7662674
40
0.217884
50
198.4451669
51
217.794479
0
ARC
8
DEFAULT_255_1_234
10
5.6314947
20
28.7453085
40
0.1816698
50
218.2887171
51
228.5612368
0
ARC
8
DEFAULT_255_1_234
10
5.6412734
20
28.7584963
40
0.1980329
50
228.9654866
51
258.1234728
0
ARC
8
DEFAULT_255_1_234
10
5.6618444
20
28.8465833
40
0.2884748
50
257.7258293
51
270.401361
0
ARC
8
DEFAULT_255_1_234
10
5.666333
20
28.8020821
40
0.2439788
50
269.4204404
51
286.4209037
0
ARC
8
DEFAULT_255_1_234
10
5.6811818
20
28.7481657
40
0.1880666
50
286.7251356
51
320.600362
0
ARC
8
DEFAULT_255_1_234
10
5.6428643
20
28.7792595
40
0.2374121
50
320.6712579
51
344.5441685
0
ARC
8
DEFAULT_255_1_234
10
5.5271969
20
28.8132045
40
0.3579479
50
344.2412205
51
356.7357071
0
ARC
8
DEFAULT_255_1_234
10
5.4023118
20
28.8235444
40
0.4832297
50
356.3548756
51
0.0500261
0
ARC
8
DEFAULT_255_1_234
10
5.5359627
20
28.826665
40
0.3495889
50
359.5576869
51
12.953486
0
ARC
8
DEFAULT_255_1_234
10
5.6414524
20
28.8522434
40
0.2410532
50
12.6490276
51
41.6081334
0
ARC
8
DEFAULT_255_1_234
10
5.6644895
20
28.8718321
40
0.2108218
50
41.7850273
51
85.9892764
0
ARC
8
DEFAULT_255_1_234
10
5.6521632
20
28.7905462
40
0.2928454
50
84.6957577
51
90.0676183
0
ARC
8
DEFAULT_255_1_234
10
5.6498116
20
28.7236716
40
0.3597255
50
89.6804936
51
99.1614436
0
ARC
8
DEFAULT_255_1_234
10
5.6292747
20
28.8464131
40
0.235281
50
98.9830931
51
113.8908934
0
ARC
8
DEFAULT_255_1_234
10
5.6063157
20
28.9005587
40
0.176479
50
114.1950727
51
127.3641004
0
LINE
8
DEFAULT_255_1_234
10
6.6373119
20
29.4215276
11
6.6373119
21
29.0801788
0
LINE
8
DEFAULT_255_1_234
10
6.6373119
20
29.0801788
11
6.9634004
21
29.0801788
0
LINE
8
DEFAULT_255_1_234
10
6.9634004
20
29.0801788
11
6.9634004
21
28.9396233
0
LINE
8
DEFAULT_255_1_234
10
6.9634004
20
28.9396233
11
6.6373119
21
28.9396233
0
LINE
8
DEFAULT_255_1_234
10
6.6373119
20
28.9396233
11
6.6373119
21
28.5701634
0
LINE
8
DEFAULT_255_1_234
10
6.6373119
20
28.5701634
11
6.4879215
21
28.5701634
0
LINE
8
DEFAULT_255_1_234
10
6.4879215
20
28.5701634
11
6.4879215
21
28.9396233
0
LINE
8
DEFAULT_255_1_234
10
6.4879215
20
28.9396233
11
6.161833
21
28.9396233
0
LINE
8
DEFAULT_255_1_234
10
6.161833
20
28.9396233
11
6.161833
21
29.0801788
0
LINE
8
DEFAULT_255_1_234
10
6.161833
20
29.0801788
11
6.4879215
21
29.0801788
0
LINE
8
DEFAULT_255_1_234
10
6.4879215
20
29.0801788
11
6.4879215
21
29.4215276
0
LINE
8
DEFAULT_255_1_234
10
6.4879215
20
29.4215276
11
6.6373119
21
29.4215276
0
LINE
8
DEFAULT_255_1_234
10
4.3193522
20
37.5598211
11
4.6518662
21
36.5952093
0
LINE
8
DEFAULT_255_1_234
10
4.6518662
20
36.5952093
11
4.9859865
21
37.5598211
0
LINE
8
DEFAULT_255_1_234
10
4.9859865
20
37.5598211
11
5.154653
21
37.5598211
0
LINE
8
DEFAULT_255_1_234
10
5.154653
20
37.5598211
11
4.7209391
21
36.3904
0
LINE
8
DEFAULT_255_1_234
10
4.7209391
20
36.3904
11
4.5843996
21
36.3904
0
LINE
8
DEFAULT_255_1_234
10
4.5843996
20
36.3904
11
4.1514889
21
37.5598211
0
LINE
8
DEFAULT_255_1_234
10
4.1514889
20
37.5598211
11
4.3193522
21
37.5598211
0
LINE
8
DEFAULT_255_1_234
10
5.8999983
20
37.5598211
11
5.8999983
21
36.783152
0
LINE
8
DEFAULT_255_1_234
10
5.8999983
20
36.783152
11
6.0622394
21
36.783152
0
LINE
8
DEFAULT_255_1_234
10
6.0622394
20
36.783152
11
6.0622394
21
36.6618728
0
LINE
8
DEFAULT_255_1_234
10
6.0622394
20
36.6618728
11
5.8999983
21
36.6618728
0
LINE
8
DEFAULT_255_1_234
10
5.8999983
20
36.6618728
11
5.8999983
21
36.3904
0
LINE
8
DEFAULT_255_1_234
10
5.8999983
20
36.3904
11
5.750608
21
36.3904
0
LINE
8
DEFAULT_255_1_234
10
5.750608
20
36.3904
11
5.750608
21
36.6618728
0
LINE
8
DEFAULT_255_1_234
10
5.750608
20
36.6618728
11
5.2181037
21
36.6618728
0
LINE
8
DEFAULT_255_1_234
10
5.2181037
20
36.6618728
11
5.2181037
21
36.7494187
0
LINE
8
DEFAULT_255_1_234
10
5.2181037
20
36.7494187
11
5.741773
21
37.5598211
0
LINE
8
DEFAULT_255_1_234
10
5.741773
20
37.5598211
11
5.8999983
21
37.5598211
0
LINE
8
DEFAULT_255_1_234
10
5.7329381
20
37.3244912
11
5.3867702
21
36.783152
0
LINE
8
DEFAULT_255_1_234
10
5.3867702
20
36.783152
11
5.750608
21
36.783152
0
LINE
8
DEFAULT_255_1_234
10
5.750608
20
36.783152
11
5.750608
21
37.3566181
0
LINE
8
DEFAULT_255_1_234
10
5.750608
20
37.3566181
11
5.7329381
21
37.3244912
0
LINE
8
DEFAULT_255_1_234
10
6.6373119
20
37.3590276
11
6.6373119
21
37.0176788
0
LINE
8
DEFAULT_255_1_234
10
6.6373119
20
37.0176788
11
6.9634004
21
37.0176788
0
LINE
8
DEFAULT_255_1_234
10
6.9634004
20
37.0176788
11
6.9634004
21
36.8771233
0
LINE
8
DEFAULT_255_1_234
10
6.9634004
20
36.8771233
11
6.6373119
21
36.8771233
0
LINE
8
DEFAULT_255_1_234
10
6.6373119
20
36.8771233
11
6.6373119
21
36.5076634
0
LINE
8
DEFAULT_255_1_234
10
6.6373119
20
36.5076634
11
6.4879215
21
36.5076634
0
LINE
8
DEFAULT_255_1_234
10
6.4879215
20
36.5076634
11
6.4879215
21
36.8771233
0
LINE
8
DEFAULT_255_1_234
10
6.4879215
20
36.8771233
11
6.161833
21
36.8771233
0
LINE
8
DEFAULT_255_1_234
10
6.161833
20
36.8771233
11
6.161833
21
37.0176788
0
LINE
8
DEFAULT_255_1_234
10
6.161833
20
37.0176788
11
6.4879215
21
37.0176788
0
LINE
8
DEFAULT_255_1_234
10
6.4879215
20
37.0176788
11
6.4879215
21
37.3590276
0
LINE
8
DEFAULT_255_1_234
10
6.4879215
20
37.3590276
11
6.6373119
21
37.3590276
0
LINE
8
DEFAULT_255_1_234
10
4.3193522
20
45.4973211
11
4.6518662
21
44.5327093
0
LINE
8
DEFAULT_255_1_234
10
4.6518662
20
44.5327093
11
4.9859865
21
45.4973211
0
LINE
8
DEFAULT_255_1_234
10
4.9859865
20
45.4973211
11
5.154653
21
45.4973211
0
LINE
8
DEFAULT_255_1_234
10
5.154653
20
45.4973211
11
4.7209391
21
44.3279
0
LINE
8
DEFAULT_255_1_234
10
4.7209391
20
44.3279
11
4.5843996
21
44.3279
0
LINE
8
DEFAULT_255_1_234
10
4.5843996
20
44.3279
11
4.1514889
21
45.4973211
0
LINE
8
DEFAULT_255_1_234
10
4.1514889
20
45.4973211
11
4.3193522
21
45.4973211
0
LINE
8
DEFAULT_255_1_234
10
5.4887733
20
44.8636169
11
5.4887733
21
44.9848962
0
LINE
8
DEFAULT_255_1_234
10
5.4887733
20
44.9848962
11
5.6004145
21
44.9848962
0
LINE
8
DEFAULT_255_1_234
10
5.4100623
20
45.1905087
11
5.2614751
21
45.1905087
0
LINE
8
DEFAULT_255_1_234
10
5.2510338
20
44.6363188
11
5.4004242
21
44.6363188
0
LINE
8
DEFAULT_255_1_234
10
5.6004145
20
44.8636169
11
5.4887733
21
44.8636169
0
ARC
8
DEFAULT_255_1_234
10
5.5975011
20
45.3241713
40
0.3392876
50
270.4919872
51
281.8951556
0
ARC
8
DEFAULT_255_1_234
10
5.6216273
20
45.2139702
40
0.2264817
50
281.6691735
51
301.2943132
0
ARC
8
DEFAULT_255_1_234
10
5.6386483
20
45.1828304
40
0.1910381
50
301.7833094
51
311.7545298
0
ARC
8
DEFAULT_255_1_234
10
5.6478059
20
45.1726748
40
0.1773635
50
311.7323931
51
354.2802411
0
ARC
8
DEFAULT_255_1_234
10
5.5751684
20
45.1851722
40
0.2509385
50
353.0937916
51
0.1181479
0
ARC
8
DEFAULT_255_1_234
10
5.5290469
20
45.1899386
40
0.2970898
50
359.1805295
51
15.0453146
0
ARC
8
DEFAULT_255_1_234
10
5.6636306
20
45.2291992
40
0.1569564
50
13.9577229
51
77.6713066
0
ARC
8
DEFAULT_255_1_234
10
5.6249835
20
45.0906949
40
0.3006298
50
76.1116566
51
90.7026153
0
ARC
8
DEFAULT_255_1_234
10
5.6190673
20
45.1180545
40
0.2732568
50
89.5324876
51
103.531937
0
ARC
8
DEFAULT_255_1_234
10
5.5990117
20
45.1979884
40
0.1908508
50
103.2931773
51
133.5619022
0
ARC
8
DEFAULT_255_1_234
10
5.5945606
20
45.2039375
40
0.1834746
50
133.8349307
51
173.5344437
0
ARC
8
DEFAULT_255_1_234
10
5.6668649
20
45.1911213
40
0.2568033
50
172.5096846
51
180.1366907
0
ARC
8
DEFAULT_255_1_234
10
5.5717543
20
45.1945622
40
0.3103056
50
155.3484492
51
180.7484736
0
ARC
8
DEFAULT_255_1_234
10
5.5668632
20
45.1916846
40
0.3070957
50
131.5744599
51
154.4798489
0
ARC
8
DEFAULT_255_1_234
10
5.5981779
20
45.160031
40
0.3515643
50
96.9875458
51
131.9690667
0
ARC
8
DEFAULT_255_1_234
10
5.6201259
20
45.0354636
40
0.4779224
50
89.8596053
51
97.7825159
0
ARC
8
DEFAULT_255_1_234
10
5.6249322
20
45.0092616
40
0.5041361
50
78.3655447
51
90.4131539
0
ARC
8
DEFAULT_255_1_234
10
5.660724
20
45.1751887
40
0.3344039
50
56.6229102
51
78.638727
0
ARC
8
DEFAULT_255_1_234
10
5.6822184
20
45.2127805
40
0.2912001
50
47.0253525
51
56.0854072
0
ARC
8
DEFAULT_255_1_234
10
5.6841964
20
45.2167223
40
0.2869704
50
10.9208013
51
46.7778124
0
ARC
8
DEFAULT_255_1_234
10
5.547803
20
45.1851857
40
0.426899
50
359.6364486
51
11.6087304
0
ARC
8
DEFAULT_255_1_234
10
5.7312874
20
45.1836752
40
0.243409
50
332.3549906
51
359.7179418
0
ARC
8
DEFAULT_255_1_234
10
5.6662476
20
45.2145142
40
0.3153459
50
325.2333722
51
332.8745602
0
ARC
8
DEFAULT_255_1_234
10
5.6815099
20
45.2038828
40
0.2967456
50
292.9802137
51
325.2392345
0
ARC
8
DEFAULT_255_1_234
10
5.6540473
20
45.2572863
40
0.3566604
50
292.5402179
51
293.6924929
0
ARC
8
DEFAULT_255_1_234
10
5.6933069
20
44.6118091
40
0.3307468
50
57.6435486
51
72.8625112
0
ARC
8
DEFAULT_255_1_234
10
5.7287569
20
44.6692549
40
0.2632492
50
36.7248896
51
57.4697979
0
ARC
8
DEFAULT_255_1_234
10
5.7276202
20
44.670522
40
0.2634081
50
8.0545065
51
36.356114
0
ARC
8
DEFAULT_255_1_234
10
5.6413387
20
44.6550174
40
0.3510261
50
359.8320645
51
8.5869982
0
ARC
8
DEFAULT_255_1_234
10
5.6038163
20
44.6502101
40
0.3885653
50
343.9829931
51
0.5571613
0
ARC
8
DEFAULT_255_1_234
10
5.692436
20
44.6259438
40
0.2966924
50
311.6359546
51
343.7651759
0
ARC
8
DEFAULT_255_1_234
10
5.6545929
20
44.6686102
40
0.3537231
50
279.7829875
51
311.6255694
0
ARC
8
DEFAULT_255_1_234
10
5.6244705
20
44.812328
40
0.5004971
50
269.7286406
51
280.3856417
0
ARC
8
DEFAULT_255_1_234
10
5.6182778
20
44.8081996
40
0.4963778
50
256.6828919
51
270.4412052
0
ARC
8
DEFAULT_255_1_234
10
5.5844074
20
44.6697394
40
0.3538406
50
229.4223008
51
256.8556159
0
ARC
8
DEFAULT_255_1_234
10
5.5429467
20
44.6230736
40
0.2914296
50
181.818294
51
229.6455059
0
ARC
8
DEFAULT_255_1_234
10
5.6469423
20
44.6361496
40
0.3959084
50
179.9755256
51
183.2323064
0
ARC
8
DEFAULT_255_1_234
10
5.6297169
20
44.6341037
40
0.2293034
50
179.4465117
51
196.2869258
0
ARC
8
DEFAULT_255_1_234
10
5.5809577
20
44.6207651
40
0.1787621
50
196.5661473
51
227.705904
0
ARC
8
DEFAULT_255_1_234
10
5.5973672
20
44.6391155
40
0.2033784
50
227.7652068
51
257.8762805
0
ARC
8
DEFAULT_255_1_234
10
5.6198642
20
44.7334156
40
0.3003081
50
257.4584385
51
270.426602
0
ARC
8
DEFAULT_255_1_234
10
5.6244208
20
44.7623996
40
0.329292
50
269.5962073
51
280.8789248
0
ARC
8
DEFAULT_255_1_234
10
5.6473737
20
44.6477685
40
0.2123908
50
280.6346389
51
299.8595945
0
ARC
8
DEFAULT_255_1_234
10
5.6664644
20
44.6115212
40
0.171457
50
300.3576302
51
314.5517981
0
ARC
8
DEFAULT_255_1_234
10
5.6581704
20
44.6175919
40
0.1816095
50
315.0728369
51
345.0431014
0
ARC
8
DEFAULT_255_1_234
10
5.5658518
20
44.6444841
40
0.2777492
50
344.5986631
51
357.9269593
0
ARC
8
DEFAULT_255_1_234
10
5.4762844
20
44.6506276
40
0.3674917
50
357.4748886
51
0.0231117
0
ARC
8
DEFAULT_255_1_234
10
5.5785954
20
44.6530679
40
0.2651907
50
359.5047933
51
13.4239635
0
ARC
8
DEFAULT_255_1_234
10
5.6652597
20
44.6752478
40
0.1757509
50
12.9498199
51
48.7551375
0
ARC
8
DEFAULT_255_1_234
10
5.6470331
20
44.65034
40
0.2065134
50
49.5088623
51
72.1836453
0
ARC
8
DEFAULT_255_1_234
10
5.6112484
20
44.5441291
40
0.3185836
50
71.9010081
51
84.3554254
0
ARC
8
DEFAULT_255_1_234
10
5.5951116
20
44.4080326
40
0.4556151
50
84.0193428
51
89.333121
0
LINE
8
DEFAULT_255_1_234
10
6.6373119
20
45.2965276
11
6.6373119
21
44.9551788
0
LINE
8
DEFAULT_255_1_234
10
6.6373119
20
44.9551788
11
6.9634004
21
44.9551788
0
LINE
8
DEFAULT_255_1_234
10
6.9634004
20
44.9551788
11
6.9634004
21
44.8146233
0
LINE
8
DEFAULT_255_1_234
10
6.9634004
20
44.8146233
11
6.6373119
21
44.8146233
0
LINE
8
DEFAULT_255_1_234
10
6.6373119
20
44.8146233
11
6.6373119
21
44.4451634
0
LINE
8
DEFAULT_255_1_234
10
6.6373119
20
44.4451634
11
6.4879215
21
44.4451634
0
LINE
8
DEFAULT_255_1_234
10
6.4879215
20
44.4451634
11
6.4879215
21
44.8146233
0
LINE
8
DEFAULT_255_1_234
10
6.4879215
20
44.8146233
11
6.161833
21
44.8146233
0
LINE
8
DEFAULT_255_1_234
10
6.161833
20
44.8146233
11
6.161833
21
44.9551788
0
LINE
8
DEFAULT_255_1_234
10
6.161833
20
44.9551788
11
6.4879215
21
44.9551788
0
LINE
8
DEFAULT_255_1_234
10
6.4879215
20
44.9551788
11
6.4879215
21
45.2965276
0
LINE
8
DEFAULT_255_1_234
10
6.4879215
20
45.2965276
11
6.6373119
21
45.2965276
0
LINE
8
DEFAULT_255_1_234
10
4.3193522
20
53.4348211
11
4.6518662
21
52.4702093
0
LINE
8
DEFAULT_255_1_234
10
4.6518662
20
52.4702093
11
4.9859865
21
53.4348211
0
LINE
8
DEFAULT_255_1_234
10
4.9859865
20
53.4348211
11
5.154653
21
53.4348211
0
LINE
8
DEFAULT_255_1_234
10
5.154653
20
53.4348211
11
4.7209391
21
52.2654
0
LINE
8
DEFAULT_255_1_234
10
4.7209391
20
52.2654
11
4.5843996
21
52.2654
0
LINE
8
DEFAULT_255_1_234
10
4.5843996
20
52.2654
11
4.1514889
21
53.4348211
0
LINE
8
DEFAULT_255_1_234
10
4.1514889
20
53.4348211
11
4.3193522
21
53.4348211
0
LINE
8
DEFAULT_255_1_234
10
6.0389474
20
52.3866792
11
6.0389474
21
52.2654
0
LINE
8
DEFAULT_255_1_234
10
6.0389474
20
52.2654
11
5.2727195
21
52.2654
0
LINE
8
DEFAULT_255_1_234
10
5.2727195
20
52.2654
11
5.2727195
21
52.3722221
0
LINE
8
DEFAULT_255_1_234
10
5.2727195
20
52.3722221
11
5.6775191
21
52.8219995
0
LINE
8
DEFAULT_255_1_234
10
5.3988178
20
53.0902595
11
5.2502307
21
53.0902595
0
LINE
8
DEFAULT_255_1_234
10
5.7650651
20
52.7264218
11
5.4518273
21
52.3866792
0
LINE
8
DEFAULT_255_1_234
10
5.4518273
20
52.3866792
11
6.0389474
21
52.3866792
0
ARC
8
DEFAULT_255_1_234
10
4.3285025
20
54.0149527
40
1.8008286
50
318.5132453
51
320.7828378
0
ARC
8
DEFAULT_255_1_234
10
4.8571999
20
53.5846426
40
1.1191493
50
320.7372736
51
323.9737074
0
ARC
8
DEFAULT_255_1_234
10
5.2491855
20
53.3006361
40
0.6350923
50
323.8961724
51
328.6421089
0
ARC
8
DEFAULT_255_1_234
10
5.4538451
20
53.1744031
40
0.3946393
50
328.8299013
51
331.789948
0
ARC
8
DEFAULT_255_1_234
10
5.5535629
20
53.1229509
40
0.2824501
50
331.4255242
51
352.9364833
0
ARC
8
DEFAULT_255_1_234
10
5.567213
20
53.1198976
40
0.2685315
50
353.2248685
51
0.0169286
0
ARC
8
DEFAULT_255_1_234
10
5.5882007
20
53.122195
40
0.2475536
50
359.4866256
51
15.9339782
0
ARC
8
DEFAULT_255_1_234
10
5.6388992
20
53.1358286
40
0.1950618
50
16.1714718
51
43.5284424
0
ARC
8
DEFAULT_255_1_234
10
5.6466301
20
53.1435573
40
0.184134
50
43.4415429
51
83.1661404
0
ARC
8
DEFAULT_255_1_234
10
5.6332219
20
53.0698771
40
0.258926
50
82.160215
51
90.1505798
0
ARC
8
DEFAULT_255_1_234
10
5.6300646
20
53.0161865
40
0.3126255
50
89.5460705
51
102.5418777
0
ARC
8
DEFAULT_255_1_234
10
5.6057732
20
53.1192665
40
0.2067346
50
102.1739365
51
129.2061916
0
ARC
8
DEFAULT_255_1_234
10
5.5978804
20
53.1317094
40
0.1921118
50
129.7279328
51
135.7542026
0
ARC
8
DEFAULT_255_1_234
10
5.6100332
20
53.1220045
40
0.2075944
50
136.175737
51
166.3674722
0
ARC
8
DEFAULT_255_1_234
10
5.7107251
20
53.0950182
40
0.3118201
50
165.9092917
51
178.8683903
0
ARC
8
DEFAULT_255_1_234
10
5.7972112
20
53.0903179
40
0.3983935
50
178.438168
51
180.0083905
0
ARC
8
DEFAULT_255_1_234
10
5.6570714
20
53.0942231
40
0.4068601
50
163.2878735
51
180.5581814
0
ARC
8
DEFAULT_255_1_234
10
5.5768976
20
53.116284
40
0.3237344
50
133.454115
51
162.9470031
0
ARC
8
DEFAULT_255_1_234
10
5.5947517
20
53.0973
40
0.349795
50
100.7869394
51
133.4384016
0
ARC
8
DEFAULT_255_1_234
10
5.6295289
20
52.9424319
40
0.5084616
50
89.6605301
51
101.3704185
0
ARC
8
DEFAULT_255_1_234
10
5.6361627
20
52.9485496
40
0.502348
50
78.2171172
51
90.4130393
0
ARC
8
DEFAULT_255_1_234
10
5.6716706
20
53.1109637
40
0.3361092
50
55.9268222
51
78.4888551
0
ARC
8
DEFAULT_255_1_234
10
5.6913146
20
53.1448324
40
0.2970617
50
47.9292255
51
55.4054003
0
ARC
8
DEFAULT_255_1_234
10
5.7014707
20
53.1551502
40
0.2825983
50
4.3347696
51
48.0560701
0
ARC
8
DEFAULT_255_1_234
10
5.59191
20
53.1381601
40
0.393225
50
359.925209
51
5.5967654
0
ARC
8
DEFAULT_255_1_234
10
5.6347992
20
53.1437816
40
0.3503892
50
337.8914096
51
358.9967724
0
ARC
8
DEFAULT_255_1_234
10
5.3634404
20
53.2484706
40
0.6412172
50
326.9135351
51
338.3505194
0
ARC
8
DEFAULT_255_1_234
10
4.9648708
20
53.5039284
40
1.1146189
50
319.6472867
51
327.095818
0
ARC
8
DEFAULT_255_1_234
10
4.5815711
20
53.8201
40
1.6114559
50
317.2586784
51
319.9046139
0
LINE
8
DEFAULT_255_1_234
10
6.6373119
20
53.2340276
11
6.6373119
21
52.8926788
0
LINE
8
DEFAULT_255_1_234
10
6.6373119
20
52.8926788
11
6.9634004
21
52.8926788
0
LINE
8
DEFAULT_255_1_234
10
6.9634004
20
52.8926788
11
6.9634004
21
52.7521233
0
LINE
8
DEFAULT_255_1_234
10
6.9634004
20
52.7521233
11
6.6373119
21
52.7521233
0
LINE
8
DEFAULT_255_1_234
10
6.6373119
20
52.7521233
11
6.6373119
21
52.3826634
0
LINE
8
DEFAULT_255_1_234
10
6.6373119
20
52.3826634
11
6.4879215
21
52.3826634
0
LINE
8
DEFAULT_255_1_234
10
6.4879215
20
52.3826634
11
6.4879215
21
52.7521233
0
LINE
8
DEFAULT_255_1_234
10
6.4879215
20
52.7521233
11
6.161833
21
52.7521233
0
LINE
8
DEFAULT_255_1_234
10
6.161833
20
52.7521233
11
6.161833
21
52.8926788
0
LINE
8
DEFAULT_255_1_234
10
6.161833
20
52.8926788
11
6.4879215
21
52.8926788
0
LINE
8
DEFAULT_255_1_234
10
6.4879215
20
52.8926788
11
6.4879215
21
53.2340276
0
LINE
8
DEFAULT_255_1_234
10
6.4879215
20
53.2340276
11
6.6373119
21
53.2340276
0
LINE
8
DEFAULT_255_1_234
10
4.3193522
20
61.3723211
11
4.6518662
21
60.4077093
0
LINE
8
DEFAULT_255_1_234
10
4.6518662
20
60.4077093
11
4.9859865
21
61.3723211
0
LINE
8
DEFAULT_255_1_234
10
4.9859865
20
61.3723211
11
5.154653
21
61.3723211
0
LINE
8
DEFAULT_255_1_234
10
5.154653
20
61.3723211
11
4.7209391
21
60.2029
0
LINE
8
DEFAULT_255_1_234
10
4.7209391
20
60.2029
11
4.5843996
21
60.2029
0
LINE
8
DEFAULT_255_1_234
10
4.5843996
20
60.2029
11
4.1514889
21
61.3723211
0
LINE
8
DEFAULT_255_1_234
10
4.1514889
20
61.3723211
11
4.3193522
21
61.3723211
0
LINE
8
DEFAULT_255_1_234
10
5.7610492
20
61.3779433
11
5.7610492
21
60.2029
0
LINE
8
DEFAULT_255_1_234
10
5.7610492
20
60.2029
11
5.6116589
21
60.2029
0
LINE
8
DEFAULT_255_1_234
10
5.6116589
20
60.2029
11
5.6116589
21
61.1932133
0
LINE
8
DEFAULT_255_1_234
10
5.6116589
20
61.1932133
11
5.312075
21
61.0831785
0
LINE
8
DEFAULT_255_1_234
10
5.312075
20
61.0831785
11
5.312075
21
61.2181117
0
LINE
8
DEFAULT_255_1_234
10
5.312075
20
61.2181117
11
5.7377572
21
61.3779433
0
LINE
8
DEFAULT_255_1_234
10
5.7377572
20
61.3779433
11
5.7610492
21
61.3779433
0
LINE
8
DEFAULT_255_1_234
10
6.6373119
20
61.1715276
11
6.6373119
21
60.8301788
0
LINE
8
DEFAULT_255_1_234
10
6.6373119
20
60.8301788
11
6.9634004
21
60.8301788
0
LINE
8
DEFAULT_255_1_234
10
6.9634004
20
60.8301788
11
6.9634004
21
60.6896233
0
LINE
8
DEFAULT_255_1_234
10
6.9634004
20
60.6896233
11
6.6373119
21
60.6896233
0
LINE
8
DEFAULT_255_1_234
10
6.6373119
20
60.6896233
11
6.6373119
21
60.3201634
0
LINE
8
DEFAULT_255_1_234
10
6.6373119
20
60.3201634
11
6.4879215
21
60.3201634
0
LINE
8
DEFAULT_255_1_234
10
6.4879215
20
60.3201634
11
6.4879215
21
60.6896233
0
LINE
8
DEFAULT_255_1_234
10
6.4879215
20
60.6896233
11
6.161833
21
60.6896233
0
LINE
8
DEFAULT_255_1_234
10
6.161833
20
60.6896233
11
6.161833
21
60.8301788
0
LINE
8
DEFAULT_255_1_234
10
6.161833
20
60.8301788
11
6.4879215
21
60.8301788
0
LINE
8
DEFAULT_255_1_234
10
6.4879215
20
60.8301788
11
6.4879215
21
61.1715276
0
LINE
8
DEFAULT_255_1_234
10
6.4879215
20
61.1715276
11
6.6373119
21
61.1715276
0
LINE
8
DEFAULT_255_1_234
10
23.1656817
20
68.8319327
11
23.1656817
21
68.6391709
0
LINE
8
DEFAULT_255_1_234
10
22.427565
20
68.6190916
11
22.427565
21
68.8174755
0
LINE
8
DEFAULT_255_1_234
10
23.0170946
20
68.5990123
11
23.0170946
21
68.8423739
0
LINE
8
DEFAULT_255_1_234
10
22.5761521
20
68.8536184
11
22.5761521
21
68.6158789
0
ARC
8
DEFAULT_255_1_234
10
21.9409707
20
68.6342805
40
1.2247208
50
353.8441951
51
0.2287902
0
ARC
8
DEFAULT_255_1_234
10
22.4049211
20
68.5824806
40
0.7578929
50
344.4934747
51
353.9765454
0
ARC
8
DEFAULT_255_1_234
10
22.7041801
20
68.4973981
40
0.4467846
50
329.2803592
51
344.7472793
0
ARC
8
DEFAULT_255_1_234
10
22.8034626
20
68.4429018
40
0.3336173
50
324.9352394
51
328.6160465
0
ARC
8
DEFAULT_255_1_234
10
22.8411734
20
68.4165427
40
0.2876076
50
280.580143
51
324.9173126
0
ARC
8
DEFAULT_255_1_234
10
22.8010527
20
68.5836099
40
0.4592847
50
269.5977311
51
281.6734359
0
ARC
8
DEFAULT_255_1_234
10
22.7938433
20
68.5716173
40
0.4472986
50
256.6228859
51
270.51044
0
ARC
8
DEFAULT_255_1_234
10
22.753641
20
68.4167877
40
0.2873874
50
215.8618325
51
257.2788573
0
ARC
8
DEFAULT_255_1_234
10
22.8557442
20
68.4852977
40
0.4102928
50
197.9693508
51
215.2623606
0
ARC
8
DEFAULT_255_1_234
10
23.1042558
20
68.5691709
40
0.6725652
50
187.8816417
51
198.2346507
0
ARC
8
DEFAULT_255_1_234
10
23.5000766
20
68.6263079
40
1.0724845
50
180.8976217
51
188.0055519
0
ARC
8
DEFAULT_255_1_234
10
23.7800954
20
68.6366777
40
1.3526448
50
180.7449369
51
181.1510016
0
ARC
8
DEFAULT_255_1_234
10
23.6223683
20
68.8223042
40
1.1948131
50
173.7675579
51
180.231553
0
ARC
8
DEFAULT_255_1_234
10
23.170583
20
68.8733666
40
0.7401564
50
164.3058563
51
173.9002247
0
ARC
8
DEFAULT_255_1_234
10
22.8793899
20
68.9572656
40
0.4371288
50
148.7922025
51
164.568378
0
ARC
8
DEFAULT_255_1_234
10
22.7842351
20
69.0103929
40
0.3282386
50
144.5883898
51
148.1176286
0
ARC
8
DEFAULT_255_1_234
10
22.7499249
20
69.0343315
40
0.2864044
50
101.6440918
51
144.514236
0
ARC
8
DEFAULT_255_1_234
10
22.7924315
20
68.8654069
40
0.4604934
50
89.5284041
51
102.5819763
0
ARC
8
DEFAULT_255_1_234
10
22.8003403
20
68.8615018
40
0.464401
50
77.0437873
51
90.5081339
0
ARC
8
DEFAULT_255_1_234
10
22.8405405
20
69.0257615
40
0.2953195
50
48.2778575
51
77.4994676
0
ARC
8
DEFAULT_255_1_234
10
22.8478036
20
69.0386746
40
0.2808655
50
36.3142134
51
47.6305865
0
ARC
8
DEFAULT_255_1_234
10
22.7609343
20
68.9801515
40
0.3855453
50
18.2931786
51
35.6769206
0
ARC
8
DEFAULT_255_1_234
10
22.5066102
20
68.8928593
40
0.654423
50
8.024666
51
18.5605216
0
ARC
8
DEFAULT_255_1_234
10
22.0903022
20
68.8313792
40
1.0752407
50
1.1274072
51
8.1718305
0
ARC
8
DEFAULT_255_1_234
10
21.7667213
20
68.8186885
40
1.3990231
50
0.5424119
51
1.3863029
0
ARC
8
DEFAULT_255_1_234
10
21.948859
20
68.8459342
40
1.0682415
50
359.8090433
51
4.9407866
0
ARC
8
DEFAULT_255_1_234
10
22.3698604
20
68.8835113
40
0.6455691
50
4.8362157
51
12.2904523
0
ARC
8
DEFAULT_255_1_234
10
22.6453719
20
68.9448965
40
0.3633074
50
12.0805627
51
23.8173984
0
ARC
8
DEFAULT_255_1_234
10
22.7627425
20
68.9945919
40
0.2358723
50
24.2871213
51
31.3935614
0
ARC
8
DEFAULT_255_1_234
10
22.8152122
20
69.0289233
40
0.1732111
50
30.7407893
51
82.4657128
0
ARC
8
DEFAULT_255_1_234
10
22.7972256
20
68.9405691
40
0.263235
50
81.1060089
51
90.2184952
0
ARC
8
DEFAULT_255_1_234
10
22.7936555
20
68.9663924
40
0.2374236
50
89.3806855
51
105.6762551
0
ARC
8
DEFAULT_255_1_234
10
22.7753186
20
69.0330567
40
0.1682847
50
105.7981136
51
149.7388061
0
ARC
8
DEFAULT_255_1_234
10
22.8817264
20
68.969095
40
0.2924306
50
149.4208916
51
163.6286378
0
ARC
8
DEFAULT_255_1_234
10
23.0908152
20
68.905325
40
0.5110213
50
163.3763315
51
172.1410975
0
ARC
8
DEFAULT_255_1_234
10
23.4208871
20
68.8580518
40
0.8444586
50
172.0259487
51
178.0703232
0
ARC
8
DEFAULT_255_1_234
10
23.723896
20
68.8436906
40
1.1477868
50
177.8631668
51
179.5044149
0
ARC
8
DEFAULT_255_1_234
10
23.6166365
20
68.6122389
40
1.0404907
50
179.7995573
51
185.2460446
0
ARC
8
DEFAULT_255_1_234
10
23.2123404
20
68.5739513
40
0.6343885
50
185.1411642
51
193.0079639
0
ARC
8
DEFAULT_255_1_234
10
22.9479877
20
68.5114641
40
0.3627568
50
192.7897626
51
205.2507664
0
ARC
8
DEFAULT_255_1_234
10
22.8433424
20
68.4647415
40
0.2481908
50
205.8005384
51
211.2537509
0
ARC
8
DEFAULT_255_1_234
10
22.7909864
20
68.429658
40
0.1852521
50
210.3789793
51
238.4008143
0
ARC
8
DEFAULT_255_1_234
10
22.7890386
20
68.4343376
40
0.1882621
50
239.6520629
51
265.9793761
0
ARC
8
DEFAULT_255_1_234
10
22.7975586
20
68.5015427
40
0.2559272
50
265.1315437
51
270.060332
0
ARC
8
DEFAULT_255_1_234
10
22.8004365
20
68.4691534
40
0.2235528
50
269.3314664
51
287.2178029
0
ARC
8
DEFAULT_255_1_234
10
22.8142217
20
68.4188279
40
0.1714108
50
287.7958004
51
329.080874
0
ARC
8
DEFAULT_255_1_234
10
22.7184674
20
68.478593
40
0.2842745
50
328.6634704
51
343.3325132
0
ARC
8
DEFAULT_255_1_234
10
22.5011694
20
68.5462863
40
0.5118644
50
343.0499468
51
351.9393422
0
ARC
8
DEFAULT_255_1_234
10
22.1544994
20
68.5973949
40
0.8622784
50
351.8069023
51
357.7959224
0
ARC
8
DEFAULT_255_1_234
10
21.830955
20
68.6141721
40
1.1862365
50
357.5871873
51
359.2677531
0
LINE
8
DEFAULT_255_1_234
10
23.4492021
20
69.3098211
11
23.7817161
21
68.3452093
0
LINE
8
DEFAULT_255_1_234
10
23.7817161
20
68.3452093
11
24.1158364
21
69.3098211
0
LINE
8
DEFAULT_255_1_234
10
24.1158364
20
69.3098211
11
24.2845029
21
69.3098211
0
LINE
8
DEFAULT_255_1_234
10
24.2845029
20
69.3098211
11
23.850789
21
68.1404
0
LINE
8
DEFAULT_255_1_234
10
23.850789
20
68.1404
11
23.7142495
21
68.1404
0
LINE
8
DEFAULT_255_1_234
10
23.7142495
20
68.1404
11
23.2813388
21
69.3098211
0
LINE
8
DEFAULT_255_1_234
10
23.2813388
20
69.3098211
11
23.4492021
21
69.3098211
0
LINE
8
DEFAULT_255_1_234
10
21.4706522
20
37.5598211
11
21.8031662
21
36.5952093
0
LINE
8
DEFAULT_255_1_234
10
21.8031662
20
36.5952093
11
22.1372865
21
37.5598211
0
LINE
8
DEFAULT_255_1_234
10
22.1372865
20
37.5598211
11
22.305953
21
37.5598211
0
LINE
8
DEFAULT_255_1_234
10
22.305953
20
37.5598211
11
21.8722391
21
36.3904
0
LINE
8
DEFAULT_255_1_234
10
21.8722391
20
36.3904
11
21.7356996
21
36.3904
0
LINE
8
DEFAULT_255_1_234
10
21.7356996
20
36.3904
11
21.3027889
21
37.5598211
0
LINE
8
DEFAULT_255_1_234
10
21.3027889
20
37.5598211
11
21.4706522
21
37.5598211
0
LINE
8
DEFAULT_255_1_234
10
23.0512983
20
37.5598211
11
23.0512983
21
36.783152
0
LINE
8
DEFAULT_255_1_234
10
23.0512983
20
36.783152
11
23.2135394
21
36.783152
0
LINE
8
DEFAULT_255_1_234
10
23.2135394
20
36.783152
11
23.2135394
21
36.6618728
0
LINE
8
DEFAULT_255_1_234
10
23.2135394
20
36.6618728
11
23.0512983
21
36.6618728
0
LINE
8
DEFAULT_255_1_234
10
23.0512983
20
36.6618728
11
23.0512983
21
36.3904
0
LINE
8
DEFAULT_255_1_234
10
23.0512983
20
36.3904
11
22.901908
21
36.3904
0
LINE
8
DEFAULT_255_1_234
10
22.901908
20
36.3904
11
22.901908
21
36.6618728
0
LINE
8
DEFAULT_255_1_234
10
22.901908
20
36.6618728
11
22.3694037
21
36.6618728
0
LINE
8
DEFAULT_255_1_234
10
22.3694037
20
36.6618728
11
22.3694037
21
36.7494187
0
LINE
8
DEFAULT_255_1_234
10
22.3694037
20
36.7494187
11
22.893073
21
37.5598211
0
LINE
8
DEFAULT_255_1_234
10
22.893073
20
37.5598211
11
23.0512983
21
37.5598211
0
LINE
8
DEFAULT_255_1_234
10
22.8842381
20
37.3244912
11
22.5380702
21
36.783152
0
LINE
8
DEFAULT_255_1_234
10
22.5380702
20
36.783152
11
22.901908
21
36.783152
0
LINE
8
DEFAULT_255_1_234
10
22.901908
20
36.783152
11
22.901908
21
37.3566181
0
LINE
8
DEFAULT_255_1_234
10
22.901908
20
37.3566181
11
22.8842381
21
37.3244912
0
LINE
8
DEFAULT_255_1_234
10
23.7886119
20
37.3590276
11
23.7886119
21
37.0176788
0
LINE
8
DEFAULT_255_1_234
10
23.7886119
20
37.0176788
11
24.1147004
21
37.0176788
0
LINE
8
DEFAULT_255_1_234
10
24.1147004
20
37.0176788
11
24.1147004
21
36.8771233
0
LINE
8
DEFAULT_255_1_234
10
24.1147004
20
36.8771233
11
23.7886119
21
36.8771233
0
LINE
8
DEFAULT_255_1_234
10
23.7886119
20
36.8771233
11
23.7886119
21
36.5076634
0
LINE
8
DEFAULT_255_1_234
10
23.7886119
20
36.5076634
11
23.6392215
21
36.5076634
0
LINE
8
DEFAULT_255_1_234
10
23.6392215
20
36.5076634
11
23.6392215
21
36.8771233
0
LINE
8
DEFAULT_255_1_234
10
23.6392215
20
36.8771233
11
23.313133
21
36.8771233
0
LINE
8
DEFAULT_255_1_234
10
23.313133
20
36.8771233
11
23.313133
21
37.0176788
0
LINE
8
DEFAULT_255_1_234
10
23.313133
20
37.0176788
11
23.6392215
21
37.0176788
0
LINE
8
DEFAULT_255_1_234
10
23.6392215
20
37.0176788
11
23.6392215
21
37.3590276
0
LINE
8
DEFAULT_255_1_234
10
23.6392215
20
37.3590276
11
23.7886119
21
37.3590276
0
LINE
8
DEFAULT_255_1_234
10
21.4706522
20
45.4973211
11
21.8031662
21
44.5327093
0
LINE
8
DEFAULT_255_1_234
10
21.8031662
20
44.5327093
11
22.1372865
21
45.4973211
0
LINE
8
DEFAULT_255_1_234
10
22.1372865
20
45.4973211
11
22.305953
21
45.4973211
0
LINE
8
DEFAULT_255_1_234
10
22.305953
20
45.4973211
11
21.8722391
21
44.3279
0
LINE
8
DEFAULT_255_1_234
10
21.8722391
20
44.3279
11
21.7356996
21
44.3279
0
LINE
8
DEFAULT_255_1_234
10
21.7356996
20
44.3279
11
21.3027889
21
45.4973211
0
LINE
8
DEFAULT_255_1_234
10
21.3027889
20
45.4973211
11
21.4706522
21
45.4973211
0
LINE
8
DEFAULT_255_1_234
10
22.6400733
20
44.8636169
11
22.6400733
21
44.9848962
0
LINE
8
DEFAULT_255_1_234
10
22.6400733
20
44.9848962
11
22.7517145
21
44.9848962
0
LINE
8
DEFAULT_255_1_234
10
22.5613623
20
45.1905087
11
22.4127751
21
45.1905087
0
LINE
8
DEFAULT_255_1_234
10
22.4023338
20
44.6363188
11
22.5517242
21
44.6363188
0
LINE
8
DEFAULT_255_1_234
10
22.7517145
20
44.8636169
11
22.6400733
21
44.8636169
0
ARC
8
DEFAULT_255_1_234
10
22.7488011
20
45.3241713
40
0.3392876
50
270.4919872
51
281.8951556
0
ARC
8
DEFAULT_255_1_234
10
22.7729273
20
45.2139702
40
0.2264817
50
281.6691735
51
301.2943132
0
ARC
8
DEFAULT_255_1_234
10
22.7899483
20
45.1828304
40
0.1910381
50
301.7833094
51
311.7545298
0
ARC
8
DEFAULT_255_1_234
10
22.7991059
20
45.1726748
40
0.1773635
50
311.7323931
51
354.2802411
0
ARC
8
DEFAULT_255_1_234
10
22.7264684
20
45.1851722
40
0.2509385
50
353.0937916
51
0.1181479
0
ARC
8
DEFAULT_255_1_234
10
22.6803469
20
45.1899386
40
0.2970898
50
359.1805295
51
15.0453146
0
ARC
8
DEFAULT_255_1_234
10
22.8149306
20
45.2291992
40
0.1569564
50
13.9577229
51
77.6713066
0
ARC
8
DEFAULT_255_1_234
10
22.7762835
20
45.0906949
40
0.3006298
50
76.1116566
51
90.7026153
0
ARC
8
DEFAULT_255_1_234
10
22.7703673
20
45.1180545
40
0.2732568
50
89.5324876
51
103.531937
0
ARC
8
DEFAULT_255_1_234
10
22.7503117
20
45.1979884
40
0.1908508
50
103.2931773
51
133.5619022
0
ARC
8
DEFAULT_255_1_234
10
22.7458606
20
45.2039375
40
0.1834746
50
133.8349307
51
173.5344437
0
ARC
8
DEFAULT_255_1_234
10
22.8181649
20
45.1911213
40
0.2568033
50
172.5096846
51
180.1366907
0
ARC
8
DEFAULT_255_1_234
10
22.7230543
20
45.1945622
40
0.3103056
50
155.3484492
51
180.7484736
0
ARC
8
DEFAULT_255_1_234
10
22.7181632
20
45.1916846
40
0.3070957
50
131.5744599
51
154.4798489
0
ARC
8
DEFAULT_255_1_234
10
22.7494779
20
45.160031
40
0.3515643
50
96.9875458
51
131.9690667
0
ARC
8
DEFAULT_255_1_234
10
22.7714259
20
45.0354636
40
0.4779224
50
89.8596053
51
97.7825159
0
ARC
8
DEFAULT_255_1_234
10
22.7762322
20
45.0092616
40
0.5041361
50
78.3655447
51
90.4131539
0
ARC
8
DEFAULT_255_1_234
10
22.812024
20
45.1751887
40
0.3344039
50
56.6229102
51
78.638727
0
ARC
8
DEFAULT_255_1_234
10
22.8335184
20
45.2127805
40
0.2912001
50
47.0253525
51
56.0854072
0
ARC
8
DEFAULT_255_1_234
10
22.8354964
20
45.2167223
40
0.2869704
50
10.9208013
51
46.7778124
0
ARC
8
DEFAULT_255_1_234
10
22.699103
20
45.1851857
40
0.426899
50
359.6364486
51
11.6087304
0
ARC
8
DEFAULT_255_1_234
10
22.8825874
20
45.1836752
40
0.243409
50
332.3549906
51
359.7179418
0
ARC
8
DEFAULT_255_1_234
10
22.8175476
20
45.2145142
40
0.3153459
50
325.2333722
51
332.8745602
0
ARC
8
DEFAULT_255_1_234
10
22.8328099
20
45.2038828
40
0.2967456
50
292.9802137
51
325.2392345
0
ARC
8
DEFAULT_255_1_234
10
22.8053473
20
45.2572863
40
0.3566604
50
292.5402179
51
293.6924929
0
ARC
8
DEFAULT_255_1_234
10
22.8446069
20
44.6118091
40
0.3307468
50
57.6435486
51
72.8625112
0
ARC
8
DEFAULT_255_1_234
10
22.8800569
20
44.6692549
40
0.2632492
50
36.7248896
51
57.4697979
0
ARC
8
DEFAULT_255_1_234
10
22.8789202
20
44.670522
40
0.2634081
50
8.0545065
51
36.356114
0
ARC
8
DEFAULT_255_1_234
10
22.7926387
20
44.6550174
40
0.3510261
50
359.8320645
51
8.5869982
0
ARC
8
DEFAULT_255_1_234
10
22.7551163
20
44.6502101
40
0.3885653
50
343.9829931
51
0.5571613
0
ARC
8
DEFAULT_255_1_234
10
22.843736
20
44.6259438
40
0.2966924
50
311.6359546
51
343.7651759
0
ARC
8
DEFAULT_255_1_234
10
22.8058929
20
44.6686102
40
0.3537231
50
279.7829875
51
311.6255694
0
ARC
8
DEFAULT_255_1_234
10
22.7757705
20
44.812328
40
0.5004971
50
269.7286406
51
280.3856417
0
ARC
8
DEFAULT_255_1_234
10
22.7695778
20
44.8081996
40
0.4963778
50
256.6828919
51
270.4412052
0
ARC
8
DEFAULT_255_1_234
10
22.7357074
20
44.6697394
40
0.3538406
50
229.4223008
51
256.8556159
0
ARC
8
DEFAULT_255_1_234
10
22.6942467
20
44.6230736
40
0.2914296
50
181.818294
51
229.6455059
0
ARC
8
DEFAULT_255_1_234
10
22.7982423
20
44.6361496
40
0.3959084
50
179.9755256
51
183.2323064
0
ARC
8
DEFAULT_255_1_234
10
22.7810169
20
44.6341037
40
0.2293034
50
179.4465117
51
196.2869258
0
ARC
8
DEFAULT_255_1_234
10
22.7322577
20
44.6207651
40
0.1787621
50
196.5661473
51
227.705904
0
ARC
8
DEFAULT_255_1_234
10
22.7486672
20
44.6391155
40
0.2033784
50
227.7652068
51
257.8762805
0
ARC
8
DEFAULT_255_1_234
10
22.7711642
20
44.7334156
40
0.3003081
50
257.4584385
51
270.426602
0
ARC
8
DEFAULT_255_1_234
10
22.7757208
20
44.7623996
40
0.329292
50
269.5962073
51
280.8789248
0
ARC
8
DEFAULT_255_1_234
10
22.7986737
20
44.6477685
40
0.2123908
50
280.6346389
51
299.8595945
0
ARC
8
DEFAULT_255_1_234
10
22.8177644
20
44.6115212
40
0.171457
50
300.3576302
51
314.5517981
0
ARC
8
DEFAULT_255_1_234
10
22.8094704
20
44.6175919
40
0.1816095
50
315.0728369
51
345.0431014
0
ARC
8
DEFAULT_255_1_234
10
22.7171518
20
44.6444841
40
0.2777492
50
344.5986631
51
357.9269593
0
ARC
8
DEFAULT_255_1_234
10
22.6275844
20
44.6506276
40
0.3674917
50
357.4748886
51
0.0231117
0
ARC
8
DEFAULT_255_1_234
10
22.7298954
20
44.6530679
40
0.2651907
50
359.5047933
51
13.4239635
0
ARC
8
DEFAULT_255_1_234
10
22.8165597
20
44.6752478
40
0.1757509
50
12.9498199
51
48.7551375
0
ARC
8
DEFAULT_255_1_234
10
22.7983331
20
44.65034
40
0.2065134
50
49.5088623
51
72.1836453
0
ARC
8
DEFAULT_255_1_234
10
22.7625484
20
44.5441291
40
0.3185836
50
71.9010081
51
84.3554254
0
ARC
8
DEFAULT_255_1_234
10
22.7464116
20
44.4080326
40
0.4556151
50
84.0193428
51
89.333121
0
LINE
8
DEFAULT_255_1_234
10
23.7886119
20
45.2965276
11
23.7886119
21
44.9551788
0
LINE
8
DEFAULT_255_1_234
10
23.7886119
20
44.9551788
11
24.1147004
21
44.9551788
0
LINE
8
DEFAULT_255_1_234
10
24.1147004
20
44.9551788
11
24.1147004
21
44.8146233
0
LINE
8
DEFAULT_255_1_234
10
24.1147004
20
44.8146233
11
23.7886119
21
44.8146233
0
LINE
8
DEFAULT_255_1_234
10
23.7886119
20
44.8146233
11
23.7886119
21
44.4451634
0
LINE
8
DEFAULT_255_1_234
10
23.7886119
20
44.4451634
11
23.6392215
21
44.4451634
0
LINE
8
DEFAULT_255_1_234
10
23.6392215
20
44.4451634
11
23.6392215
21
44.8146233
0
LINE
8
DEFAULT_255_1_234
10
23.6392215
20
44.8146233
11
23.313133
21
44.8146233
0
LINE
8
DEFAULT_255_1_234
10
23.313133
20
44.8146233
11
23.313133
21
44.9551788
0
LINE
8
DEFAULT_255_1_234
10
23.313133
20
44.9551788
11
23.6392215
21
44.9551788
0
LINE
8
DEFAULT_255_1_234
10
23.6392215
20
44.9551788
11
23.6392215
21
45.2965276
0
LINE
8
DEFAULT_255_1_234
10
23.6392215
20
45.2965276
11
23.7886119
21
45.2965276
0
LINE
8
DEFAULT_255_1_234
10
21.4706522
20
53.4348211
11
21.8031662
21
52.4702093
0
LINE
8
DEFAULT_255_1_234
10
21.8031662
20
52.4702093
11
22.1372865
21
53.4348211
0
LINE
8
DEFAULT_255_1_234
10
22.1372865
20
53.4348211
11
22.305953
21
53.4348211
0
LINE
8
DEFAULT_255_1_234
10
22.305953
20
53.4348211
11
21.8722391
21
52.2654
0
LINE
8
DEFAULT_255_1_234
10
21.8722391
20
52.2654
11
21.7356996
21
52.2654
0
LINE
8
DEFAULT_255_1_234
10
21.7356996
20
52.2654
11
21.3027889
21
53.4348211
0
LINE
8
DEFAULT_255_1_234
10
21.3027889
20
53.4348211
11
21.4706522
21
53.4348211
0
LINE
8
DEFAULT_255_1_234
10
23.1902474
20
52.3866792
11
23.1902474
21
52.2654
0
LINE
8
DEFAULT_255_1_234
10
23.1902474
20
52.2654
11
22.4240195
21
52.2654
0
LINE
8
DEFAULT_255_1_234
10
22.4240195
20
52.2654
11
22.4240195
21
52.3722221
0
LINE
8
DEFAULT_255_1_234
10
22.4240195
20
52.3722221
11
22.8288191
21
52.8219995
0
LINE
8
DEFAULT_255_1_234
10
22.5501178
20
53.0902595
11
22.4015307
21
53.0902595
0
LINE
8
DEFAULT_255_1_234
10
22.9163651
20
52.7264218
11
22.6031273
21
52.3866792
0
LINE
8
DEFAULT_255_1_234
10
22.6031273
20
52.3866792
11
23.1902474
21
52.3866792
0
ARC
8
DEFAULT_255_1_234
10
21.4798025
20
54.0149527
40
1.8008286
50
318.5132453
51
320.7828378
0
ARC
8
DEFAULT_255_1_234
10
22.0084999
20
53.5846426
40
1.1191493
50
320.7372736
51
323.9737074
0
ARC
8
DEFAULT_255_1_234
10
22.4004855
20
53.3006361
40
0.6350923
50
323.8961724
51
328.6421089
0
ARC
8
DEFAULT_255_1_234
10
22.6051451
20
53.1744031
40
0.3946393
50
328.8299013
51
331.789948
0
ARC
8
DEFAULT_255_1_234
10
22.7048629
20
53.1229509
40
0.2824501
50
331.4255242
51
352.9364833
0
ARC
8
DEFAULT_255_1_234
10
22.718513
20
53.1198976
40
0.2685315
50
353.2248685
51
0.0169286
0
ARC
8
DEFAULT_255_1_234
10
22.7395007
20
53.122195
40
0.2475536
50
359.4866256
51
15.9339782
0
ARC
8
DEFAULT_255_1_234
10
22.7901992
20
53.1358286
40
0.1950618
50
16.1714718
51
43.5284424
0
ARC
8
DEFAULT_255_1_234
10
22.7979301
20
53.1435573
40
0.184134
50
43.4415429
51
83.1661404
0
ARC
8
DEFAULT_255_1_234
10
22.7845219
20
53.0698771
40
0.258926
50
82.160215
51
90.1505798
0
ARC
8
DEFAULT_255_1_234
10
22.7813646
20
53.0161865
40
0.3126255
50
89.5460705
51
102.5418777
0
ARC
8
DEFAULT_255_1_234
10
22.7570732
20
53.1192665
40
0.2067346
50
102.1739365
51
129.2061916
0
ARC
8
DEFAULT_255_1_234
10
22.7491804
20
53.1317094
40
0.1921118
50
129.7279328
51
135.7542026
0
ARC
8
DEFAULT_255_1_234
10
22.7613332
20
53.1220045
40
0.2075944
50
136.175737
51
166.3674722
0
ARC
8
DEFAULT_255_1_234
10
22.8620251
20
53.0950182
40
0.3118201
50
165.9092917
51
178.8683903
0
ARC
8
DEFAULT_255_1_234
10
22.9485112
20
53.0903179
40
0.3983935
50
178.438168
51
180.0083905
0
ARC
8
DEFAULT_255_1_234
10
22.8083714
20
53.0942231
40
0.4068601
50
163.2878735
51
180.5581814
0
ARC
8
DEFAULT_255_1_234
10
22.7281976
20
53.116284
40
0.3237344
50
133.454115
51
162.9470031
0
ARC
8
DEFAULT_255_1_234
10
22.7460517
20
53.0973
40
0.349795
50
100.7869394
51
133.4384016
0
ARC
8
DEFAULT_255_1_234
10
22.7808289
20
52.9424319
40
0.5084616
50
89.6605301
51
101.3704185
0
ARC
8
DEFAULT_255_1_234
10
22.7874627
20
52.9485496
40
0.502348
50
78.2171172
51
90.4130393
0
ARC
8
DEFAULT_255_1_234
10
22.8229706
20
53.1109637
40
0.3361092
50
55.9268222
51
78.4888551
0
ARC
8
DEFAULT_255_1_234
10
22.8426146
20
53.1448324
40
0.2970617
50
47.9292255
51
55.4054003
0
ARC
8
DEFAULT_255_1_234
10
22.8527707
20
53.1551502
40
0.2825983
50
4.3347696
51
48.0560701
0
ARC
8
DEFAULT_255_1_234
10
22.74321
20
53.1381601
40
0.393225
50
359.925209
51
5.5967654
0
ARC
8
DEFAULT_255_1_234
10
22.7860992
20
53.1437816
40
0.3503892
50
337.8914096
51
358.9967724
0
ARC
8
DEFAULT_255_1_234
10
22.5147404
20
53.2484706
40
0.6412172
50
326.9135351
51
338.3505194
0
ARC
8
DEFAULT_255_1_234
10
22.1161708
20
53.5039284
40
1.1146189
50
319.6472867
51
327.095818
0
ARC
8
DEFAULT_255_1_234
10
21.7328711
20
53.8201
40
1.6114559
50
317.2586784
51
319.9046139
0
LINE
8
DEFAULT_255_1_234
10
23.7886119
20
53.2340276
11
23.7886119
21
52.8926788
0
LINE
8
DEFAULT_255_1_234
10
23.7886119
20
52.8926788
11
24.1147004
21
52.8926788
0
LINE
8
DEFAULT_255_1_234
10
24.1147004
20
52.8926788
11
24.1147004
21
52.7521233
0
LINE
8
DEFAULT_255_1_234
10
24.1147004
20
52.7521233
11
23.7886119
21
52.7521233
0
LINE
8
DEFAULT_255_1_234
10
23.7886119
20
52.7521233
11
23.7886119
21
52.3826634
0
LINE
8
DEFAULT_255_1_234
10
23.7886119
20
52.3826634
11
23.6392215
21
52.3826634
0
LINE
8
DEFAULT_255_1_234
10
23.6392215
20
52.3826634
11
23.6392215
21
52.7521233
0
LINE
8
DEFAULT_255_1_234
10
23.6392215
20
52.7521233
11
23.313133
21
52.7521233
0
LINE
8
DEFAULT_255_1_234
10
23.313133
20
52.7521233
11
23.313133
21
52.8926788
0
LINE
8
DEFAULT_255_1_234
10
23.313133
20
52.8926788
11
23.6392215
21
52.8926788
0
LINE
8
DEFAULT_255_1_234
10
23.6392215
20
52.8926788
11
23.6392215
21
53.2340276
0
LINE
8
DEFAULT_255_1_234
10
23.6392215
20
53.2340276
11
23.7886119
21
53.2340276
0
LINE
8
DEFAULT_255_1_234
10
21.4706522
20
61.3723211
11
21.8031662
21
60.4077093
0
LINE
8
DEFAULT_255_1_234
10
21.8031662
20
60.4077093
11
22.1372865
21
61.3723211
0
LINE
8
DEFAULT_255_1_234
10
22.1372865
20
61.3723211
11
22.305953
21
61.3723211
0
LINE
8
DEFAULT_255_1_234
10
22.305953
20
61.3723211
11
21.8722391
21
60.2029
0
LINE
8
DEFAULT_255_1_234
10
21.8722391
20
60.2029
11
21.7356996
21
60.2029
0
LINE
8
DEFAULT_255_1_234
10
21.7356996
20
60.2029
11
21.3027889
21
61.3723211
0
LINE
8
DEFAULT_255_1_234
10
21.3027889
20
61.3723211
11
21.4706522
21
61.3723211
0
LINE
8
DEFAULT_255_1_234
10
22.9123492
20
61.3779433
11
22.9123492
21
60.2029
0
LINE
8
DEFAULT_255_1_234
10
22.9123492
20
60.2029
11
22.7629589
21
60.2029
0
LINE
8
DEFAULT_255_1_234
10
22.7629589
20
60.2029
11
22.7629589
21
61.1932133
0
LINE
8
DEFAULT_255_1_234
10
22.7629589
20
61.1932133
11
22.463375
21
61.0831785
0
LINE
8
DEFAULT_255_1_234
10
22.463375
20
61.0831785
11
22.463375
21
61.2181117
0
LINE
8
DEFAULT_255_1_234
10
22.463375
20
61.2181117
11
22.8890572
21
61.3779433
0
LINE
8
DEFAULT_255_1_234
10
22.8890572
20
61.3779433
11
22.9123492
21
61.3779433
0
LINE
8
DEFAULT_255_1_234
10
23.7886119
20
61.1715276
11
23.7886119
21
60.8301788
0
LINE
8
DEFAULT_255_1_234
10
23.7886119
20
60.8301788
11
24.1147004
21
60.8301788
0
LINE
8
DEFAULT_255_1_234
10
24.1147004
20
60.8301788
11
24.1147004
21
60.6896233
0
LINE
8
DEFAULT_255_1_234
10
24.1147004
20
60.6896233
11
23.7886119
21
60.6896233
0
LINE
8
DEFAULT_255_1_234
10
23.7886119
20
60.6896233
11
23.7886119
21
60.3201634
0
LINE
8
DEFAULT_255_1_234
10
23.7886119
20
60.3201634
11
23.6392215
21
60.3201634
0
LINE
8
DEFAULT_255_1_234
10
23.6392215
20
60.3201634
11
23.6392215
21
60.6896233
0
LINE
8
DEFAULT_255_1_234
10
23.6392215
20
60.6896233
11
23.313133
21
60.6896233
0
LINE
8
DEFAULT_255_1_234
10
23.313133
20
60.6896233
11
23.313133
21
60.8301788
0
LINE
8
DEFAULT_255_1_234
10
23.313133
20
60.8301788
11
23.6392215
21
60.8301788
0
LINE
8
DEFAULT_255_1_234
10
23.6392215
20
60.8301788
11
23.6392215
21
61.1715276
0
LINE
8
DEFAULT_255_1_234
10
23.6392215
20
61.1715276
11
23.7886119
21
61.1715276
0
ENDSEC
0
EOF