0
SECTION
2
HEADER
9
$MEASUREMENT
70
1
0
ENDSEC
0
SECTION
2
TABLES
0
TABLE
2
LTYPE
0
LTYPE
72
65
70
64
2
CONTINUOUS
3
______
73
0
40
0
0
ENDTAB
0
TABLE
2
LAYER
0
LAYER
2
DEFAULT_255_2_778
70
0
62
255
6
CONTINUOUS
0
LAYER
2
DEFAULT_255_1_388
70
0
62
255
6
CONTINUOUS
0
LAYER
2
DEFAULT_255_2_778_1
70
0
62
255
6
CONTINUOUS
0
ENDTAB
0
ENDSEC
0
SECTION
2
ENTITIES
0
ARC
8
DEFAULT_255_2_778
10
3.5700693
20
139.3052021
40
0.7914215
50
129.1312896
51
180.1450914
0
ARC
8
DEFAULT_255_2_778
10
3.5703345
20
139.3056893
40
0.7912112
50
89.854026
51
129.1684493
0
ARC
8
DEFAULT_255_2_778
10
25.7993937
20
139.3053758
40
0.7915249
50
39.4792447
51
90.147911
0
ARC
8
DEFAULT_255_2_778
10
25.7999935
20
139.3052224
40
0.7911595
50
359.8533901
51
39.5154338
0
ARC
8
DEFAULT_255_2_778
10
25.7996693
20
-1.9863501
40
0.7914836
50
309.4761667
51
0.1482649
0
ARC
8
DEFAULT_255_2_778
10
25.799398
20
-1.9867812
40
0.7913235
50
269.8517415
51
309.511178
0
ARC
8
DEFAULT_255_2_778
10
3.570342
20
-1.986723
40
0.7913815
50
219.1282118
51
270.1454017
0
ARC
8
DEFAULT_255_2_778
10
3.5700247
20
-1.9863406
40
0.7913769
50
179.8524075
51
219.1641908
0
LINE
8
DEFAULT_255_2_778
10
3.5723503
20
140.096898
11
25.7973503
21
140.096898
0
LINE
8
DEFAULT_255_2_778
10
26.5911503
20
139.303198
11
26.5911503
21
-1.984302
0
LINE
8
DEFAULT_255_2_778
10
25.7973503
20
-2.778102
11
3.5723503
21
-2.778102
0
LINE
8
DEFAULT_255_2_778
10
2.7786503
20
-1.984302
11
2.7786503
21
139.303198
0
LINE
8
DEFAULT_255_1_388
10
10.3787094
20
-0.1247683
11
10.0687868
21
-0.1247683
0
LINE
8
DEFAULT_255_1_388
10
10.0687868
20
-0.1247683
11
10.0687868
21
-0.6398
0
LINE
8
DEFAULT_255_1_388
10
10.0687868
20
-0.6398
11
9.8953024
21
-0.6398
0
LINE
8
DEFAULT_255_1_388
10
9.8953024
20
-0.6398
11
9.8953024
21
0.6757898
0
LINE
8
DEFAULT_255_1_388
10
9.8953024
20
0.6757898
11
10.3805165
21
0.6757898
0
LINE
8
DEFAULT_255_1_388
10
10.0687868
20
0.5330267
11
10.0687868
21
0.0170914
0
LINE
8
DEFAULT_255_1_388
10
10.0687868
20
0.0170914
11
10.3805165
21
0.0170914
0
LINE
8
DEFAULT_255_1_388
10
10.3904557
20
0.5330267
11
10.0687868
21
0.5330267
0
ARC
8
DEFAULT_255_1_388
10
10.3852538
20
-0.0058666
40
0.6816729
50
78.8380084
51
90.398184
0
ARC
8
DEFAULT_255_1_388
10
10.4320569
20
0.2214796
40
0.449571
50
58.9633273
51
79.0810717
0
ARC
8
DEFAULT_255_1_388
10
10.4659953
20
0.2844823
40
0.3781049
50
48.0194715
51
58.4475592
0
ARC
8
DEFAULT_255_1_388
10
10.4759773
20
0.2940818
40
0.3642936
50
3.3374546
51
48.1766642
0
ARC
8
DEFAULT_255_1_388
10
10.337458
20
0.2741581
40
0.5038766
50
359.9483251
51
4.6822857
0
ARC
8
DEFAULT_255_1_388
10
10.3514503
20
0.2693779
40
0.4899031
50
346.1879032
51
0.5059221
0
ARC
8
DEFAULT_255_1_388
10
10.5043295
20
0.2296763
40
0.3319729
50
310.8832219
51
346.5426612
0
ARC
8
DEFAULT_255_1_388
10
10.4696143
20
0.2765853
40
0.3901853
50
286.6925305
51
310.228778
0
ARC
8
DEFAULT_255_1_388
10
10.4055873
20
0.4779585
40
0.6014737
50
274.6848219
51
287.0247342
0
ARC
8
DEFAULT_255_1_388
10
10.3802422
20
0.7264088
40
0.8511785
50
269.8968222
51
275.0192639
0
ARC
8
DEFAULT_255_1_388
10
10.3833415
20
0.4926144
40
0.4755314
50
269.6596206
51
279.4150542
0
ARC
8
DEFAULT_255_1_388
10
10.4122873
20
0.3248945
40
0.3053379
50
279.2050006
51
294.9901776
0
ARC
8
DEFAULT_255_1_388
10
10.4449508
20
0.2520353
40
0.2255036
50
295.2886769
51
311.2912669
0
ARC
8
DEFAULT_255_1_388
10
10.4529249
20
0.2401938
40
0.2113522
50
311.7853512
51
347.2860549
0
ARC
8
DEFAULT_255_1_388
10
10.342241
20
0.268643
40
0.3256011
50
346.6891629
51
0.1057086
0
ARC
8
DEFAULT_255_1_388
10
10.249987
20
0.2719247
40
0.417863
50
359.63239
51
359.9961329
0
ARC
8
DEFAULT_255_1_388
10
10.3664475
20
0.2746987
40
0.3014155
50
359.4673371
51
15.5931159
0
ARC
8
DEFAULT_255_1_388
10
10.4367538
20
0.2936937
40
0.2285918
50
15.7441779
51
46.620186
0
ARC
8
DEFAULT_255_1_388
10
10.4201298
20
0.2745361
40
0.2539359
50
46.8628482
51
75.6676625
0
ARC
8
DEFAULT_255_1_388
10
10.3870354
20
0.1554243
40
0.3775415
50
75.2763152
51
88.2916439
0
ARC
8
DEFAULT_255_1_388
10
10.3804354
20
0.0552097
40
0.4779221
50
87.8589087
51
88.7986197
0
LINE
8
DEFAULT_255_1_388
10
11.8813371
20
-0.5033618
11
11.8813371
21
-0.6398
0
LINE
8
DEFAULT_255_1_388
10
11.8813371
20
-0.6398
11
11.0193366
21
-0.6398
0
LINE
8
DEFAULT_255_1_388
10
11.0193366
20
-0.6398
11
11.0193366
21
-0.5196259
0
LINE
8
DEFAULT_255_1_388
10
11.0193366
20
-0.5196259
11
11.4747331
21
-0.0136298
0
LINE
8
DEFAULT_255_1_388
10
11.1611962
20
0.2881607
11
10.9940368
21
0.2881607
0
LINE
8
DEFAULT_255_1_388
10
11.5732216
20
-0.121154
11
11.2208314
21
-0.5033618
0
LINE
8
DEFAULT_255_1_388
10
11.2208314
20
-0.5033618
11
11.8813371
21
-0.5033618
0
ARC
8
DEFAULT_255_1_388
10
9.957139
20
1.3283983
40
2.0258655
50
318.5132526
51
320.7829045
0
ARC
8
DEFAULT_255_1_388
10
10.5519347
20
0.8442929
40
1.2589638
50
320.7372878
51
323.9739031
0
ARC
8
DEFAULT_255_1_388
10
10.9928279
20
0.5248554
40
0.7145141
50
323.8962701
51
328.64194
0
ARC
8
DEFAULT_255_1_388
10
11.2230536
20
0.3828545
40
0.4440242
50
328.8294576
51
331.7891185
0
ARC
8
DEFAULT_255_1_388
10
11.3352856
20
0.3249374
40
0.3177517
50
331.4254512
51
352.9365785
0
ARC
8
DEFAULT_255_1_388
10
11.3505856
20
0.321505
40
0.3021496
50
353.2257659
51
0.0166158
0
ARC
8
DEFAULT_255_1_388
10
11.3742617
20
0.3240894
40
0.2784847
50
359.486299
51
15.9343185
0
ARC
8
DEFAULT_255_1_388
10
11.4312884
20
0.3394269
40
0.2194403
50
16.1712913
51
43.5286088
0
ARC
8
DEFAULT_255_1_388
10
11.4399828
20
0.3481191
40
0.2071504
50
43.4417391
51
83.1661095
0
ARC
8
DEFAULT_255_1_388
10
11.4248989
20
0.2652316
40
0.2912888
50
82.160179
51
90.1505708
0
ARC
8
DEFAULT_255_1_388
10
11.4213471
20
0.2048279
40
0.3517025
50
89.5460741
51
102.5418361
0
ARC
8
DEFAULT_255_1_388
10
11.3940191
20
0.3207933
40
0.2325748
50
102.1738499
51
129.206123
0
ARC
8
DEFAULT_255_1_388
10
11.3851644
20
0.3347664
40
0.2161591
50
129.72865
51
135.753947
0
ARC
8
DEFAULT_255_1_388
10
11.3988127
20
0.3238728
40
0.2335433
50
136.1757367
51
166.3673339
0
ARC
8
DEFAULT_255_1_388
10
11.5120815
20
0.2935148
40
0.3507873
50
165.9090694
51
178.8684636
0
ARC
8
DEFAULT_255_1_388
10
11.6096586
20
0.2882263
40
0.4484624
50
178.4391136
51
180.0083808
0
ARC
8
DEFAULT_255_1_388
10
11.4517288
20
0.2926197
40
0.4577138
50
163.2878482
51
180.5581842
0
ARC
8
DEFAULT_255_1_388
10
11.3615329
20
0.3174393
40
0.3641968
50
133.4540601
51
162.947111
0
ARC
8
DEFAULT_255_1_388
10
11.3816211
20
0.2960789
40
0.3935189
50
100.7869829
51
133.4382499
0
ARC
8
DEFAULT_255_1_388
10
11.4207456
20
0.1218399
40
0.5720313
50
89.660664
51
101.3702276
0
ARC
8
DEFAULT_255_1_388
10
11.4282065
20
0.1287263
40
0.5651495
50
78.2172678
51
90.412935
0
ARC
8
DEFAULT_255_1_388
10
11.4681531
20
0.3114511
40
0.378122
50
55.9269121
51
78.4888449
0
ARC
8
DEFAULT_255_1_388
10
11.4902246
20
0.3495187
40
0.3342379
50
47.929771
51
55.4049217
0
ARC
8
DEFAULT_255_1_388
10
11.5016776
20
0.3611618
40
0.3179217
50
4.334829
51
48.0560205
0
ARC
8
DEFAULT_255_1_388
10
11.3784578
20
0.3420487
40
0.442341
50
359.9251713
51
5.5971671
0
ARC
8
DEFAULT_255_1_388
10
11.4266732
20
0.3483728
40
0.3941854
50
337.8914027
51
358.9967534
0
ARC
8
DEFAULT_255_1_388
10
11.1214303
20
0.4661295
40
0.7213271
50
326.9132501
51
338.3508308
0
ARC
8
DEFAULT_255_1_388
10
10.6730414
20
0.7535105
40
1.2538973
50
319.6471833
51
327.0959558
0
ARC
8
DEFAULT_255_1_388
10
10.2417073
20
1.109305
40
1.8129975
50
317.2588228
51
319.9045804
0
LINE
8
DEFAULT_255_1_388
10
12.4234757
20
-0.0127263
11
12.4234757
21
-0.1491645
0
LINE
8
DEFAULT_255_1_388
10
12.4234757
20
-0.1491645
11
11.9825363
21
-0.1491645
0
LINE
8
DEFAULT_255_1_388
10
11.9825363
20
-0.1491645
11
11.9825363
21
-0.0127263
0
LINE
8
DEFAULT_255_1_388
10
11.9825363
20
-0.0127263
11
12.4234757
21
-0.0127263
0
LINE
8
DEFAULT_255_1_388
10
13.393904
20
0.138169
11
13.393904
21
-0.0786865
0
LINE
8
DEFAULT_255_1_388
10
12.5635282
20
-0.1012756
11
12.5635282
21
0.1219048
0
LINE
8
DEFAULT_255_1_388
10
13.2267445
20
-0.1238647
11
13.2267445
21
0.1499153
0
LINE
8
DEFAULT_255_1_388
10
12.7306876
20
0.1625652
11
12.7306876
21
-0.1048898
0
ARC
8
DEFAULT_255_1_388
10
12.0161374
20
-0.0841882
40
1.3777776
50
353.8440855
51
0.2287917
0
ARC
8
DEFAULT_255_1_388
10
12.5380391
20
-0.1424586
40
0.852639
50
344.4934746
51
353.9763743
0
ARC
8
DEFAULT_255_1_388
10
12.8747198
20
-0.2381809
40
0.5026273
50
329.2803599
51
344.7473406
0
ARC
8
DEFAULT_255_1_388
10
12.9862694
20
-0.2993962
40
0.3754848
50
324.9361395
51
328.6153007
0
ARC
8
DEFAULT_255_1_388
10
13.0288344
20
-0.3291414
40
0.3235566
50
280.5801797
51
324.9173226
0
ARC
8
DEFAULT_255_1_388
10
12.9836972
20
-0.1411764
40
0.5167077
50
269.5979457
51
281.6732777
0
ARC
8
DEFAULT_255_1_388
10
12.9755876
20
-0.1546887
40
0.5032026
50
256.6228565
51
270.5105488
0
ARC
8
DEFAULT_255_1_388
10
12.9303619
20
-0.3288655
40
0.3233092
50
215.8618351
51
257.2787793
0
ARC
8
DEFAULT_255_1_388
10
13.0452326
20
-0.2517894
40
0.4615831
50
197.9695203
51
215.2622745
0
ARC
8
DEFAULT_255_1_388
10
13.3248001
20
-0.1574359
40
0.7566307
50
187.8816486
51
198.2346584
0
ARC
8
DEFAULT_255_1_388
10
13.7701239
20
-0.0931547
40
1.2065653
50
180.8977266
51
188.0054894
0
ARC
8
DEFAULT_255_1_388
10
14.0751453
20
-0.08166
40
1.5117443
50
180.7434591
51
181.152202
0
ARC
8
DEFAULT_255_1_388
10
13.9076449
20
0.1273371
40
1.3441277
50
173.7674302
51
180.2315596
0
ARC
8
DEFAULT_255_1_388
10
13.3994318
20
0.1847779
40
0.8326847
50
164.3058537
51
173.9000553
0
ARC
8
DEFAULT_255_1_388
10
13.0718318
20
0.2791652
40
0.4917711
50
148.7922028
51
164.5682288
0
ARC
8
DEFAULT_255_1_388
10
12.9649055
20
0.3388457
40
0.3694204
50
144.5883979
51
148.1161588
0
ARC
8
DEFAULT_255_1_388
10
12.9261801
20
0.3658667
40
0.322202
50
101.6440149
51
144.5142619
0
ARC
8
DEFAULT_255_1_388
10
12.9739993
20
0.1758337
40
0.5180451
50
89.528284
51
102.5820197
0
ARC
8
DEFAULT_255_1_388
10
12.9828985
20
0.1714376
40
0.5224441
50
77.0437914
51
90.508231
0
ARC
8
DEFAULT_255_1_388
10
13.0281239
20
0.3562272
40
0.3322297
50
48.2777708
51
77.4996087
0
ARC
8
DEFAULT_255_1_388
10
13.0362979
20
0.3707557
40
0.315966
50
36.3141586
51
47.6307332
0
ARC
8
DEFAULT_255_1_388
10
12.9385701
20
0.3049159
40
0.4337313
50
18.2931065
51
35.6770203
0
ARC
8
DEFAULT_255_1_388
10
12.6524542
20
0.2067107
40
0.7362203
50
8.0246996
51
18.5605636
0
ARC
8
DEFAULT_255_1_388
10
12.1840897
20
0.1375432
40
1.2096583
50
1.127539
51
8.1718423
0
ARC
8
DEFAULT_255_1_388
10
11.819203
20
0.1232374
40
1.5747719
50
0.5432713
51
1.38669
0
ARC
8
DEFAULT_255_1_388
10
12.0249409
20
0.1539163
40
1.2018103
50
359.8092569
51
4.9408001
0
ARC
8
DEFAULT_255_1_388
10
12.498599
20
0.19619
40
0.7262727
50
4.8364937
51
12.2906017
0
ARC
8
DEFAULT_255_1_388
10
12.8085455
20
0.2652485
40
0.4087324
50
12.0806994
51
23.8171225
0
ARC
8
DEFAULT_255_1_388
10
12.9405851
20
0.3211508
40
0.2653719
50
24.2874621
51
31.3934353
0
ARC
8
DEFAULT_255_1_388
10
12.9996287
20
0.3597822
40
0.1948607
50
30.7407708
51
82.4658033
0
ARC
8
DEFAULT_255_1_388
10
12.9793948
20
0.2604017
40
0.2961198
50
81.1057101
51
90.2187368
0
ARC
8
DEFAULT_255_1_388
10
12.975376
20
0.2894421
40
0.2670929
50
89.380395
51
105.6763916
0
ARC
8
DEFAULT_255_1_388
10
12.9547482
20
0.364432
40
0.1893189
50
105.7980655
51
149.7387869
0
ARC
8
DEFAULT_255_1_388
10
13.0744622
20
0.2924719
40
0.3289892
50
149.4208441
51
163.628295
0
ARC
8
DEFAULT_255_1_388
10
13.3096852
20
0.2207345
40
0.5749004
50
163.3764549
51
172.141138
0
ARC
8
DEFAULT_255_1_388
10
13.6809573
20
0.1675582
40
0.9499585
50
172.0258462
51
178.0705453
0
ARC
8
DEFAULT_255_1_388
10
14.0231126
20
0.1513682
40
1.2924734
50
177.8639301
51
179.5036263
0
ARC
8
DEFAULT_255_1_388
10
13.9012144
20
-0.1089849
40
1.170534
50
179.7995545
51
185.246089
0
ARC
8
DEFAULT_255_1_388
10
13.4463738
20
-0.1520596
40
0.7136613
50
185.1411911
51
193.0082205
0
ARC
8
DEFAULT_255_1_388
10
13.1489998
20
-0.2223559
40
0.4080987
50
192.7897338
51
205.2507384
0
ARC
8
DEFAULT_255_1_388
10
13.0312208
20
-0.2749462
40
0.2791522
50
205.8001921
51
211.2545876
0
ARC
8
DEFAULT_255_1_388
10
12.9723747
20
-0.3143868
40
0.2084074
50
210.3789935
51
238.4007996
0
ARC
8
DEFAULT_255_1_388
10
12.9701833
20
-0.3091214
40
0.2117943
50
239.6521916
51
265.9793852
0
ARC
8
DEFAULT_255_1_388
10
12.9797682
20
-0.2334642
40
0.2879689
50
265.1324455
51
270.0603288
0
ARC
8
DEFAULT_255_1_388
10
12.9830059
20
-0.2699582
40
0.2514919
50
269.3314378
51
287.2180039
0
ARC
8
DEFAULT_255_1_388
10
12.9985142
20
-0.3265709
40
0.1928357
50
287.7957942
51
329.0808983
0
ARC
8
DEFAULT_255_1_388
10
12.8907899
20
-0.2593349
40
0.319808
50
328.6635261
51
343.3325043
0
ARC
8
DEFAULT_255_1_388
10
12.6463357
20
-0.1831805
40
0.5758408
50
343.0498092
51
351.9392499
0
ARC
8
DEFAULT_255_1_388
10
12.2562679
20
-0.1256795
40
0.9701202
50
351.8071632
51
357.7957897
0
ARC
8
DEFAULT_255_1_388
10
11.8928156
20
-0.1068276
40
1.3340376
50
357.5870923
51
359.2682493
0
ARC
8
DEFAULT_255_1_388
10
14.0883992
20
0.329572
40
0.3175098
50
338.8762533
51
0.5167111
0
ARC
8
DEFAULT_255_1_388
10
14.1073586
20
0.32446
40
0.2979894
50
325.8415285
51
338.4793574
0
ARC
8
DEFAULT_255_1_388
10
14.063422
20
0.3549242
40
0.351452
50
296.7587686
51
325.7536481
0
ARC
8
DEFAULT_255_1_388
10
14.0305848
20
0.4103363
40
0.4157374
50
296.0927901
51
297.3613472
0
ARC
8
DEFAULT_255_1_388
10
14.0600043
20
-0.3279407
40
0.395855
50
47.9007294
51
67.1948823
0
ARC
8
DEFAULT_255_1_388
10
14.0820685
20
-0.3002401
40
0.360516
50
35.2363914
51
47.551141
0
ARC
8
DEFAULT_255_1_388
10
14.1115089
20
-0.2805907
40
0.3251343
50
359.2759765
51
35.4014143
0
ARC
8
DEFAULT_255_1_388
10
14.0277016
20
-0.2888213
40
0.4089365
50
343.1293083
51
0.5775513
0
ARC
8
DEFAULT_255_1_388
10
14.1092129
20
-0.3112664
40
0.3244269
50
310.8496669
51
342.7449331
0
ARC
8
DEFAULT_255_1_388
10
14.0622004
20
-0.2576087
40
0.3957651
50
281.5472888
51
310.9170406
0
ARC
8
DEFAULT_255_1_388
10
14.0220878
20
-0.0829186
40
0.5749654
50
269.619248
51
281.9789564
0
ARC
8
DEFAULT_255_1_388
10
14.0139656
20
-0.0828224
40
0.5750649
50
257.4585678
51
270.4285689
0
ARC
8
DEFAULT_255_1_388
10
13.9711176
20
-0.2632259
40
0.389671
50
228.7554326
51
257.8484789
0
ARC
8
DEFAULT_255_1_388
10
13.9362661
20
-0.3051772
40
0.335154
50
184.0104975
51
228.5071184
0
ARC
8
DEFAULT_255_1_388
10
14.0671054
20
-0.285257
40
0.4671891
50
179.9315832
51
185.3253753
0
ARC
8
DEFAULT_255_1_388
10
13.9347567
20
-0.2810408
40
0.33486
50
145.6796023
51
180.6259786
0
ARC
8
DEFAULT_255_1_388
10
13.9531332
20
-0.2938729
40
0.3572723
50
115.5537685
51
145.6415986
0
ARC
8
DEFAULT_255_1_388
10
13.9914376
20
-0.3624913
40
0.4357296
50
113.243307
51
116.2057839
0
ARC
8
DEFAULT_255_1_388
10
13.9743028
20
0.3572379
40
0.3549126
50
222.9549744
51
244.1370481
0
ARC
8
DEFAULT_255_1_388
10
13.9605671
20
0.3418378
40
0.3343711
50
213.3436887
51
222.6274467
0
ARC
8
DEFAULT_255_1_388
10
13.9389741
20
0.3271653
40
0.3082678
50
180.431584
51
213.271499
0
ARC
8
DEFAULT_255_1_388
10
14.002474
20
0.3324296
40
0.3718363
50
179.9991191
51
181.1690594
0
ARC
8
DEFAULT_255_1_388
10
14.0497196
20
0.3363072
40
0.4190996
50
164.6186169
51
180.529336
0
ARC
8
DEFAULT_255_1_388
10
13.9486844
20
0.363478
40
0.3144772
50
132.2455553
51
164.5090724
0
ARC
8
DEFAULT_255_1_388
10
13.9809823
20
0.326907
40
0.3632644
50
100.7053914
51
132.1386381
0
ARC
8
DEFAULT_255_1_388
10
14.0152884
20
0.1719118
40
0.5219578
50
89.6730358
51
101.2451698
0
ARC
8
DEFAULT_255_1_388
10
14.0222875
20
0.1915648
40
0.5023124
50
76.287748
51
90.4586006
0
ARC
8
DEFAULT_255_1_388
10
14.0567377
20
0.3290671
40
0.3605639
50
47.8240511
51
76.4266241
0
ARC
8
DEFAULT_255_1_388
10
14.0817761
20
0.3583599
40
0.3220463
50
6.9168387
51
47.6262497
0
ARC
8
DEFAULT_255_1_388
10
13.9483214
20
0.3337004
40
0.4575765
50
359.8415968
51
7.9697453
0
ARC
8
DEFAULT_255_1_388
10
13.9867484
20
-0.2783481
40
0.2827228
50
359.445363
51
16.9256873
0
ARC
8
DEFAULT_255_1_388
10
14.0394918
20
-0.2638219
40
0.2280396
50
17.2920767
51
45.4630727
0
ARC
8
DEFAULT_255_1_388
10
14.0334053
20
-0.2690676
40
0.2360485
50
45.30305
51
83.1920945
0
ARC
8
DEFAULT_255_1_388
10
14.0172798
20
-0.3592527
40
0.3275527
50
82.2612665
51
90.1434275
0
ARC
8
DEFAULT_255_1_388
10
14.0138074
20
-0.3330131
40
0.3013237
50
89.4956434
51
104.8580688
0
ARC
8
DEFAULT_255_1_388
10
13.9939264
20
-0.2576545
40
0.2233867
50
104.8856641
51
135.244616
0
ARC
8
DEFAULT_255_1_388
10
13.9995253
20
-0.2626648
40
0.2308906
50
135.3399546
51
172.1044062
0
ARC
8
DEFAULT_255_1_388
10
14.0902778
20
-0.2800333
40
0.3232034
50
171.2645637
51
180.186429
0
ARC
8
DEFAULT_255_1_388
10
14.0712782
20
-0.2836574
40
0.304213
50
179.5154935
51
193.6464289
0
ARC
8
DEFAULT_255_1_388
10
13.9794458
20
-0.3070527
40
0.209456
50
193.3540274
51
225.8258581
0
ARC
8
DEFAULT_255_1_388
10
13.984033
20
-0.2990924
40
0.2183738
50
226.4180634
51
255.8552336
0
ARC
8
DEFAULT_255_1_388
10
14.0128797
20
-0.1937479
40
0.3275812
50
255.4654104
51
268.7987425
0
ARC
8
DEFAULT_255_1_388
10
14.0181973
20
-0.0995455
40
0.4218877
50
268.3449238
51
270.0094605
0
ARC
8
DEFAULT_255_1_388
10
14.0208207
20
-0.1763906
40
0.3450519
50
269.5759586
51
282.0820163
0
ARC
8
DEFAULT_255_1_388
10
14.0461243
20
-0.2882637
40
0.2303642
50
281.752014
51
306.6056188
0
ARC
8
DEFAULT_255_1_388
10
14.0572051
20
-0.3064198
40
0.2091906
50
307.1346085
51
314.027845
0
ARC
8
DEFAULT_255_1_388
10
14.0531563
20
-0.3034541
40
0.2141385
50
314.2552483
51
350.1694025
0
ARC
8
DEFAULT_255_1_388
10
13.95738
20
-0.2826825
40
0.312082
50
349.4140529
51
0.2933014
0
ARC
8
DEFAULT_255_1_388
10
14.0159077
20
0.2976924
40
0.2588377
50
89.477747
51
105.729729
0
ARC
8
DEFAULT_255_1_388
10
14.0005997
20
0.3545367
40
0.1999733
50
105.9233417
51
135.1660906
0
ARC
8
DEFAULT_255_1_388
10
14.0029028
20
0.3529412
40
0.2027322
50
135.3052302
51
168.9883645
0
ARC
8
DEFAULT_255_1_388
10
14.0960044
20
0.3315996
40
0.2982129
50
168.3801673
51
180.3602268
0
ARC
8
DEFAULT_255_1_388
10
14.0703161
20
0.3273622
40
0.2725291
50
179.5033122
51
194.9125571
0
ARC
8
DEFAULT_255_1_388
10
14.0044568
20
0.3100427
40
0.204431
50
194.9720816
51
224.194444
0
ARC
8
DEFAULT_255_1_388
10
14.0012933
20
0.3074635
40
0.2003651
50
224.2962453
51
262.015664
0
ARC
8
DEFAULT_255_1_388
10
14.0172937
20
0.3897315
40
0.2840925
50
261.1245923
51
270.1962896
0
ARC
8
DEFAULT_255_1_388
10
14.0206419
20
0.3686859
40
0.2630559
50
269.4827276
51
285.0987215
0
ARC
8
DEFAULT_255_1_388
10
14.0379855
20
0.3036175
40
0.1957162
50
285.1585357
51
315.9484501
0
ARC
8
DEFAULT_255_1_388
10
14.0279728
20
0.3128315
40
0.2093195
50
316.0413965
51
351.916092
0
ARC
8
DEFAULT_255_1_388
10
13.9455103
20
0.3287323
40
0.2932279
50
351.105835
51
0.1939062
0
ARC
8
DEFAULT_255_1_388
10
13.9750737
20
0.3321224
40
0.2636739
50
359.4789618
51
16.0678224
0
ARC
8
DEFAULT_255_1_388
10
14.0286209
20
0.3465721
40
0.2082215
50
16.3252067
51
44.7913869
0
ARC
8
DEFAULT_255_1_388
10
14.0266271
20
0.346632
40
0.2095992
50
44.3957814
51
88.2499162
0
ARC
8
DEFAULT_255_1_388
10
14.0183605
20
0.2778006
40
0.2787189
50
86.9833854
51
90.0192215
0
LINE
8
DEFAULT_255_1_388
10
15.5995048
20
0.6757898
11
15.5995048
21
0.5330267
0
LINE
8
DEFAULT_255_1_388
10
15.5995048
20
0.5330267
11
15.1766366
21
0.5330267
0
LINE
8
DEFAULT_255_1_388
10
15.1766366
20
0.5330267
11
15.1766366
21
-0.6398
0
LINE
8
DEFAULT_255_1_388
10
15.1766366
20
-0.6398
11
15.0040558
21
-0.6398
0
LINE
8
DEFAULT_255_1_388
10
15.0040558
20
-0.6398
11
15.0040558
21
0.5330267
0
LINE
8
DEFAULT_255_1_388
10
15.0040558
20
0.5330267
11
14.5820912
21
0.5330267
0
LINE
8
DEFAULT_255_1_388
10
14.5820912
20
0.5330267
11
14.5820912
21
0.6757898
0
LINE
8
DEFAULT_255_1_388
10
14.5820912
20
0.6757898
11
15.5995048
21
0.6757898
0
LINE
8
DEFAULT_255_1_388
10
16.8057633
20
0.6757898
11
16.8057633
21
-0.6398
0
LINE
8
DEFAULT_255_1_388
10
16.8057633
20
-0.6398
11
16.6313754
21
-0.6398
0
LINE
8
DEFAULT_255_1_388
10
16.6313754
20
-0.6398
11
16.6313754
21
-0.0317011
0
LINE
8
DEFAULT_255_1_388
10
16.6313754
20
-0.0317011
11
15.9681591
21
-0.0317011
0
LINE
8
DEFAULT_255_1_388
10
15.9681591
20
-0.0317011
11
15.9681591
21
-0.6398
0
LINE
8
DEFAULT_255_1_388
10
15.9681591
20
-0.6398
11
15.7946747
21
-0.6398
0
LINE
8
DEFAULT_255_1_388
10
15.7946747
20
-0.6398
11
15.7946747
21
0.6757898
0
LINE
8
DEFAULT_255_1_388
10
15.7946747
20
0.6757898
11
15.9681591
21
0.6757898
0
LINE
8
DEFAULT_255_1_388
10
15.9681591
20
0.6757898
11
15.9681591
21
0.1101585
0
LINE
8
DEFAULT_255_1_388
10
15.9681591
20
0.1101585
11
16.6313754
21
0.1101585
0
LINE
8
DEFAULT_255_1_388
10
16.6313754
20
0.1101585
11
16.6313754
21
0.6757898
0
LINE
8
DEFAULT_255_1_388
10
16.6313754
20
0.6757898
11
16.8057633
21
0.6757898
0
LINE
8
DEFAULT_255_1_388
10
17.1138788
20
0.6757898
11
17.3379628
21
0.6757898
0
LINE
8
DEFAULT_255_1_388
10
17.3379628
20
0.6757898
11
17.7680595
21
-0.3976447
0
LINE
8
DEFAULT_255_1_388
10
17.7680595
20
-0.3976447
11
18.1981562
21
0.6757898
0
LINE
8
DEFAULT_255_1_388
10
18.1981562
20
0.6757898
11
18.4231437
21
0.6757898
0
LINE
8
DEFAULT_255_1_388
10
18.4231437
20
0.6757898
11
18.4231437
21
-0.6398
0
LINE
8
DEFAULT_255_1_388
10
18.4231437
20
-0.6398
11
18.2496593
21
-0.6398
0
LINE
8
DEFAULT_255_1_388
10
18.2496593
20
-0.6398
11
18.2496593
21
-0.127479
0
LINE
8
DEFAULT_255_1_388
10
18.2496593
20
-0.127479
11
18.2659235
21
0.4255025
0
LINE
8
DEFAULT_255_1_388
10
18.2659235
20
0.4255025
11
17.8340197
21
-0.6398
0
LINE
8
DEFAULT_255_1_388
10
17.8340197
20
-0.6398
11
17.7011957
21
-0.6398
0
LINE
8
DEFAULT_255_1_388
10
17.7011957
20
-0.6398
11
17.2701955
21
0.4227918
0
LINE
8
DEFAULT_255_1_388
10
17.2701955
20
0.4227918
11
17.2873632
21
-0.127479
0
LINE
8
DEFAULT_255_1_388
10
17.2873632
20
-0.127479
11
17.2873632
21
-0.6398
0
LINE
8
DEFAULT_255_1_388
10
17.2873632
20
-0.6398
11
17.1138788
21
-0.6398
0
LINE
8
DEFAULT_255_1_388
10
17.1138788
20
-0.6398
11
17.1138788
21
0.6757898
0
LINE
8
DEFAULT_255_1_388
10
7.8500094
20
134.1513317
11
7.5400868
21
134.1513317
0
LINE
8
DEFAULT_255_1_388
10
7.5400868
20
134.1513317
11
7.5400868
21
133.6363
0
LINE
8
DEFAULT_255_1_388
10
7.5400868
20
133.6363
11
7.3666024
21
133.6363
0
LINE
8
DEFAULT_255_1_388
10
7.3666024
20
133.6363
11
7.3666024
21
134.9518898
0
LINE
8
DEFAULT_255_1_388
10
7.3666024
20
134.9518898
11
7.8518165
21
134.9518898
0
LINE
8
DEFAULT_255_1_388
10
7.5400868
20
134.8091267
11
7.5400868
21
134.2931914
0
LINE
8
DEFAULT_255_1_388
10
7.5400868
20
134.2931914
11
7.8518165
21
134.2931914
0
LINE
8
DEFAULT_255_1_388
10
7.8617557
20
134.8091267
11
7.5400868
21
134.8091267
0
ARC
8
DEFAULT_255_1_388
10
7.8565538
20
134.2702334
40
0.6816729
50
78.8380084
51
90.398184
0
ARC
8
DEFAULT_255_1_388
10
7.9033569
20
134.4975796
40
0.449571
50
58.9633273
51
79.0810717
0
ARC
8
DEFAULT_255_1_388
10
7.9372953
20
134.5605823
40
0.3781049
50
48.0194715
51
58.4475592
0
ARC
8
DEFAULT_255_1_388
10
7.9472773
20
134.5701818
40
0.3642936
50
3.3374546
51
48.1766642
0
ARC
8
DEFAULT_255_1_388
10
7.808758
20
134.5502581
40
0.5038766
50
359.9483251
51
4.6822857
0
ARC
8
DEFAULT_255_1_388
10
7.8227503
20
134.5454779
40
0.4899031
50
346.1879032
51
0.5059221
0
ARC
8
DEFAULT_255_1_388
10
7.9756295
20
134.5057763
40
0.3319729
50
310.8832219
51
346.5426612
0
ARC
8
DEFAULT_255_1_388
10
7.9409143
20
134.5526853
40
0.3901853
50
286.6925305
51
310.228778
0
ARC
8
DEFAULT_255_1_388
10
7.8768873
20
134.7540585
40
0.6014737
50
274.6848219
51
287.0247342
0
ARC
8
DEFAULT_255_1_388
10
7.8515422
20
135.0025088
40
0.8511785
50
269.8968222
51
275.0192639
0
ARC
8
DEFAULT_255_1_388
10
7.8546415
20
134.7687144
40
0.4755314
50
269.6596206
51
279.4150542
0
ARC
8
DEFAULT_255_1_388
10
7.8835873
20
134.6009945
40
0.3053379
50
279.2050006
51
294.9901776
0
ARC
8
DEFAULT_255_1_388
10
7.9162508
20
134.5281353
40
0.2255036
50
295.2886769
51
311.2912669
0
ARC
8
DEFAULT_255_1_388
10
7.9242249
20
134.5162938
40
0.2113522
50
311.7853512
51
347.2860549
0
ARC
8
DEFAULT_255_1_388
10
7.813541
20
134.544743
40
0.3256011
50
346.6891629
51
0.1057086
0
ARC
8
DEFAULT_255_1_388
10
7.721287
20
134.5480247
40
0.417863
50
359.63239
51
359.9961329
0
ARC
8
DEFAULT_255_1_388
10
7.8377475
20
134.5507987
40
0.3014155
50
359.4673371
51
15.5931159
0
ARC
8
DEFAULT_255_1_388
10
7.9080538
20
134.5697937
40
0.2285918
50
15.7441779
51
46.620186
0
ARC
8
DEFAULT_255_1_388
10
7.8914298
20
134.5506361
40
0.2539359
50
46.8628482
51
75.6676625
0
ARC
8
DEFAULT_255_1_388
10
7.8583354
20
134.4315243
40
0.3775415
50
75.2763152
51
88.2916439
0
ARC
8
DEFAULT_255_1_388
10
7.8517354
20
134.3313097
40
0.4779221
50
87.8589087
51
88.7986197
0
LINE
8
DEFAULT_255_1_388
10
8.9803685
20
134.6193781
11
8.9803685
21
134.463965
0
LINE
8
DEFAULT_255_1_388
10
8.6749637
20
134.3302375
11
8.6749637
21
133.6363
0
LINE
8
DEFAULT_255_1_388
10
8.6749637
20
133.6363
11
8.5078043
21
133.6363
0
LINE
8
DEFAULT_255_1_388
10
8.5078043
20
133.6363
11
8.5078043
21
134.6139567
0
LINE
8
DEFAULT_255_1_388
10
8.5078043
20
134.6139567
11
8.6704459
21
134.6139567
0
LINE
8
DEFAULT_255_1_388
10
8.6704459
20
134.6139567
11
8.6731566
21
134.5010112
0
ARC
8
DEFAULT_255_1_388
10
8.9053845
20
134.0073068
40
0.4627735
50
80.6751522
51
86.893806
0
ARC
8
DEFAULT_255_1_388
10
8.8985675
20
133.8981103
40
0.5721798
50
86.8046851
51
90.0423898
0
ARC
8
DEFAULT_255_1_388
10
8.8944094
20
134.1748197
40
0.2954939
50
89.2758283
51
106.6212906
0
ARC
8
DEFAULT_255_1_388
10
8.8714119
20
134.2584009
40
0.2088351
50
107.1347109
51
157.6456887
0
ARC
8
DEFAULT_255_1_388
10
8.9482181
20
134.2156908
40
0.296292
50
155.6557383
51
157.256838
0
ARC
8
DEFAULT_255_1_388
10
8.9261795
20
134.3467472
40
0.296341
50
127.8167201
51
148.6300223
0
ARC
8
DEFAULT_255_1_388
10
8.8976543
20
134.3760066
40
0.2557782
50
91.3329934
51
126.7875218
0
ARC
8
DEFAULT_255_1_388
10
8.906193
20
134.2956718
40
0.3363561
50
89.9858247
51
92.4688453
0
ARC
8
DEFAULT_255_1_388
10
8.9071423
20
134.3265114
40
0.3055179
50
85.3587643
51
90.1624243
0
ARC
8
DEFAULT_255_1_388
10
8.9166488
20
134.4394458
40
0.1921848
50
78.4019195
51
85.4592653
0
ARC
8
DEFAULT_255_1_388
10
8.9329549
20
134.5172142
40
0.1127267
50
67.7849217
51
78.573798
0
ARC
8
DEFAULT_255_1_388
10
8.9451183
20
134.5487374
40
0.0789473
50
63.4805074
51
67.3074739
0
LINE
8
DEFAULT_255_1_388
10
9.0716285
20
134.1224177
11
9.0716285
21
134.134164
0
LINE
8
DEFAULT_255_1_388
10
9.9616395
20
134.1260319
11
9.9616395
21
134.1142856
0
ARC
8
DEFAULT_255_1_388
10
9.700073
20
134.137804
40
0.628455
50
166.3005265
51
180.3318609
0
ARC
8
DEFAULT_255_1_388
10
9.6030079
20
134.1595267
40
0.52901
50
153.8608648
51
166.0965672
0
ARC
8
DEFAULT_255_1_388
10
9.5281245
20
134.1996652
40
0.4441126
50
135.1317053
51
154.2534962
0
ARC
8
DEFAULT_255_1_388
10
9.4967896
20
134.2273431
40
0.4023863
50
121.7042632
51
134.7771455
0
ARC
8
DEFAULT_255_1_388
10
9.5043328
20
134.2128469
40
0.4186852
50
93.4001111
51
121.5399523
0
ARC
8
DEFAULT_255_1_388
10
9.5150162
20
134.1198759
40
0.5121521
50
89.9706387
51
93.9763381
0
ARC
8
DEFAULT_255_1_388
10
9.5203147
20
134.1638563
40
0.4681988
50
71.3321659
51
90.6162917
0
ARC
8
DEFAULT_255_1_388
10
9.538618
20
134.2316003
40
0.3981841
50
41.1813875
51
70.7072086
0
ARC
8
DEFAULT_255_1_388
10
9.4848897
20
134.182813
40
0.4707474
50
12.1971434
51
41.3446641
0
ARC
8
DEFAULT_255_1_388
10
9.268216
20
134.1312328
40
0.6934429
50
359.5702713
51
12.5803533
0
ARC
8
DEFAULT_255_1_388
10
9.3214476
20
134.1107207
40
0.6402018
50
347.0196754
51
0.3190452
0
ARC
8
DEFAULT_255_1_388
10
9.429253
20
134.0875189
40
0.5299421
50
334.350439
51
346.8460534
0
ARC
8
DEFAULT_255_1_388
10
9.5243776
20
134.0381244
40
0.4228234
50
310.4228125
51
334.8045131
0
ARC
8
DEFAULT_255_1_388
10
9.5335754
20
134.0309301
40
0.4113892
50
301.8488154
51
310.0972985
0
ARC
8
DEFAULT_255_1_388
10
9.5299495
20
134.0394573
40
0.4205483
50
274.3078723
51
301.6554173
0
ARC
8
DEFAULT_255_1_388
10
9.517495
20
134.1381943
40
0.5199658
50
269.954904
51
274.859116
0
ARC
8
DEFAULT_255_1_388
10
9.5119774
20
134.0818239
40
0.4636233
50
250.8887647
51
270.6313164
0
ARC
8
DEFAULT_255_1_388
10
9.4950935
20
134.0189405
40
0.398705
50
221.1701369
51
250.2227012
0
ARC
8
DEFAULT_255_1_388
10
9.54956
20
134.0685716
40
0.4723796
50
191.6263861
51
221.3526879
0
ARC
8
DEFAULT_255_1_388
10
9.7619446
20
134.1177203
40
0.6903321
50
179.6101251
51
192.0694841
0
ARC
8
DEFAULT_255_1_388
10
9.8095793
20
134.1106681
40
0.5698993
50
179.636304
51
190.6161344
0
ARC
8
DEFAULT_255_1_388
10
9.6248125
20
134.0746635
40
0.3816643
50
190.4136062
51
208.7168709
0
ARC
8
DEFAULT_255_1_388
10
9.5674159
20
134.0461905
40
0.3176572
50
209.187109
51
217.4221816
0
ARC
8
DEFAULT_255_1_388
10
9.507863
20
133.9937729
40
0.2385702
50
216.1156863
51
265.2575395
0
ARC
8
DEFAULT_255_1_388
10
9.5167666
20
134.0582608
40
0.3035941
50
264.5891546
51
270.0602378
0
ARC
8
DEFAULT_255_1_388
10
9.5204863
20
134.0155539
40
0.2609091
50
269.2532353
51
291.8793864
0
ARC
8
DEFAULT_255_1_388
10
9.5237742
20
133.9955359
40
0.241148
50
292.9269367
51
323.1777736
0
ARC
8
DEFAULT_255_1_388
10
9.4767027
20
134.0368762
40
0.3036446
50
322.25666
51
323.087958
0
ARC
8
DEFAULT_255_1_388
10
9.4464285
20
134.0551332
40
0.3388345
50
323.6941379
51
343.8493587
0
ARC
8
DEFAULT_255_1_388
10
9.2688721
20
134.1091698
40
0.5244204
50
343.5746655
51
355.008149
0
ARC
8
DEFAULT_255_1_388
10
9.0430413
20
134.1325797
40
0.7514406
50
354.728272
51
0.1208026
0
ARC
8
DEFAULT_255_1_388
10
9.2419438
20
134.1377947
40
0.5525482
50
359.6235211
51
11.2016685
0
ARC
8
DEFAULT_255_1_388
10
9.4145265
20
134.1733284
40
0.3763527
50
10.9991302
51
30.8317616
0
ARC
8
DEFAULT_255_1_388
10
9.4590569
20
134.1967988
40
0.3260975
50
31.3007463
51
37.395541
0
ARC
8
DEFAULT_255_1_388
10
9.5149288
20
134.2439773
40
0.253082
50
36.5918894
51
62.2439906
0
ARC
8
DEFAULT_255_1_388
10
9.520158
20
134.2436378
40
0.2509927
50
63.3364883
51
89.7193846
0
ARC
8
DEFAULT_255_1_388
10
9.5153033
20
134.1788375
40
0.3158485
50
88.8962924
51
90.004475
0
ARC
8
DEFAULT_255_1_388
10
9.5117461
20
134.2441071
40
0.250604
50
89.1923115
51
114.7099029
0
ARC
8
DEFAULT_255_1_388
10
9.5149802
20
134.2483675
40
0.2481307
50
115.7996284
51
142.2901353
0
ARC
8
DEFAULT_255_1_388
10
9.5618073
20
134.2064752
40
0.310833
50
141.4607507
51
142.383894
0
ARC
8
DEFAULT_255_1_388
10
9.5765925
20
134.1996449
40
0.3267335
50
143.0176473
51
163.2340089
0
ARC
8
DEFAULT_255_1_388
10
9.7541213
20
134.1434553
40
0.5129308
50
162.9446504
51
174.3733893
0
ARC
8
DEFAULT_255_1_388
10
9.9955186
20
134.1163483
40
0.75583
50
174.1225809
51
180.1563667
0
LINE
8
DEFAULT_255_1_388
10
10.1306061
20
134.1206105
11
10.1306061
21
134.1332604
0
LINE
8
DEFAULT_255_1_388
10
10.788401
20
134.5145646
11
10.788401
21
135.024175
0
LINE
8
DEFAULT_255_1_388
10
10.788401
20
135.024175
11
10.9555604
21
135.024175
0
LINE
8
DEFAULT_255_1_388
10
10.9555604
20
135.024175
11
10.9555604
21
133.6363
0
LINE
8
DEFAULT_255_1_388
10
10.9555604
20
133.6363
11
10.8019544
21
133.6363
0
LINE
8
DEFAULT_255_1_388
10
10.8019544
20
133.6363
11
10.7938224
21
133.7411135
0
LINE
8
DEFAULT_255_1_388
10
10.788401
20
133.9028515
11
10.788401
21
134.351923
0
ARC
8
DEFAULT_255_1_388
10
10.9040754
20
134.1382084
40
0.7734851
50
169.1662656
51
180.3665225
0
ARC
8
DEFAULT_255_1_388
10
10.6569663
20
134.1874773
40
0.5215235
50
150.2837807
51
169.3798657
0
ARC
8
DEFAULT_255_1_388
10
10.5857114
20
134.2239124
40
0.4415937
50
142.1063912
51
149.8065902
0
ARC
8
DEFAULT_255_1_388
10
10.5213326
20
134.2799913
40
0.3563766
50
118.4282495
51
142.8642233
0
ARC
8
DEFAULT_255_1_388
10
10.5102338
20
134.2870109
40
0.3449797
50
89.9199141
51
117.3621403
0
ARC
8
DEFAULT_255_1_388
10
10.516419
20
134.1995171
40
0.4325108
50
89.9988001
51
90.7555106
0
ARC
8
DEFAULT_255_1_388
10
10.5206268
20
134.2282362
40
0.4038136
50
72.8979482
51
90.595751
0
ARC
8
DEFAULT_255_1_388
10
10.5428948
20
134.3086099
40
0.3204539
50
39.9932308
51
72.4773248
0
ARC
8
DEFAULT_255_1_388
10
10.5396039
20
133.9472007
40
0.3272598
50
275.0849466
51
320.9693562
0
ARC
8
DEFAULT_255_1_388
10
10.5154955
20
134.0897895
40
0.4715615
50
269.8937433
51
276.4672347
0
ARC
8
DEFAULT_255_1_388
10
10.5078495
20
133.947215
40
0.3290559
50
222.0839188
51
271.1791339
0
ARC
8
DEFAULT_255_1_388
10
10.5766004
20
134.0175998
40
0.4272982
50
217.5168262
51
222.9097935
0
ARC
8
DEFAULT_255_1_388
10
10.6320877
20
134.0557851
40
0.4945763
50
193.0962732
51
217.1109075
0
ARC
8
DEFAULT_255_1_388
10
10.8522607
20
134.1107252
40
0.7214806
50
181.1071959
51
193.3839643
0
ARC
8
DEFAULT_255_1_388
10
11.0406983
20
134.1204904
40
0.9100921
50
179.9924355
51
181.4926257
0
ARC
8
DEFAULT_255_1_388
10
10.947834
20
134.1107904
40
0.650078
50
179.6919448
51
188.655086
0
ARC
8
DEFAULT_255_1_388
10
10.7206397
20
134.0750086
40
0.420088
50
188.4934981
51
202.2188222
0
ARC
8
DEFAULT_255_1_388
10
10.6118204
20
134.0318888
40
0.3030458
50
202.4516374
51
215.9308342
0
ARC
8
DEFAULT_255_1_388
10
10.5451628
20
133.978769
40
0.2179351
50
214.9061987
51
264.2076983
0
ARC
8
DEFAULT_255_1_388
10
10.5557166
20
134.0459867
40
0.2858989
50
263.4629438
51
270.0938577
0
ARC
8
DEFAULT_255_1_388
10
10.56021
20
134.035673
40
0.2756141
50
269.1632216
51
291.0932257
0
ARC
8
DEFAULT_255_1_388
10
10.5694005
20
133.9983218
40
0.2375078
50
292.2675188
51
328.1937653
0
ARC
8
DEFAULT_255_1_388
10
10.4916663
20
134.0544245
40
0.3332054
50
327.040169
51
332.941918
0
ARC
8
DEFAULT_255_1_388
10
10.5380876
20
134.2206122
40
0.2826647
50
27.6808655
51
48.7895461
0
ARC
8
DEFAULT_255_1_388
10
10.5699512
20
134.2499738
40
0.2396281
50
49.8958562
51
87.0102063
0
ARC
8
DEFAULT_255_1_388
10
10.5582356
20
134.1613941
40
0.3287745
50
85.7763593
51
90.0424518
0
ARC
8
DEFAULT_255_1_388
10
10.5549423
20
134.2355766
40
0.25461
50
89.3136862
51
109.426258
0
ARC
8
DEFAULT_255_1_388
10
10.5465845
20
134.269891
40
0.2194978
50
110.3479382
51
145.1577921
0
ARC
8
DEFAULT_255_1_388
10
10.6201325
20
134.216319
40
0.3104736
50
144.7981654
51
162.8715843
0
ARC
8
DEFAULT_255_1_388
10
10.8107925
20
134.1550138
40
0.5107383
50
162.598526
51
173.3417416
0
ARC
8
DEFAULT_255_1_388
10
11.1109298
20
134.1177767
40
0.8131718
50
173.1877249
51
180.2459848
0
LINE
8
DEFAULT_255_1_388
10
11.8220787
20
133.6363
11
11.8184645
21
133.7329814
0
LINE
8
DEFAULT_255_1_388
10
11.2112691
20
133.9778474
11
11.2112691
21
134.6139567
0
LINE
8
DEFAULT_255_1_388
10
11.2112691
20
134.6139567
11
11.3784286
21
134.6139567
0
LINE
8
DEFAULT_255_1_388
10
11.3784286
20
134.6139567
11
11.3784286
21
133.9823652
0
LINE
8
DEFAULT_255_1_388
10
11.8139466
20
133.9028515
11
11.8139466
21
134.6139567
0
LINE
8
DEFAULT_255_1_388
10
11.8139466
20
134.6139567
11
11.9811061
21
134.6139567
0
LINE
8
DEFAULT_255_1_388
10
11.9811061
20
134.6139567
11
11.9811061
21
133.6363
0
LINE
8
DEFAULT_255_1_388
10
11.9811061
20
133.6363
11
11.8220787
21
133.6363
0
ARC
8
DEFAULT_255_1_388
10
11.5804683
20
133.9374675
40
0.3137782
50
282.5436457
51
319.3308483
0
ARC
8
DEFAULT_255_1_388
10
11.5369109
20
134.1069138
40
0.4886732
50
269.8919644
51
283.213949
0
ARC
8
DEFAULT_255_1_388
10
11.5320078
20
134.2473412
40
0.6291125
50
270.0024363
51
270.3626317
0
ARC
8
DEFAULT_255_1_388
10
11.5286056
20
134.0472026
40
0.4289875
50
257.7354503
51
270.4579702
0
ARC
8
DEFAULT_255_1_388
10
11.4951594
20
133.9010679
40
0.2790881
50
233.3385202
51
258.072161
0
ARC
8
DEFAULT_255_1_388
10
11.4800459
20
133.8763828
40
0.250276
50
221.9625878
51
232.7397557
0
ARC
8
DEFAULT_255_1_388
10
11.5115422
20
133.9005961
40
0.2899023
50
197.9449652
51
221.3587453
0
ARC
8
DEFAULT_255_1_388
10
11.6684927
20
133.9542197
40
0.4557469
50
185.8086112
51
198.2791204
0
ARC
8
DEFAULT_255_1_388
10
11.8813675
20
133.9795327
40
0.6701004
50
180.1441004
51
186.1197471
0
ARC
8
DEFAULT_255_1_388
10
11.7799353
20
133.9783589
40
0.4015267
50
179.428312
51
191.0738067
0
ARC
8
DEFAULT_255_1_388
10
11.5905535
20
133.939262
40
0.2081712
50
190.5250706
51
212.6989599
0
ARC
8
DEFAULT_255_1_388
10
11.5383303
20
133.9104416
40
0.1487075
50
214.2246262
51
264.4398306
0
ARC
8
DEFAULT_255_1_388
10
11.5582816
20
134.0127845
40
0.2526976
50
262.1851951
51
270.1949702
0
ARC
8
DEFAULT_255_1_388
10
11.562992
20
134.156346
40
0.3962764
50
269.4432626
51
282.9581304
0
ARC
8
DEFAULT_255_1_388
10
11.600872
20
134.0022077
40
0.2375807
50
282.3910141
51
311.9723859
0
ARC
8
DEFAULT_255_1_388
10
11.6017253
20
133.9940255
40
0.2309774
50
313.1724921
51
336.7508062
0
LINE
8
DEFAULT_255_1_388
10
12.8575636
20
133.9444155
11
13.0156874
21
133.9444155
0
LINE
8
DEFAULT_255_1_388
10
12.1916366
20
134.1160927
11
12.1916366
21
134.1441032
0
LINE
8
DEFAULT_255_1_388
10
13.0156874
20
134.2778308
11
12.8575636
21
134.2778308
0
LINE
8
DEFAULT_255_1_388
10
12.358796
20
134.1377783
11
12.358796
21
134.1061535
0
ARC
8
DEFAULT_255_1_388
10
12.6312193
20
133.9954109
40
0.2407783
50
269.0327343
51
309.2224588
0
ARC
8
DEFAULT_255_1_388
10
12.6548196
20
133.971219
40
0.207135
50
308.3965377
51
329.6987678
0
ARC
8
DEFAULT_255_1_388
10
12.6703255
20
133.9594899
40
0.1878439
50
330.4013397
51
355.3970937
0
ARC
8
DEFAULT_255_1_388
10
12.7217239
20
133.9614312
40
0.2944555
50
329.2357424
51
356.6872018
0
ARC
8
DEFAULT_255_1_388
10
12.6599134
20
133.9941153
40
0.3643032
50
324.8702872
51
329.7911998
0
ARC
8
DEFAULT_255_1_388
10
12.6510416
20
134.0017113
40
0.3759315
50
298.8769973
51
324.7015261
0
ARC
8
DEFAULT_255_1_388
10
12.613696
20
134.061229
40
0.4461015
50
296.902888
51
299.3854973
0
ARC
8
DEFAULT_255_1_388
10
12.6282957
20
134.0288595
40
0.4106323
50
269.8407861
51
297.1298875
0
ARC
8
DEFAULT_255_1_388
10
12.6222953
20
134.1006354
40
0.4824312
50
253.3156606
51
270.5771301
0
ARC
8
DEFAULT_255_1_388
10
12.5945131
20
134.0000943
40
0.3781531
50
221.1002518
51
252.9743523
0
ARC
8
DEFAULT_255_1_388
10
12.6462601
20
134.0445131
40
0.4463481
50
194.5394284
51
221.0302764
0
ARC
8
DEFAULT_255_1_388
10
12.8542422
20
134.1024897
40
0.6622359
50
182.0498004
51
194.8774376
0
ARC
8
DEFAULT_255_1_388
10
13.0535511
20
134.1157778
40
0.8619146
50
179.9790673
51
182.4586753
0
ARC
8
DEFAULT_255_1_388
10
12.8578825
20
134.1474412
40
0.6662543
50
168.615001
51
180.2870547
0
ARC
8
DEFAULT_255_1_388
10
12.7226734
20
134.1739636
40
0.5284705
50
154.9162417
51
168.5402053
0
ARC
8
DEFAULT_255_1_388
10
12.619001
20
134.2251942
40
0.4128641
50
133.5745308
51
155.2559538
0
ARC
8
DEFAULT_255_1_388
10
12.6006853
20
134.2408116
40
0.3889328
50
122.0165845
51
133.2056002
0
ARC
8
DEFAULT_255_1_388
10
12.6047177
20
134.2308977
40
0.3994808
50
97.8732516
51
121.753124
0
ARC
8
DEFAULT_255_1_388
10
12.6248635
20
134.111959
40
0.5200708
50
89.8471322
51
98.2768545
0
ARC
8
DEFAULT_255_1_388
10
12.6303483
20
134.1805809
40
0.4514657
50
73.3760755
51
90.5199878
0
ARC
8
DEFAULT_255_1_388
10
12.6524399
20
134.261855
40
0.3672743
50
47.7085939
51
73.0510707
0
ARC
8
DEFAULT_255_1_388
10
12.6670502
20
134.2745231
40
0.3480795
50
3.7442743
51
48.0844373
0
ARC
8
DEFAULT_255_1_388
10
12.5558496
20
134.2567946
40
0.4603187
50
2.6192831
51
5.0424684
0
ARC
8
DEFAULT_255_1_388
10
12.6073967
20
134.2612986
40
0.2507126
50
3.78087
51
23.9354314
0
ARC
8
DEFAULT_255_1_388
10
12.6331226
20
134.2703644
40
0.2235311
50
24.4867863
51
46.9439952
0
ARC
8
DEFAULT_255_1_388
10
12.6332172
20
134.2729874
40
0.2215567
50
46.4987715
51
89.3298168
0
ARC
8
DEFAULT_255_1_388
10
12.626283
20
134.2063742
40
0.2883121
50
88.1066411
51
90.0063536
0
ARC
8
DEFAULT_255_1_388
10
12.6231806
20
134.2121548
40
0.2825481
50
89.3773571
51
107.2070287
0
ARC
8
DEFAULT_255_1_388
10
12.6071075
20
134.2703667
40
0.2221946
50
107.688418
51
143.3582986
0
ARC
8
DEFAULT_255_1_388
10
12.6709369
20
134.2224064
40
0.3020337
50
143.2845866
51
162.9352432
0
ARC
8
DEFAULT_255_1_388
10
12.8403385
20
134.1680401
40
0.4799362
50
162.6652705
51
174.0802646
0
ARC
8
DEFAULT_255_1_388
10
13.0813866
20
134.1400287
40
0.7225942
50
173.8422673
51
180.1784414
0
ARC
8
DEFAULT_255_1_388
10
13.0197536
20
134.1027276
40
0.6609665
50
179.7030218
51
188.2277356
0
ARC
8
DEFAULT_255_1_388
10
12.7833144
20
134.0673143
40
0.4218948
50
188.0630838
51
201.115837
0
ARC
8
DEFAULT_255_1_388
10
12.6598029
20
134.020173
40
0.2896941
50
201.2186162
51
216.9761863
0
ARC
8
DEFAULT_255_1_388
10
12.6090186
20
133.9821225
40
0.2262366
50
217.0136373
51
265.2055518
0
ARC
8
DEFAULT_255_1_388
10
12.6265523
20
134.0858503
40
0.3311837
50
263.6824874
51
270.1042034
0
LINE
8
DEFAULT_255_1_388
10
13.263264
20
134.8506906
11
13.4304234
21
134.8506906
0
LINE
8
DEFAULT_255_1_388
10
13.4304234
20
134.8506906
11
13.4304234
21
134.6139567
0
LINE
8
DEFAULT_255_1_388
10
13.4304234
20
134.6139567
11
13.6129435
21
134.6139567
0
LINE
8
DEFAULT_255_1_388
10
13.6129435
20
134.6139567
11
13.6129435
21
134.484747
0
LINE
8
DEFAULT_255_1_388
10
13.6129435
20
134.484747
11
13.4304234
21
134.484747
0
LINE
8
DEFAULT_255_1_388
10
13.4304234
20
134.484747
11
13.4304234
21
133.8784553
0
LINE
8
DEFAULT_255_1_388
10
13.6174613
20
133.7718347
11
13.6174613
21
133.6363
0
LINE
8
DEFAULT_255_1_388
10
13.263264
20
133.8784553
11
13.263264
21
134.484747
0
LINE
8
DEFAULT_255_1_388
10
13.263264
20
134.484747
11
13.0852618
21
134.484747
0
LINE
8
DEFAULT_255_1_388
10
13.0852618
20
134.484747
11
13.0852618
21
134.6139567
0
LINE
8
DEFAULT_255_1_388
10
13.0852618
20
134.6139567
11
13.263264
21
134.6139567
0
LINE
8
DEFAULT_255_1_388
10
13.263264
20
134.6139567
11
13.263264
21
134.8506906
0
ARC
8
DEFAULT_255_1_388
10
13.6562742
20
133.8772842
40
0.2258538
50
179.7029045
51
187.9180047
0
ARC
8
DEFAULT_255_1_388
10
13.5723316
20
133.8652019
40
0.1410477
50
187.7540838
51
200.2454047
0
ARC
8
DEFAULT_255_1_388
10
13.5250221
20
133.8475591
40
0.0905561
50
200.1304287
51
219.1733455
0
ARC
8
DEFAULT_255_1_388
10
13.5097388
20
133.8371695
40
0.0721626
50
220.4434631
51
249.6169985
0
ARC
8
DEFAULT_255_1_388
10
13.5271614
20
133.8809919
40
0.1193141
50
249.1038184
51
262.7745376
0
ARC
8
DEFAULT_255_1_388
10
13.5370796
20
133.9517481
40
0.1907583
50
262.4921618
51
270.2607019
0
ARC
8
DEFAULT_255_1_388
10
13.5367878
20
133.9759817
40
0.2149929
50
270.309081
51
275.6615459
0
ARC
8
DEFAULT_255_1_388
10
13.5207286
20
134.1448342
40
0.3846066
50
275.5607354
51
279.087751
0
ARC
8
DEFAULT_255_1_388
10
13.4835218
20
134.3809428
40
0.6236283
50
279.0369545
51
281.5000133
0
ARC
8
DEFAULT_255_1_388
10
13.4444486
20
134.5786499
40
0.825157
50
281.4217093
51
282.1031556
0
ARC
8
DEFAULT_255_1_388
10
13.4820461
20
134.1243229
40
0.5064619
50
275.2597791
51
285.5081125
0
ARC
8
DEFAULT_255_1_388
10
13.4889475
20
134.0617452
40
0.4435166
50
270.0268175
51
275.1130565
0
ARC
8
DEFAULT_255_1_388
10
13.4866927
20
133.9124367
40
0.2942182
50
257.3572424
51
270.4795428
0
ARC
8
DEFAULT_255_1_388
10
13.4627197
20
133.8113952
40
0.1903838
50
230.8036715
51
257.7414447
0
ARC
8
DEFAULT_255_1_388
10
13.4550693
20
133.7990723
40
0.1760087
50
219.9745381
51
230.1985446
0
ARC
8
DEFAULT_255_1_388
10
13.492398
20
133.8276116
40
0.2229598
50
196.5081334
51
219.4319996
0
ARC
8
DEFAULT_255_1_388
10
13.6066592
20
133.8634617
40
0.3427033
50
184.6408645
51
196.8266009
0
ARC
8
DEFAULT_255_1_388
10
13.7467497
20
133.877601
40
0.4834863
50
179.8987586
51
184.9677262
0
LINE
8
DEFAULT_255_1_388
10
13.9897298
20
134.6139567
11
13.9897298
21
133.6363
0
LINE
8
DEFAULT_255_1_388
10
13.9897298
20
133.6363
11
13.8225704
21
133.6363
0
LINE
8
DEFAULT_255_1_388
10
13.8225704
20
133.6363
11
13.8225704
21
134.6139567
0
LINE
8
DEFAULT_255_1_388
10
13.8225704
20
134.6139567
11
13.9897298
21
134.6139567
0
ARC
8
DEFAULT_255_1_388
10
13.9191066
20
134.8743428
40
0.1100948
50
161.4148232
51
180.5532607
0
ARC
8
DEFAULT_255_1_388
10
13.9051376
20
134.8781875
40
0.0956324
50
138.1830164
51
160.9307633
0
ARC
8
DEFAULT_255_1_388
10
13.8927563
20
134.8889313
40
0.0792417
50
104.6371663
51
138.0036136
0
ARC
8
DEFAULT_255_1_388
10
13.9048102
20
134.8476963
40
0.1221906
50
92.0601206
51
105.2198859
0
ARC
8
DEFAULT_255_1_388
10
13.9074466
20
134.8088583
40
0.161103
50
89.9790681
51
92.5006086
0
ARC
8
DEFAULT_255_1_388
10
13.9085642
20
134.8344998
40
0.1354654
50
78.0234649
51
90.4478111
0
ARC
8
DEFAULT_255_1_388
10
13.9189227
20
134.8810203
40
0.0878096
50
55.0521508
51
78.336297
0
ARC
8
DEFAULT_255_1_388
10
13.9245761
20
134.8905168
40
0.0767913
50
42.0506198
51
54.4508489
0
ARC
8
DEFAULT_255_1_388
10
13.9093794
20
134.8765821
40
0.0974091
50
1.7493657
51
42.1498724
0
ARC
8
DEFAULT_255_1_388
10
13.88077
20
134.8733166
40
0.1261276
50
359.9832635
51
2.8353994
0
ARC
8
DEFAULT_255_1_388
10
13.8994109
20
134.8722412
40
0.1074916
50
342.1062453
51
0.5535864
0
ARC
8
DEFAULT_255_1_388
10
13.9154534
20
134.8678197
40
0.0908695
50
316.7110111
51
341.6513114
0
ARC
8
DEFAULT_255_1_388
10
13.9229966
20
134.8610607
40
0.0807447
50
285.4398289
51
316.5320129
0
ARC
8
DEFAULT_255_1_388
10
13.9106136
20
134.9022023
40
0.1237022
50
272.3543902
51
285.8951677
0
ARC
8
DEFAULT_255_1_388
10
13.9075846
20
134.9437742
40
0.1653687
50
269.9725761
51
272.8112722
0
ARC
8
DEFAULT_255_1_388
10
13.9064898
20
134.9186727
40
0.1402709
50
258.8433431
51
270.4148607
0
ARC
8
DEFAULT_255_1_388
10
13.8963678
20
134.8696739
40
0.0902407
50
238.54281
51
259.1289544
0
ARC
8
DEFAULT_255_1_388
10
13.8887
20
134.8557694
40
0.0743817
50
222.5056676
51
237.9918132
0
ARC
8
DEFAULT_255_1_388
10
13.9030593
20
134.8688295
40
0.0937918
50
184.1070774
51
222.4604165
0
ARC
8
DEFAULT_255_1_388
10
13.9333007
20
134.8731538
40
0.1242838
50
179.9419581
51
185.0970785
0
LINE
8
DEFAULT_255_1_388
10
14.3312772
20
134.6139567
11
14.5797574
21
133.8630947
0
LINE
8
DEFAULT_255_1_388
10
14.5797574
20
133.8630947
11
14.8219127
21
134.6139567
0
LINE
8
DEFAULT_255_1_388
10
14.8219127
20
134.6139567
11
14.9926864
21
134.6139567
0
LINE
8
DEFAULT_255_1_388
10
14.9926864
20
134.6139567
11
14.6421034
21
133.6363
0
LINE
8
DEFAULT_255_1_388
10
14.6421034
20
133.6363
11
14.5147008
21
133.6363
0
LINE
8
DEFAULT_255_1_388
10
14.5147008
20
133.6363
11
14.1605035
21
134.6139567
0
LINE
8
DEFAULT_255_1_388
10
14.1605035
20
134.6139567
11
14.3312772
21
134.6139567
0
LINE
8
DEFAULT_255_1_388
10
15.3351373
20
134.6139567
11
15.3351373
21
133.6363
0
LINE
8
DEFAULT_255_1_388
10
15.3351373
20
133.6363
11
15.1679779
21
133.6363
0
LINE
8
DEFAULT_255_1_388
10
15.1679779
20
133.6363
11
15.1679779
21
134.6139567
0
LINE
8
DEFAULT_255_1_388
10
15.1679779
20
134.6139567
11
15.3351373
21
134.6139567
0
ARC
8
DEFAULT_255_1_388
10
15.2645141
20
134.8743428
40
0.1100948
50
161.4148232
51
180.5532607
0
ARC
8
DEFAULT_255_1_388
10
15.2505451
20
134.8781875
40
0.0956324
50
138.1830164
51
160.9307633
0
ARC
8
DEFAULT_255_1_388
10
15.2381638
20
134.8889313
40
0.0792417
50
104.6371663
51
138.0036136
0
ARC
8
DEFAULT_255_1_388
10
15.2502177
20
134.8476963
40
0.1221906
50
92.0601206
51
105.2198859
0
ARC
8
DEFAULT_255_1_388
10
15.2528541
20
134.8088583
40
0.161103
50
89.9790681
51
92.5006086
0
ARC
8
DEFAULT_255_1_388
10
15.2539717
20
134.8344998
40
0.1354654
50
78.0234649
51
90.4478111
0
ARC
8
DEFAULT_255_1_388
10
15.2643301
20
134.8810203
40
0.0878096
50
55.0521508
51
78.336297
0
ARC
8
DEFAULT_255_1_388
10
15.2699836
20
134.8905168
40
0.0767913
50
42.0506198
51
54.4508489
0
ARC
8
DEFAULT_255_1_388
10
15.2547869
20
134.8765821
40
0.0974091
50
1.7493657
51
42.1498724
0
ARC
8
DEFAULT_255_1_388
10
15.2261774
20
134.8733166
40
0.1261276
50
359.9832635
51
2.8353994
0
ARC
8
DEFAULT_255_1_388
10
15.2448184
20
134.8722412
40
0.1074916
50
342.1062453
51
0.5535864
0
ARC
8
DEFAULT_255_1_388
10
15.2608608
20
134.8678197
40
0.0908695
50
316.7110111
51
341.6513114
0
ARC
8
DEFAULT_255_1_388
10
15.268404
20
134.8610607
40
0.0807447
50
285.4398289
51
316.5320129
0
ARC
8
DEFAULT_255_1_388
10
15.2560211
20
134.9022023
40
0.1237022
50
272.3543902
51
285.8951677
0
ARC
8
DEFAULT_255_1_388
10
15.2529921
20
134.9437742
40
0.1653687
50
269.9725761
51
272.8112722
0
ARC
8
DEFAULT_255_1_388
10
15.2518973
20
134.9186727
40
0.1402709
50
258.8433431
51
270.4148607
0
ARC
8
DEFAULT_255_1_388
10
15.2417753
20
134.8696739
40
0.0902407
50
238.54281
51
259.1289544
0
ARC
8
DEFAULT_255_1_388
10
15.2341074
20
134.8557694
40
0.0743817
50
222.5056676
51
237.9918132
0
ARC
8
DEFAULT_255_1_388
10
15.2484668
20
134.8688295
40
0.0937918
50
184.1070774
51
222.4604165
0
ARC
8
DEFAULT_255_1_388
10
15.2787081
20
134.8731538
40
0.1242838
50
179.9419581
51
185.0970785
0
LINE
8
DEFAULT_255_1_388
10
15.6622276
20
134.8506906
11
15.8293871
21
134.8506906
0
LINE
8
DEFAULT_255_1_388
10
15.8293871
20
134.8506906
11
15.8293871
21
134.6139567
0
LINE
8
DEFAULT_255_1_388
10
15.8293871
20
134.6139567
11
16.0119071
21
134.6139567
0
LINE
8
DEFAULT_255_1_388
10
16.0119071
20
134.6139567
11
16.0119071
21
134.484747
0
LINE
8
DEFAULT_255_1_388
10
16.0119071
20
134.484747
11
15.8293871
21
134.484747
0
LINE
8
DEFAULT_255_1_388
10
15.8293871
20
134.484747
11
15.8293871
21
133.8784553
0
LINE
8
DEFAULT_255_1_388
10
16.0164249
20
133.7718347
11
16.0164249
21
133.6363
0
LINE
8
DEFAULT_255_1_388
10
15.6622276
20
133.8784553
11
15.6622276
21
134.484747
0
LINE
8
DEFAULT_255_1_388
10
15.6622276
20
134.484747
11
15.4842254
21
134.484747
0
LINE
8
DEFAULT_255_1_388
10
15.4842254
20
134.484747
11
15.4842254
21
134.6139567
0
LINE
8
DEFAULT_255_1_388
10
15.4842254
20
134.6139567
11
15.6622276
21
134.6139567
0
LINE
8
DEFAULT_255_1_388
10
15.6622276
20
134.6139567
11
15.6622276
21
134.8506906
0
ARC
8
DEFAULT_255_1_388
10
16.0552378
20
133.8772842
40
0.2258538
50
179.7029045
51
187.9180047
0
ARC
8
DEFAULT_255_1_388
10
15.9712952
20
133.8652019
40
0.1410477
50
187.7540838
51
200.2454047
0
ARC
8
DEFAULT_255_1_388
10
15.9239858
20
133.8475591
40
0.0905561
50
200.1304287
51
219.1733455
0
ARC
8
DEFAULT_255_1_388
10
15.9087024
20
133.8371695
40
0.0721626
50
220.4434631
51
249.6169985
0
ARC
8
DEFAULT_255_1_388
10
15.9261251
20
133.8809919
40
0.1193141
50
249.1038184
51
262.7745376
0
ARC
8
DEFAULT_255_1_388
10
15.9360433
20
133.9517481
40
0.1907583
50
262.4921618
51
270.2607019
0
ARC
8
DEFAULT_255_1_388
10
15.9357515
20
133.9759817
40
0.2149929
50
270.309081
51
275.6615459
0
ARC
8
DEFAULT_255_1_388
10
15.9196922
20
134.1448342
40
0.3846066
50
275.5607354
51
279.087751
0
ARC
8
DEFAULT_255_1_388
10
15.8824854
20
134.3809428
40
0.6236283
50
279.0369545
51
281.5000133
0
ARC
8
DEFAULT_255_1_388
10
15.8434122
20
134.5786499
40
0.825157
50
281.4217093
51
282.1031556
0
ARC
8
DEFAULT_255_1_388
10
15.8810098
20
134.1243229
40
0.5064619
50
275.2597791
51
285.5081125
0
ARC
8
DEFAULT_255_1_388
10
15.8879112
20
134.0617452
40
0.4435166
50
270.0268175
51
275.1130565
0
ARC
8
DEFAULT_255_1_388
10
15.8856563
20
133.9124367
40
0.2942182
50
257.3572424
51
270.4795428
0
ARC
8
DEFAULT_255_1_388
10
15.8616833
20
133.8113952
40
0.1903838
50
230.8036715
51
257.7414447
0
ARC
8
DEFAULT_255_1_388
10
15.8540329
20
133.7990723
40
0.1760087
50
219.9745381
51
230.1985446
0
ARC
8
DEFAULT_255_1_388
10
15.8913617
20
133.8276116
40
0.2229598
50
196.5081334
51
219.4319996
0
ARC
8
DEFAULT_255_1_388
10
16.0056228
20
133.8634617
40
0.3427033
50
184.6408645
51
196.8266009
0
ARC
8
DEFAULT_255_1_388
10
16.1457134
20
133.877601
40
0.4834863
50
179.8987586
51
184.9677262
0
LINE
8
DEFAULT_255_1_388
10
16.2829764
20
134.6139567
11
16.5269388
21
133.881166
0
LINE
8
DEFAULT_255_1_388
10
16.5269388
20
133.881166
11
16.7546371
21
134.6139567
0
LINE
8
DEFAULT_255_1_388
10
16.7546371
20
134.6139567
11
16.9335428
21
134.6139567
0
LINE
8
DEFAULT_255_1_388
10
16.9335428
20
134.6139567
11
16.5404923
21
133.4854047
0
LINE
8
DEFAULT_255_1_388
10
16.2504481
20
133.2414423
11
16.2188233
21
133.244153
0
LINE
8
DEFAULT_255_1_388
10
16.2188233
20
133.244153
11
16.1564774
21
133.2558994
0
LINE
8
DEFAULT_255_1_388
10
16.1564774
20
133.2558994
11
16.1564774
21
133.391434
0
LINE
8
DEFAULT_255_1_388
10
16.1564774
20
133.391434
11
16.2016556
21
133.3878198
0
LINE
8
DEFAULT_255_1_388
10
16.4121861
20
133.5477507
11
16.4492323
21
133.6471428
0
LINE
8
DEFAULT_255_1_388
10
16.4492323
20
133.6471428
11
16.1004564
21
134.6139567
0
LINE
8
DEFAULT_255_1_388
10
16.1004564
20
134.6139567
11
16.2829764
21
134.6139567
0
ARC
8
DEFAULT_255_1_388
10
16.0190998
20
133.6749303
40
0.5547703
50
327.7224407
51
340.0238521
0
ARC
8
DEFAULT_255_1_388
10
16.2162157
20
133.5476231
40
0.3201385
50
305.2165641
51
328.1467003
0
ARC
8
DEFAULT_255_1_388
10
16.2550379
20
133.5016258
40
0.260224
50
268.9893726
51
304.0733864
0
ARC
8
DEFAULT_255_1_388
10
16.2033137
20
133.7292952
40
0.3414794
50
269.7217889
51
278.0406077
0
ARC
8
DEFAULT_255_1_388
10
16.220839
20
133.6100724
40
0.2209783
50
277.8651481
51
290.8634591
0
ARC
8
DEFAULT_255_1_388
10
16.2442371
20
133.5475914
40
0.1542617
50
291.0076566
51
305.5961613
0
ARC
8
DEFAULT_255_1_388
10
16.2421246
20
133.5458164
40
0.1540723
50
306.6192176
51
324.1022951
0
ARC
8
DEFAULT_255_1_388
10
16.1580896
20
133.6081842
40
0.2587177
50
323.8256989
51
334.2991437
0
ARC
8
DEFAULT_255_1_388
10
16.0181584
20
133.6769118
40
0.4146127
50
334.1272297
51
340.8153479
0
ARC
8
DEFAULT_255_1_388
10
15.9122103
20
133.7160101
40
0.5275293
50
340.5860638
51
341.400105
0
LINE
8
DEFAULT_255_1_388
10
17.9274637
20
133.7727382
11
17.9274637
21
133.6363
0
LINE
8
DEFAULT_255_1_388
10
17.9274637
20
133.6363
11
17.0654632
21
133.6363
0
LINE
8
DEFAULT_255_1_388
10
17.0654632
20
133.6363
11
17.0654632
21
133.7564741
0
LINE
8
DEFAULT_255_1_388
10
17.0654632
20
133.7564741
11
17.5208597
21
134.2624702
0
LINE
8
DEFAULT_255_1_388
10
17.2073229
20
134.5642607
11
17.0401634
21
134.5642607
0
LINE
8
DEFAULT_255_1_388
10
17.6193482
20
134.154946
11
17.2669581
21
133.7727382
0
LINE
8
DEFAULT_255_1_388
10
17.2669581
20
133.7727382
11
17.9274637
21
133.7727382
0
ARC
8
DEFAULT_255_1_388
10
16.0032657
20
135.6044983
40
2.0258655
50
318.5132526
51
320.7829045
0
ARC
8
DEFAULT_255_1_388
10
16.5980614
20
135.1203929
40
1.2589638
50
320.7372878
51
323.9739031
0
ARC
8
DEFAULT_255_1_388
10
17.0389545
20
134.8009554
40
0.7145141
50
323.8962701
51
328.64194
0
ARC
8
DEFAULT_255_1_388
10
17.2691803
20
134.6589545
40
0.4440242
50
328.8294576
51
331.7891185
0
ARC
8
DEFAULT_255_1_388
10
17.3814123
20
134.6010374
40
0.3177517
50
331.4254512
51
352.9365785
0
ARC
8
DEFAULT_255_1_388
10
17.3967123
20
134.597605
40
0.3021496
50
353.2257659
51
0.0166158
0
ARC
8
DEFAULT_255_1_388
10
17.4203884
20
134.6001894
40
0.2784847
50
359.486299
51
15.9343185
0
ARC
8
DEFAULT_255_1_388
10
17.477415
20
134.6155269
40
0.2194403
50
16.1712913
51
43.5286088
0
ARC
8
DEFAULT_255_1_388
10
17.4861095
20
134.6242191
40
0.2071504
50
43.4417391
51
83.1661095
0
ARC
8
DEFAULT_255_1_388
10
17.4710256
20
134.5413316
40
0.2912888
50
82.160179
51
90.1505708
0
ARC
8
DEFAULT_255_1_388
10
17.4674738
20
134.4809279
40
0.3517025
50
89.5460741
51
102.5418361
0
ARC
8
DEFAULT_255_1_388
10
17.4401458
20
134.5968933
40
0.2325748
50
102.1738499
51
129.206123
0
ARC
8
DEFAULT_255_1_388
10
17.4312911
20
134.6108664
40
0.2161591
50
129.72865
51
135.753947
0
ARC
8
DEFAULT_255_1_388
10
17.4449393
20
134.5999728
40
0.2335433
50
136.1757367
51
166.3673339
0
ARC
8
DEFAULT_255_1_388
10
17.5582082
20
134.5696148
40
0.3507873
50
165.9090694
51
178.8684636
0
ARC
8
DEFAULT_255_1_388
10
17.6557853
20
134.5643263
40
0.4484624
50
178.4391136
51
180.0083808
0
ARC
8
DEFAULT_255_1_388
10
17.4978555
20
134.5687197
40
0.4577138
50
163.2878482
51
180.5581842
0
ARC
8
DEFAULT_255_1_388
10
17.4076596
20
134.5935393
40
0.3641968
50
133.4540601
51
162.947111
0
ARC
8
DEFAULT_255_1_388
10
17.4277478
20
134.5721789
40
0.3935189
50
100.7869829
51
133.4382499
0
ARC
8
DEFAULT_255_1_388
10
17.4668723
20
134.3979399
40
0.5720313
50
89.660664
51
101.3702276
0
ARC
8
DEFAULT_255_1_388
10
17.4743331
20
134.4048263
40
0.5651495
50
78.2172678
51
90.412935
0
ARC
8
DEFAULT_255_1_388
10
17.5142797
20
134.5875511
40
0.378122
50
55.9269121
51
78.4888449
0
ARC
8
DEFAULT_255_1_388
10
17.5363512
20
134.6256187
40
0.3342379
50
47.929771
51
55.4049217
0
ARC
8
DEFAULT_255_1_388
10
17.5478043
20
134.6372618
40
0.3179217
50
4.334829
51
48.0560205
0
ARC
8
DEFAULT_255_1_388
10
17.4245844
20
134.6181487
40
0.442341
50
359.9251713
51
5.5971671
0
ARC
8
DEFAULT_255_1_388
10
17.4727999
20
134.6244728
40
0.3941854
50
337.8914027
51
358.9967534
0
ARC
8
DEFAULT_255_1_388
10
17.1675569
20
134.7422295
40
0.7213271
50
326.9132501
51
338.3508308
0
ARC
8
DEFAULT_255_1_388
10
16.7191681
20
135.0296105
40
1.2538973
50
319.6471833
51
327.0959558
0
ARC
8
DEFAULT_255_1_388
10
16.2878339
20
135.385405
40
1.8129975
50
317.2588228
51
319.9045804
0
LINE
8
DEFAULT_255_1_388
10
18.9295167
20
134.414269
11
18.9295167
21
134.1974135
0
LINE
8
DEFAULT_255_1_388
10
18.099141
20
134.1748244
11
18.099141
21
134.3980048
0
LINE
8
DEFAULT_255_1_388
10
18.7623573
20
134.1522353
11
18.7623573
21
134.4260153
0
LINE
8
DEFAULT_255_1_388
10
18.2663004
20
134.4386652
11
18.2663004
21
134.1712102
0
ARC
8
DEFAULT_255_1_388
10
17.5517501
20
134.1919118
40
1.3777776
50
353.8440855
51
0.2287917
0
ARC
8
DEFAULT_255_1_388
10
18.0736518
20
134.1336414
40
0.852639
50
344.4934746
51
353.9763743
0
ARC
8
DEFAULT_255_1_388
10
18.4103326
20
134.0379191
40
0.5026273
50
329.2803599
51
344.7473406
0
ARC
8
DEFAULT_255_1_388
10
18.5218821
20
133.9767038
40
0.3754848
50
324.9361395
51
328.6153007
0
ARC
8
DEFAULT_255_1_388
10
18.5644471
20
133.9469586
40
0.3235566
50
280.5801797
51
324.9173226
0
ARC
8
DEFAULT_255_1_388
10
18.51931
20
134.1349236
40
0.5167077
50
269.5979457
51
281.6732777
0
ARC
8
DEFAULT_255_1_388
10
18.5112003
20
134.1214113
40
0.5032026
50
256.6228565
51
270.5105488
0
ARC
8
DEFAULT_255_1_388
10
18.4659746
20
133.9472345
40
0.3233092
50
215.8618351
51
257.2787793
0
ARC
8
DEFAULT_255_1_388
10
18.5808453
20
134.0243106
40
0.4615831
50
197.9695203
51
215.2622745
0
ARC
8
DEFAULT_255_1_388
10
18.8604129
20
134.1186641
40
0.7566307
50
187.8816486
51
198.2346584
0
ARC
8
DEFAULT_255_1_388
10
19.3057367
20
134.1829453
40
1.2065653
50
180.8977266
51
188.0054894
0
ARC
8
DEFAULT_255_1_388
10
19.6107581
20
134.19444
40
1.5117443
50
180.7434591
51
181.152202
0
ARC
8
DEFAULT_255_1_388
10
19.4432576
20
134.4034371
40
1.3441277
50
173.7674302
51
180.2315596
0
ARC
8
DEFAULT_255_1_388
10
18.9350445
20
134.4608779
40
0.8326847
50
164.3058537
51
173.9000553
0
ARC
8
DEFAULT_255_1_388
10
18.6074445
20
134.5552652
40
0.4917711
50
148.7922028
51
164.5682288
0
ARC
8
DEFAULT_255_1_388
10
18.5005183
20
134.6149457
40
0.3694204
50
144.5883979
51
148.1161588
0
ARC
8
DEFAULT_255_1_388
10
18.4617928
20
134.6419667
40
0.322202
50
101.6440149
51
144.5142619
0
ARC
8
DEFAULT_255_1_388
10
18.509612
20
134.4519337
40
0.5180451
50
89.528284
51
102.5820197
0
ARC
8
DEFAULT_255_1_388
10
18.5185112
20
134.4475376
40
0.5224441
50
77.0437914
51
90.508231
0
ARC
8
DEFAULT_255_1_388
10
18.5637366
20
134.6323272
40
0.3322297
50
48.2777708
51
77.4996087
0
ARC
8
DEFAULT_255_1_388
10
18.5719106
20
134.6468557
40
0.315966
50
36.3141586
51
47.6307332
0
ARC
8
DEFAULT_255_1_388
10
18.4741828
20
134.5810159
40
0.4337313
50
18.2931065
51
35.6770203
0
ARC
8
DEFAULT_255_1_388
10
18.1880669
20
134.4828107
40
0.7362203
50
8.0246996
51
18.5605636
0
ARC
8
DEFAULT_255_1_388
10
17.7197024
20
134.4136432
40
1.2096583
50
1.127539
51
8.1718423
0
ARC
8
DEFAULT_255_1_388
10
17.3548158
20
134.3993374
40
1.5747719
50
0.5432713
51
1.38669
0
ARC
8
DEFAULT_255_1_388
10
17.5605537
20
134.4300163
40
1.2018103
50
359.8092569
51
4.9408001
0
ARC
8
DEFAULT_255_1_388
10
18.0342118
20
134.47229
40
0.7262727
50
4.8364937
51
12.2906017
0
ARC
8
DEFAULT_255_1_388
10
18.3441583
20
134.5413485
40
0.4087324
50
12.0806994
51
23.8171225
0
ARC
8
DEFAULT_255_1_388
10
18.4761979
20
134.5972508
40
0.2653719
50
24.2874621
51
31.3934353
0
ARC
8
DEFAULT_255_1_388
10
18.5352415
20
134.6358822
40
0.1948607
50
30.7407708
51
82.4658033
0
ARC
8
DEFAULT_255_1_388
10
18.5150075
20
134.5365017
40
0.2961198
50
81.1057101
51
90.2187368
0
ARC
8
DEFAULT_255_1_388
10
18.5109887
20
134.5655421
40
0.2670929
50
89.380395
51
105.6763916
0
ARC
8
DEFAULT_255_1_388
10
18.4903609
20
134.640532
40
0.1893189
50
105.7980655
51
149.7387869
0
ARC
8
DEFAULT_255_1_388
10
18.6100749
20
134.5685719
40
0.3289892
50
149.4208441
51
163.628295
0
ARC
8
DEFAULT_255_1_388
10
18.8452979
20
134.4968345
40
0.5749004
50
163.3764549
51
172.141138
0
ARC
8
DEFAULT_255_1_388
10
19.21657
20
134.4436582
40
0.9499585
50
172.0258462
51
178.0705453
0
ARC
8
DEFAULT_255_1_388
10
19.5587253
20
134.4274682
40
1.2924734
50
177.8639301
51
179.5036263
0
ARC
8
DEFAULT_255_1_388
10
19.4368272
20
134.1671151
40
1.170534
50
179.7995545
51
185.246089
0
ARC
8
DEFAULT_255_1_388
10
18.9819865
20
134.1240404
40
0.7136613
50
185.1411911
51
193.0082205
0
ARC
8
DEFAULT_255_1_388
10
18.6846126
20
134.0537441
40
0.4080987
50
192.7897338
51
205.2507384
0
ARC
8
DEFAULT_255_1_388
10
18.5668336
20
134.0011538
40
0.2791522
50
205.8001921
51
211.2545876
0
ARC
8
DEFAULT_255_1_388
10
18.5079875
20
133.9617132
40
0.2084074
50
210.3789935
51
238.4007996
0
ARC
8
DEFAULT_255_1_388
10
18.5057961
20
133.9669786
40
0.2117943
50
239.6521916
51
265.9793852
0
ARC
8
DEFAULT_255_1_388
10
18.515381
20
134.0426358
40
0.2879689
50
265.1324455
51
270.0603288
0
ARC
8
DEFAULT_255_1_388
10
18.5186187
20
134.0061418
40
0.2514919
50
269.3314378
51
287.2180039
0
ARC
8
DEFAULT_255_1_388
10
18.5341269
20
133.9495291
40
0.1928357
50
287.7957942
51
329.0808983
0
ARC
8
DEFAULT_255_1_388
10
18.4264026
20
134.0167651
40
0.319808
50
328.6635261
51
343.3325043
0
ARC
8
DEFAULT_255_1_388
10
18.1819485
20
134.0929195
40
0.5758408
50
343.0498092
51
351.9392499
0
ARC
8
DEFAULT_255_1_388
10
17.7918806
20
134.1504205
40
0.9701202
50
351.8071632
51
357.7957897
0
ARC
8
DEFAULT_255_1_388
10
17.4284283
20
134.1692724
40
1.3340376
50
357.5870923
51
359.2682493
0
LINE
8
DEFAULT_255_1_388
10
19.9686158
20
134.414269
11
19.9686158
21
134.1974135
0
LINE
8
DEFAULT_255_1_388
10
19.1382401
20
134.1748244
11
19.1382401
21
134.3980048
0
LINE
8
DEFAULT_255_1_388
10
19.8014564
20
134.1522353
11
19.8014564
21
134.4260153
0
LINE
8
DEFAULT_255_1_388
10
19.3053995
20
134.4386652
11
19.3053995
21
134.1712102
0
ARC
8
DEFAULT_255_1_388
10
18.5908492
20
134.1919118
40
1.3777776
50
353.8440855
51
0.2287917
0
ARC
8
DEFAULT_255_1_388
10
19.112751
20
134.1336414
40
0.852639
50
344.4934746
51
353.9763743
0
ARC
8
DEFAULT_255_1_388
10
19.4494317
20
134.0379191
40
0.5026273
50
329.2803599
51
344.7473406
0
ARC
8
DEFAULT_255_1_388
10
19.5609812
20
133.9767038
40
0.3754848
50
324.9361395
51
328.6153007
0
ARC
8
DEFAULT_255_1_388
10
19.6035462
20
133.9469586
40
0.3235566
50
280.5801797
51
324.9173226
0
ARC
8
DEFAULT_255_1_388
10
19.5584091
20
134.1349236
40
0.5167077
50
269.5979457
51
281.6732777
0
ARC
8
DEFAULT_255_1_388
10
19.5502994
20
134.1214113
40
0.5032026
50
256.6228565
51
270.5105488
0
ARC
8
DEFAULT_255_1_388
10
19.5050737
20
133.9472345
40
0.3233092
50
215.8618351
51
257.2787793
0
ARC
8
DEFAULT_255_1_388
10
19.6199444
20
134.0243106
40
0.4615831
50
197.9695203
51
215.2622745
0
ARC
8
DEFAULT_255_1_388
10
19.899512
20
134.1186641
40
0.7566307
50
187.8816486
51
198.2346584
0
ARC
8
DEFAULT_255_1_388
10
20.3448358
20
134.1829453
40
1.2065653
50
180.8977266
51
188.0054894
0
ARC
8
DEFAULT_255_1_388
10
20.6498572
20
134.19444
40
1.5117443
50
180.7434591
51
181.152202
0
ARC
8
DEFAULT_255_1_388
10
20.4823568
20
134.4034371
40
1.3441277
50
173.7674302
51
180.2315596
0
ARC
8
DEFAULT_255_1_388
10
19.9741437
20
134.4608779
40
0.8326847
50
164.3058537
51
173.9000553
0
ARC
8
DEFAULT_255_1_388
10
19.6465437
20
134.5552652
40
0.4917711
50
148.7922028
51
164.5682288
0
ARC
8
DEFAULT_255_1_388
10
19.5396174
20
134.6149457
40
0.3694204
50
144.5883979
51
148.1161588
0
ARC
8
DEFAULT_255_1_388
10
19.5008919
20
134.6419667
40
0.322202
50
101.6440149
51
144.5142619
0
ARC
8
DEFAULT_255_1_388
10
19.5487112
20
134.4519337
40
0.5180451
50
89.528284
51
102.5820197
0
ARC
8
DEFAULT_255_1_388
10
19.5576103
20
134.4475376
40
0.5224441
50
77.0437914
51
90.508231
0
ARC
8
DEFAULT_255_1_388
10
19.6028357
20
134.6323272
40
0.3322297
50
48.2777708
51
77.4996087
0
ARC
8
DEFAULT_255_1_388
10
19.6110097
20
134.6468557
40
0.315966
50
36.3141586
51
47.6307332
0
ARC
8
DEFAULT_255_1_388
10
19.5132819
20
134.5810159
40
0.4337313
50
18.2931065
51
35.6770203
0
ARC
8
DEFAULT_255_1_388
10
19.227166
20
134.4828107
40
0.7362203
50
8.0246996
51
18.5605636
0
ARC
8
DEFAULT_255_1_388
10
18.7588016
20
134.4136432
40
1.2096583
50
1.127539
51
8.1718423
0
ARC
8
DEFAULT_255_1_388
10
18.3939149
20
134.3993374
40
1.5747719
50
0.5432713
51
1.38669
0
ARC
8
DEFAULT_255_1_388
10
18.5996528
20
134.4300163
40
1.2018103
50
359.8092569
51
4.9408001
0
ARC
8
DEFAULT_255_1_388
10
19.0733109
20
134.47229
40
0.7262727
50
4.8364937
51
12.2906017
0
ARC
8
DEFAULT_255_1_388
10
19.3832574
20
134.5413485
40
0.4087324
50
12.0806994
51
23.8171225
0
ARC
8
DEFAULT_255_1_388
10
19.515297
20
134.5972508
40
0.2653719
50
24.2874621
51
31.3934353
0
ARC
8
DEFAULT_255_1_388
10
19.5743406
20
134.6358822
40
0.1948607
50
30.7407708
51
82.4658033
0
ARC
8
DEFAULT_255_1_388
10
19.5541067
20
134.5365017
40
0.2961198
50
81.1057101
51
90.2187368
0
ARC
8
DEFAULT_255_1_388
10
19.5500878
20
134.5655421
40
0.2670929
50
89.380395
51
105.6763916
0
ARC
8
DEFAULT_255_1_388
10
19.52946
20
134.640532
40
0.1893189
50
105.7980655
51
149.7387869
0
ARC
8
DEFAULT_255_1_388
10
19.649174
20
134.5685719
40
0.3289892
50
149.4208441
51
163.628295
0
ARC
8
DEFAULT_255_1_388
10
19.884397
20
134.4968345
40
0.5749004
50
163.3764549
51
172.141138
0
ARC
8
DEFAULT_255_1_388
10
20.2556692
20
134.4436582
40
0.9499585
50
172.0258462
51
178.0705453
0
ARC
8
DEFAULT_255_1_388
10
20.5978244
20
134.4274682
40
1.2924734
50
177.8639301
51
179.5036263
0
ARC
8
DEFAULT_255_1_388
10
20.4759263
20
134.1671151
40
1.170534
50
179.7995545
51
185.246089
0
ARC
8
DEFAULT_255_1_388
10
20.0210856
20
134.1240404
40
0.7136613
50
185.1411911
51
193.0082205
0
ARC
8
DEFAULT_255_1_388
10
19.7237117
20
134.0537441
40
0.4080987
50
192.7897338
51
205.2507384
0
ARC
8
DEFAULT_255_1_388
10
19.6059327
20
134.0011538
40
0.2791522
50
205.8001921
51
211.2545876
0
ARC
8
DEFAULT_255_1_388
10
19.5470866
20
133.9617132
40
0.2084074
50
210.3789935
51
238.4007996
0
ARC
8
DEFAULT_255_1_388
10
19.5448952
20
133.9669786
40
0.2117943
50
239.6521916
51
265.9793852
0
ARC
8
DEFAULT_255_1_388
10
19.5544801
20
134.0426358
40
0.2879689
50
265.1324455
51
270.0603288
0
ARC
8
DEFAULT_255_1_388
10
19.5577178
20
134.0061418
40
0.2514919
50
269.3314378
51
287.2180039
0
ARC
8
DEFAULT_255_1_388
10
19.573226
20
133.9495291
40
0.1928357
50
287.7957942
51
329.0808983
0
ARC
8
DEFAULT_255_1_388
10
19.4655017
20
134.0167651
40
0.319808
50
328.6635261
51
343.3325043
0
ARC
8
DEFAULT_255_1_388
10
19.2210476
20
134.0929195
40
0.5758408
50
343.0498092
51
351.9392499
0
ARC
8
DEFAULT_255_1_388
10
18.8309797
20
134.1504205
40
0.9701202
50
351.8071632
51
357.7957897
0
ARC
8
DEFAULT_255_1_388
10
18.4675274
20
134.1692724
40
1.3340376
50
357.5870923
51
359.2682493
0
LINE
8
DEFAULT_255_1_388
10
21.0077149
20
134.414269
11
21.0077149
21
134.1974135
0
LINE
8
DEFAULT_255_1_388
10
20.1773392
20
134.1748244
11
20.1773392
21
134.3980048
0
LINE
8
DEFAULT_255_1_388
10
20.8405555
20
134.1522353
11
20.8405555
21
134.4260153
0
LINE
8
DEFAULT_255_1_388
10
20.3444986
20
134.4386652
11
20.3444986
21
134.1712102
0
ARC
8
DEFAULT_255_1_388
10
19.6299483
20
134.1919118
40
1.3777776
50
353.8440855
51
0.2287917
0
ARC
8
DEFAULT_255_1_388
10
20.1518501
20
134.1336414
40
0.852639
50
344.4934746
51
353.9763743
0
ARC
8
DEFAULT_255_1_388
10
20.4885308
20
134.0379191
40
0.5026273
50
329.2803599
51
344.7473406
0
ARC
8
DEFAULT_255_1_388
10
20.6000804
20
133.9767038
40
0.3754848
50
324.9361395
51
328.6153007
0
ARC
8
DEFAULT_255_1_388
10
20.6426453
20
133.9469586
40
0.3235566
50
280.5801797
51
324.9173226
0
ARC
8
DEFAULT_255_1_388
10
20.5975082
20
134.1349236
40
0.5167077
50
269.5979457
51
281.6732777
0
ARC
8
DEFAULT_255_1_388
10
20.5893986
20
134.1214113
40
0.5032026
50
256.6228565
51
270.5105488
0
ARC
8
DEFAULT_255_1_388
10
20.5441728
20
133.9472345
40
0.3233092
50
215.8618351
51
257.2787793
0
ARC
8
DEFAULT_255_1_388
10
20.6590435
20
134.0243106
40
0.4615831
50
197.9695203
51
215.2622745
0
ARC
8
DEFAULT_255_1_388
10
20.9386111
20
134.1186641
40
0.7566307
50
187.8816486
51
198.2346584
0
ARC
8
DEFAULT_255_1_388
10
21.3839349
20
134.1829453
40
1.2065653
50
180.8977266
51
188.0054894
0
ARC
8
DEFAULT_255_1_388
10
21.6889563
20
134.19444
40
1.5117443
50
180.7434591
51
181.152202
0
ARC
8
DEFAULT_255_1_388
10
21.5214559
20
134.4034371
40
1.3441277
50
173.7674302
51
180.2315596
0
ARC
8
DEFAULT_255_1_388
10
21.0132428
20
134.4608779
40
0.8326847
50
164.3058537
51
173.9000553
0
ARC
8
DEFAULT_255_1_388
10
20.6856428
20
134.5552652
40
0.4917711
50
148.7922028
51
164.5682288
0
ARC
8
DEFAULT_255_1_388
10
20.5787165
20
134.6149457
40
0.3694204
50
144.5883979
51
148.1161588
0
ARC
8
DEFAULT_255_1_388
10
20.5399911
20
134.6419667
40
0.322202
50
101.6440149
51
144.5142619
0
ARC
8
DEFAULT_255_1_388
10
20.5878103
20
134.4519337
40
0.5180451
50
89.528284
51
102.5820197
0
ARC
8
DEFAULT_255_1_388
10
20.5967095
20
134.4475376
40
0.5224441
50
77.0437914
51
90.508231
0
ARC
8
DEFAULT_255_1_388
10
20.6419348
20
134.6323272
40
0.3322297
50
48.2777708
51
77.4996087
0
ARC
8
DEFAULT_255_1_388
10
20.6501088
20
134.6468557
40
0.315966
50
36.3141586
51
47.6307332
0
ARC
8
DEFAULT_255_1_388
10
20.5523811
20
134.5810159
40
0.4337313
50
18.2931065
51
35.6770203
0
ARC
8
DEFAULT_255_1_388
10
20.2662651
20
134.4828107
40
0.7362203
50
8.0246996
51
18.5605636
0
ARC
8
DEFAULT_255_1_388
10
19.7979007
20
134.4136432
40
1.2096583
50
1.127539
51
8.1718423
0
ARC
8
DEFAULT_255_1_388
10
19.433014
20
134.3993374
40
1.5747719
50
0.5432713
51
1.38669
0
ARC
8
DEFAULT_255_1_388
10
19.6387519
20
134.4300163
40
1.2018103
50
359.8092569
51
4.9408001
0
ARC
8
DEFAULT_255_1_388
10
20.11241
20
134.47229
40
0.7262727
50
4.8364937
51
12.2906017
0
ARC
8
DEFAULT_255_1_388
10
20.4223565
20
134.5413485
40
0.4087324
50
12.0806994
51
23.8171225
0
ARC
8
DEFAULT_255_1_388
10
20.5543961
20
134.5972508
40
0.2653719
50
24.2874621
51
31.3934353
0
ARC
8
DEFAULT_255_1_388
10
20.6134397
20
134.6358822
40
0.1948607
50
30.7407708
51
82.4658033
0
ARC
8
DEFAULT_255_1_388
10
20.5932058
20
134.5365017
40
0.2961198
50
81.1057101
51
90.2187368
0
ARC
8
DEFAULT_255_1_388
10
20.589187
20
134.5655421
40
0.2670929
50
89.380395
51
105.6763916
0
ARC
8
DEFAULT_255_1_388
10
20.5685592
20
134.640532
40
0.1893189
50
105.7980655
51
149.7387869
0
ARC
8
DEFAULT_255_1_388
10
20.6882732
20
134.5685719
40
0.3289892
50
149.4208441
51
163.628295
0
ARC
8
DEFAULT_255_1_388
10
20.9234961
20
134.4968345
40
0.5749004
50
163.3764549
51
172.141138
0
ARC
8
DEFAULT_255_1_388
10
21.2947683
20
134.4436582
40
0.9499585
50
172.0258462
51
178.0705453
0
ARC
8
DEFAULT_255_1_388
10
21.6369236
20
134.4274682
40
1.2924734
50
177.8639301
51
179.5036263
0
ARC
8
DEFAULT_255_1_388
10
21.5150254
20
134.1671151
40
1.170534
50
179.7995545
51
185.246089
0
ARC
8
DEFAULT_255_1_388
10
21.0601847
20
134.1240404
40
0.7136613
50
185.1411911
51
193.0082205
0
ARC
8
DEFAULT_255_1_388
10
20.7628108
20
134.0537441
40
0.4080987
50
192.7897338
51
205.2507384
0
ARC
8
DEFAULT_255_1_388
10
20.6450318
20
134.0011538
40
0.2791522
50
205.8001921
51
211.2545876
0
ARC
8
DEFAULT_255_1_388
10
20.5861857
20
133.9617132
40
0.2084074
50
210.3789935
51
238.4007996
0
ARC
8
DEFAULT_255_1_388
10
20.5839943
20
133.9669786
40
0.2117943
50
239.6521916
51
265.9793852
0
ARC
8
DEFAULT_255_1_388
10
20.5935792
20
134.0426358
40
0.2879689
50
265.1324455
51
270.0603288
0
ARC
8
DEFAULT_255_1_388
10
20.5968169
20
134.0061418
40
0.2514919
50
269.3314378
51
287.2180039
0
ARC
8
DEFAULT_255_1_388
10
20.6123251
20
133.9495291
40
0.1928357
50
287.7957942
51
329.0808983
0
ARC
8
DEFAULT_255_1_388
10
20.5046008
20
134.0167651
40
0.319808
50
328.6635261
51
343.3325043
0
ARC
8
DEFAULT_255_1_388
10
20.2601467
20
134.0929195
40
0.5758408
50
343.0498092
51
351.9392499
0
ARC
8
DEFAULT_255_1_388
10
19.8700789
20
134.1504205
40
0.9701202
50
351.8071632
51
357.7957897
0
ARC
8
DEFAULT_255_1_388
10
19.5066266
20
134.1692724
40
1.3340376
50
357.5870923
51
359.2682493
0
ARC
8
DEFAULT_255_2_778
10
8.4842378
20
137.6308433
40
0.4373747
50
56.3665942
51
72.7074496
0
ARC
8
DEFAULT_255_2_778
10
8.5215053
20
137.7444036
40
0.3178747
50
73.036784
51
89.7973226
0
ARC
8
DEFAULT_255_2_778
10
8.5288513
20
137.7220167
40
0.3403165
50
91.0475309
51
125.5485458
0
ARC
8
DEFAULT_255_2_778
10
8.6945904
20
137.4731582
40
0.6392287
50
124.6669492
51
139.114563
0
ARC
8
DEFAULT_255_2_778
10
8.9360319
20
137.2497476
40
0.9680575
50
138.4713305
51
142.1157612
0
ARC
8
DEFAULT_255_2_778
10
8.5585787
20
137.2804798
40
0.5212765
50
117.7453356
51
135.8758074
0
ARC
8
DEFAULT_255_2_778
10
8.4614378
20
137.4628273
40
0.3146729
50
90.4656379
51
117.5483702
0
ARC
8
DEFAULT_255_2_778
10
8.4553272
20
137.4475634
40
0.3299454
50
64.3679478
51
89.3829577
0
ARC
8
DEFAULT_255_2_778
10
8.4230062
20
137.3659901
40
0.4175182
50
64.8738747
51
65.2115951
0
LINE
8
DEFAULT_255_2_778
10
8.1719896
20
137.8442008
11
8.1719896
21
138.0202008
0
LINE
8
DEFAULT_255_2_778
10
8.1719896
20
138.0202008
11
7.8316896
21
138.0202008
0
LINE
8
DEFAULT_255_2_778
10
7.8316896
20
138.0202008
11
7.8316896
21
136.8015008
0
LINE
8
DEFAULT_255_2_778
10
7.8316896
20
136.8015008
11
8.1970896
21
136.8015008
0
LINE
8
DEFAULT_255_2_778
10
8.1970896
20
136.8015008
11
8.1843896
21
137.6434008
0
LINE
8
DEFAULT_255_2_778
10
8.6002896
20
137.7440008
11
8.7264896
21
137.9950008
0
ARC
8
DEFAULT_255_2_778
10
12.3462297
20
137.1889166
40
0.1058286
50
290.4109967
51
338.4144294
0
ARC
8
DEFAULT_255_2_778
10
12.162295
20
137.558021
40
0.5177505
50
282.5203845
51
295.2483499
0
ARC
8
DEFAULT_255_2_778
10
12.2164596
20
137.4246179
40
0.3756367
50
270.2518229
51
277.9224239
0
ARC
8
DEFAULT_255_2_778
10
12.2019255
20
137.2121058
40
0.163922
50
191.9135594
51
275.6664103
0
ARC
8
DEFAULT_255_2_778
10
12.266424
20
137.3396972
40
0.6680449
50
207.8643513
51
221.7718618
0
ARC
8
DEFAULT_255_2_778
10
12.0489477
20
137.1332613
40
0.3684417
50
220.3588923
51
270.0277924
0
ARC
8
DEFAULT_255_2_778
10
12.0434926
20
137.2653085
40
0.5005206
50
270.6449322
51
287.6494066
0
ARC
8
DEFAULT_255_2_778
10
11.9529907
20
137.5612608
40
0.8099892
50
287.4026496
51
297.6988649
0
ARC
8
DEFAULT_255_2_778
10
11.7449905
20
137.9644576
40
1.2636684
50
297.5514274
51
304.3018591
0
LINE
8
DEFAULT_255_2_778
10
12.0415344
20
137.1782664
11
12.0351344
21
138.0262664
0
LINE
8
DEFAULT_255_2_778
10
12.0351344
20
138.0262664
11
11.6758344
21
138.0262664
0
LINE
8
DEFAULT_255_2_778
10
11.6758344
20
138.0262664
11
11.6758344
21
137.0274664
0
LINE
8
DEFAULT_255_2_778
10
12.4571344
20
136.9205664
11
12.4698344
21
136.8075664
0
LINE
8
DEFAULT_255_2_778
10
12.4698344
20
136.8075664
11
12.8101344
21
136.8075664
0
LINE
8
DEFAULT_255_2_778
10
12.8101344
20
136.8075664
11
12.8101344
21
138.0389664
0
LINE
8
DEFAULT_255_2_778
10
12.8101344
20
138.0389664
11
12.4444344
21
138.0389664
0
LINE
8
DEFAULT_255_2_778
10
12.4444344
20
138.0389664
11
12.4444344
21
137.1467664
0
LINE
8
DEFAULT_255_2_778
10
15.1797344
20
136.8012664
11
15.1797344
21
138.0326664
0
LINE
8
DEFAULT_255_2_778
10
15.1797344
20
138.0326664
11
15.5453344
21
138.0326664
0
LINE
8
DEFAULT_255_2_778
10
15.5453344
20
138.0326664
11
15.5453344
21
136.8012664
0
LINE
8
DEFAULT_255_2_778
10
15.5453344
20
136.8012664
11
15.1797344
21
136.8012664
0
ARC
8
DEFAULT_255_2_778
10
15.3647435
20
138.425366
40
0.1978332
50
90.7257917
51
180.9507563
0
ARC
8
DEFAULT_255_2_778
10
15.3597161
20
138.4254493
40
0.1977501
50
359.0247012
51
89.2694187
0
ARC
8
DEFAULT_255_2_778
10
15.3597161
20
138.4187174
40
0.1977501
50
270.7305813
51
0.9752988
0
ARC
8
DEFAULT_255_2_778
10
15.3647435
20
138.4188007
40
0.1978332
50
179.0492437
51
269.2742083
0
LINE
8
DEFAULT_255_2_778
10
15.1669375
20
138.4220833
11
15.1669375
21
138.4220833
0
LINE
8
DEFAULT_255_2_778
10
16.8729729
20
136.7979854
11
16.8729729
21
138.0293854
0
LINE
8
DEFAULT_255_2_778
10
16.8729729
20
138.0293854
11
17.2386729
21
138.0293854
0
LINE
8
DEFAULT_255_2_778
10
17.2386729
20
138.0293854
11
17.2386729
21
136.7979854
0
LINE
8
DEFAULT_255_2_778
10
17.2386729
20
136.7979854
11
16.8729729
21
136.7979854
0
ARC
8
DEFAULT_255_2_778
10
17.0581435
20
138.422166
40
0.1978332
50
90.7257917
51
180.9507563
0
ARC
8
DEFAULT_255_2_778
10
17.0531161
20
138.4222493
40
0.1977501
50
359.0247012
51
89.2694187
0
ARC
8
DEFAULT_255_2_778
10
17.0531161
20
138.4155174
40
0.1977501
50
270.7305813
51
0.9752988
0
ARC
8
DEFAULT_255_2_778
10
17.0581435
20
138.4156007
40
0.1978332
50
179.0492437
51
269.2742083
0
LINE
8
DEFAULT_255_2_778
10
16.8603375
20
138.4188833
11
16.8603375
21
138.4188833
0
ARC
8
DEFAULT_255_2_778
10
21.970418
20
136.6564227
40
0.3997146
50
186.2131711
51
214.6577436
0
ARC
8
DEFAULT_255_2_778
10
21.8841491
20
136.6168601
40
0.3066997
50
217.744646
51
266.8145684
0
ARC
8
DEFAULT_255_2_778
10
21.9237244
20
136.8277036
40
0.5201599
50
263.7511447
51
266.7848801
0
ARC
8
DEFAULT_255_2_778
10
21.9002471
20
136.6334163
40
0.2402213
50
195.2759813
51
268.6413445
0
ARC
8
DEFAULT_255_2_778
10
22.1728439
20
136.7590818
40
0.5385664
50
193.3133601
51
200.5393414
0
ARC
8
DEFAULT_255_2_778
10
21.9558314
20
136.6061054
40
0.3084425
50
141.9154932
51
174.6130531
0
ARC
8
DEFAULT_255_2_778
10
21.8946765
20
136.6320396
40
0.2449229
50
90.0292982
51
137.86297
0
ARC
8
DEFAULT_255_2_778
10
21.8900311
20
136.6501835
40
0.3117117
50
89.169111
51
162.3562446
0
ARC
8
DEFAULT_255_2_778
10
22.1495641
20
136.5185256
40
0.6007672
50
157.8882743
51
162.6116909
0
ARC
8
DEFAULT_255_2_778
10
13.7518475
20
137.210969
40
0.434232
50
284.0737984
51
307.1283935
0
ARC
8
DEFAULT_255_2_778
10
13.6603344
20
137.5475455
40
0.7829896
50
272.5675489
51
284.5802087
0
ARC
8
DEFAULT_255_2_778
10
13.6344156
20
137.9064403
40
1.1427274
50
269.9523961
51
273.0596894
0
ARC
8
DEFAULT_255_2_778
10
13.6383034
20
138.2881179
40
1.5244123
50
264.3721605
51
269.8181894
0
ARC
8
DEFAULT_255_2_778
10
13.7027881
20
138.9598919
40
2.1992727
50
260.3040359
51
264.4165702
0
ARC
8
DEFAULT_255_2_778
10
13.7920902
20
139.5123156
40
2.75885
50
259.2299789
51
260.4081406
0
ARC
8
DEFAULT_255_2_778
10
13.5130405
20
137.3618783
40
0.6077178
50
188.8927198
51
247.0988028
0
ARC
8
DEFAULT_255_2_778
10
13.8555895
20
137.4530217
40
0.9609548
50
185.1081288
51
191.1050073
0
ARC
8
DEFAULT_255_2_778
10
13.7233792
20
137.380517
40
0.8250312
50
161.5072483
51
180.9066349
0
ARC
8
DEFAULT_255_2_778
10
13.4744453
20
137.4592627
40
0.5639907
50
120.4701872
51
161.0725957
0
ARC
8
DEFAULT_255_2_778
10
13.5600933
20
137.392527
40
0.6661417
50
90.0499347
51
123.9108507
0
ARC
8
DEFAULT_255_2_778
10
13.573003
20
137.235998
40
0.8227812
50
89.9974966
51
90.9394619
0
ARC
8
DEFAULT_255_2_778
10
13.567053
20
137.0749594
40
0.9838382
50
77.8335832
51
89.6513936
0
ARC
8
DEFAULT_255_2_778
10
13.4795686
20
136.6570554
40
1.4107957
50
69.8093959
51
77.9373312
0
ARC
8
DEFAULT_255_2_778
10
13.3760065
20
136.3552908
40
1.7297745
50
69.0266426
51
70.0397415
0
ARC
8
DEFAULT_255_2_778
10
13.5343739
20
136.3772164
40
1.4359408
50
73.9178594
51
79.2452957
0
ARC
8
DEFAULT_255_2_778
10
13.6318735
20
136.8975106
40
0.9065925
50
79.1629935
51
86.6049203
0
ARC
8
DEFAULT_255_2_778
10
13.649902
20
137.148833
40
0.654651
50
86.8774046
51
89.9568351
0
ARC
8
DEFAULT_255_2_778
10
13.64243
20
137.3861025
40
0.4174572
50
88.9067133
51
108.0688095
0
ARC
8
DEFAULT_255_2_778
10
13.5852023
20
137.5598459
40
0.2345328
50
107.942404
51
152.2459688
0
ARC
8
DEFAULT_255_2_778
10
14.2993316
20
137.2295872
40
1.0210941
50
154.5072776
51
162.5682748
0
ARC
8
DEFAULT_255_2_778
10
13.9273868
20
137.3443314
40
0.6318603
50
162.3915767
51
174.8213024
0
ARC
8
DEFAULT_255_2_778
10
13.7622439
20
137.3631421
40
0.4657093
50
175.2922289
51
179.9490984
0
ARC
8
DEFAULT_255_2_778
10
13.635088
20
137.3557528
40
0.338643
50
178.6796766
51
234.9381893
0
ARC
8
DEFAULT_255_2_778
10
13.6327313
20
137.3674177
40
0.3469445
50
236.3635337
51
264.9414885
0
ARC
8
DEFAULT_255_2_778
10
13.6587955
20
137.5429041
40
0.5241505
50
263.7947872
51
270.1188666
0
ARC
8
DEFAULT_255_2_778
10
13.6535226
20
137.7802912
40
0.7615633
50
270.4785196
51
281.0719661
0
ARC
8
DEFAULT_255_2_778
10
13.5692117
20
138.2341518
40
1.2231753
50
280.8649891
51
287.2606546
0
ARC
8
DEFAULT_255_2_778
10
14.6239491
20
139.0670775
40
2.2970478
50
276.5245429
51
279.5045514
0
ARC
8
DEFAULT_255_2_778
10
14.6893389
20
138.4894423
40
1.7157236
50
272.7759418
51
276.5469051
0
ARC
8
DEFAULT_255_2_778
10
14.7091281
20
138.1091849
40
1.3349546
50
270.0439674
51
272.7180028
0
ARC
8
DEFAULT_255_2_778
10
14.7005118
20
137.6410255
40
0.8668484
50
258.6359382
51
270.6372354
0
ARC
8
DEFAULT_255_2_778
10
14.6078537
20
137.2051002
40
0.4212409
50
235.5405817
51
259.3086539
0
ARC
8
DEFAULT_255_2_778
10
14.5467662
20
137.0977689
40
0.2983588
50
181.5929591
51
233.550276
0
ARC
8
DEFAULT_255_2_778
10
14.7449853
20
137.1277298
40
0.4979343
50
179.9387066
51
184.4062155
0
ARC
8
DEFAULT_255_2_778
10
14.8385536
20
137.2237996
40
0.2332136
50
194.3846046
51
259.805052
0
ARC
8
DEFAULT_255_2_778
10
14.9431857
20
137.5890482
40
0.6124159
50
256.2164989
51
270.9014371
0
ARC
8
DEFAULT_255_2_778
10
14.9523166
20
137.9559885
40
0.9792806
50
270.0294815
51
272.249316
0
LINE
8
DEFAULT_255_2_778
10
15.5956513
20
138.0262625
11
15.9422513
21
138.0262625
0
LINE
8
DEFAULT_255_2_778
10
15.9422513
20
138.0262625
11
16.2131513
21
137.2849625
0
LINE
8
DEFAULT_255_2_778
10
16.2131513
20
137.2849625
11
16.4840513
21
138.0326625
0
LINE
8
DEFAULT_255_2_778
10
16.4840513
20
138.0326625
11
16.7928513
21
138.0326625
0
LINE
8
DEFAULT_255_2_778
10
16.7928513
20
138.0326625
11
16.2885513
21
136.7824625
0
LINE
8
DEFAULT_255_2_778
10
16.2885513
20
136.7824625
11
16.0678513
21
136.7824625
0
LINE
8
DEFAULT_255_2_778
10
16.0678513
20
136.7824625
11
15.5956513
21
138.0262625
0
LINE
8
DEFAULT_255_2_778
10
6.2182513
20
138.6546625
11
6.3002513
21
138.6546625
0
LINE
8
DEFAULT_255_2_778
10
6.3002513
20
138.6546625
11
6.3002513
21
136.6977625
0
LINE
8
DEFAULT_255_2_778
10
6.3002513
20
136.6977625
11
18.5070513
21
136.6946625
0
LINE
8
DEFAULT_255_2_778
10
18.5070513
20
136.6946625
11
18.5102513
21
136.6128625
0
LINE
8
DEFAULT_255_2_778
10
18.5102513
20
136.6128625
11
6.2182513
21
136.6128625
0
LINE
8
DEFAULT_255_2_778
10
6.2182513
20
136.6128625
11
6.2182513
21
138.6483625
0
LINE
8
DEFAULT_255_2_778
10
18.9671513
20
136.7009625
11
18.9671513
21
136.6131625
0
LINE
8
DEFAULT_255_2_778
10
18.9671513
20
136.6131625
11
21.5730513
21
136.6131625
0
LINE
8
DEFAULT_255_2_778
10
21.8945513
20
136.3083625
11
21.8945513
21
136.3932625
0
LINE
8
DEFAULT_255_2_778
10
21.8945513
20
136.8769625
11
21.8945513
21
136.9618625
0
LINE
8
DEFAULT_255_2_778
10
21.5762513
20
136.6980625
11
18.9735513
21
136.6980625
0
LINE
8
DEFAULT_255_2_778
10
13.9382513
20
137.0658625
11
14.0139513
21
136.8647625
0
LINE
8
DEFAULT_255_2_778
10
13.9951513
20
137.9704625
11
13.9321513
21
137.7569625
0
LINE
8
DEFAULT_255_2_778
10
14.2470513
20
137.1282625
11
14.2470513
21
137.8190625
0
LINE
8
DEFAULT_255_2_778
10
14.2470513
20
137.8190625
11
14.0578513
21
137.8190625
0
LINE
8
DEFAULT_255_2_778
10
14.0578513
20
137.8190625
11
14.0578513
21
138.0326625
0
LINE
8
DEFAULT_255_2_778
10
14.0578513
20
138.0326625
11
14.2470513
21
138.0326625
0
LINE
8
DEFAULT_255_2_778
10
14.2470513
20
138.0326625
11
14.3856513
21
138.5350625
0
LINE
8
DEFAULT_255_2_778
10
14.3856513
20
138.5350625
11
14.5999513
21
138.5350625
0
LINE
8
DEFAULT_255_2_778
10
14.5999513
20
138.5350625
11
14.6126513
21
138.0326625
0
LINE
8
DEFAULT_255_2_778
10
14.6126513
20
138.0326625
11
14.9529513
21
138.0326625
0
LINE
8
DEFAULT_255_2_778
10
14.9529513
20
138.0326625
11
14.9529513
21
137.8190625
0
LINE
8
DEFAULT_255_2_778
10
14.9529513
20
137.8190625
11
14.6126513
21
137.8190625
0
LINE
8
DEFAULT_255_2_778
10
14.6126513
20
137.8190625
11
14.6126513
21
137.1658625
0
LINE
8
DEFAULT_255_2_778
10
14.9907513
20
136.9774625
11
15.0032513
21
136.8015625
0
ARC
8
DEFAULT_255_2_778
10
18.2771567
20
136.6608016
40
0.588921
50
314.1465216
51
331.9330914
0
ARC
8
DEFAULT_255_2_778
10
18.4147245
20
136.5206113
40
0.3925118
50
269.0312524
51
313.9901377
0
ARC
8
DEFAULT_255_2_778
10
18.4130071
20
136.7129619
40
0.584827
50
255.6549108
51
269.5180973
0
ARC
8
DEFAULT_255_2_778
10
18.4880411
20
137.0161139
40
0.8971207
50
246.7072254
51
255.8091359
0
ARC
8
DEFAULT_255_2_778
10
18.6124803
20
137.3186796
40
1.2242447
50
243.4735796
51
246.9574492
0
ARC
8
DEFAULT_255_2_778
10
18.3377307
20
136.7493958
40
0.365718
50
238.6975405
51
269.7536991
0
ARC
8
DEFAULT_255_2_778
10
18.3341625
20
136.7833672
40
0.3996911
50
270.2861506
51
285.9235992
0
ARC
8
DEFAULT_255_2_778
10
18.3190528
20
136.6040257
40
0.2399938
50
301.3239159
51
328.5484084
0
ARC
8
DEFAULT_255_2_778
10
17.8344662
20
136.9302796
40
0.8240117
50
326.7768178
51
337.3925755
0
ARC
8
DEFAULT_255_2_778
10
16.7758869
20
137.3889406
40
1.9776351
50
336.9149998
51
342.1307954
0
ARC
8
DEFAULT_255_2_778
10
18.1003835
20
137.1935501
40
0.1954042
50
190.120766
51
263.958695
0
ARC
8
DEFAULT_255_2_778
10
18.1765334
20
137.4961691
40
0.5062622
50
258.9866291
51
270.5697296
0
ARC
8
DEFAULT_255_2_778
10
18.179421
20
137.8136009
40
0.8236717
50
270.1493118
51
275.0745303
0
ARC
8
DEFAULT_255_2_778
10
18.1623931
20
138.0306991
40
1.0414275
50
274.9512067
51
276.4741818
0
ARC
8
DEFAULT_255_2_778
10
17.8865118
20
139.2869593
40
2.5197089
50
276.512457
51
279.4178429
0
ARC
8
DEFAULT_255_2_778
10
17.9623799
20
138.6166109
40
1.8450814
50
272.9002784
51
276.532699
0
ARC
8
DEFAULT_255_2_778
10
17.9860581
20
138.174308
40
1.4021477
50
270.0528156
51
272.8484525
0
ARC
8
DEFAULT_255_2_778
10
17.9780255
20
137.6655179
40
0.8934054
50
259.5071449
51
270.5980454
0
ARC
8
DEFAULT_255_2_778
10
17.887913
20
137.2045607
40
0.4237716
50
238.7101736
51
260.1371304
0
ARC
8
DEFAULT_255_2_778
10
17.8040731
20
137.0581077
40
0.2551147
50
181.256628
51
237.7180126
0
LINE
8
DEFAULT_255_2_778
10
18.0657198
20
136.2233129
11
18.1477198
21
136.4369129
0
LINE
8
DEFAULT_255_2_778
10
18.6581198
20
136.7821129
11
18.2295198
21
137.8124129
0
LINE
8
DEFAULT_255_2_778
10
18.2295198
20
137.8124129
11
17.9080198
21
137.8124129
0
LINE
8
DEFAULT_255_2_778
10
17.9080198
20
137.8124129
11
17.9080198
21
137.1592129
0
LINE
8
DEFAULT_255_2_778
10
18.2798198
20
136.9959129
11
18.2988198
21
136.8012129
0
LINE
8
DEFAULT_255_2_778
10
17.5490198
20
137.0525129
11
17.5363198
21
137.8190129
0
LINE
8
DEFAULT_255_2_778
10
17.5363198
20
137.8190129
11
17.3471198
21
137.8190129
0
LINE
8
DEFAULT_255_2_778
10
17.3471198
20
137.8190129
11
17.3471198
21
138.0326129
0
LINE
8
DEFAULT_255_2_778
10
17.3471198
20
138.0326129
11
17.5487198
21
138.0326129
0
LINE
8
DEFAULT_255_2_778
10
17.5487198
20
138.0326129
11
17.6747198
21
138.5350129
0
LINE
8
DEFAULT_255_2_778
10
17.6747198
20
138.5350129
11
17.8890198
21
138.5350129
0
LINE
8
DEFAULT_255_2_778
10
17.8890198
20
138.5350129
11
17.9017198
21
138.0326129
0
LINE
8
DEFAULT_255_2_778
10
17.9017198
20
138.0326129
11
18.5319198
21
138.0326129
0
LINE
8
DEFAULT_255_2_778
10
18.5319198
20
138.0326129
11
18.8343198
21
137.2034129
0
LINE
8
DEFAULT_255_2_778
10
18.8343198
20
137.2034129
11
19.1367198
21
138.0326129
0
LINE
8
DEFAULT_255_2_778
10
19.1367198
20
138.0326129
11
19.4519198
21
138.0326129
0
LINE
8
DEFAULT_255_2_778
10
19.4519198
20
138.0326129
11
18.7965198
21
136.3866129
0
ARC
8
DEFAULT_255_2_778
10
19.6924911
20
137.9865064
40
0.0240119
50
28.9725327
51
103.4850922
0
ARC
8
DEFAULT_255_2_778
10
19.6675258
20
137.7713978
40
0.2392435
50
85.3570436
51
90.3180147
0
ARC
8
DEFAULT_255_2_778
10
19.68302
20
137.3749354
40
0.7352792
50
91.4451573
51
94.5103719
0
ARC
8
DEFAULT_255_2_778
10
19.6762642
20
137.6000413
40
0.5100756
50
90.0204387
51
91.3242457
0
ARC
8
DEFAULT_255_2_778
10
19.6820782
20
137.8787926
40
0.231402
50
77.5838349
51
91.484776
0
ARC
8
DEFAULT_255_2_778
10
19.7300541
20
138.0729087
40
0.0319233
50
15.1916927
51
86.8071299
0
ARC
8
DEFAULT_255_2_778
10
19.7392759
20
138.0790197
40
0.0217032
50
359.9550511
51
5.9623374
0
ARC
8
DEFAULT_255_2_778
10
19.7113423
20
138.0839073
40
0.0498786
50
318.6903529
51
354.3569627
0
ARC
8
DEFAULT_255_2_778
10
19.59333
20
138.1714286
40
0.1966754
50
312.4194177
51
322.2354785
0
ARC
8
DEFAULT_255_2_778
10
19.7074456
20
137.9834292
40
0.0466555
50
7.7623904
51
66.56899
0
ARC
8
DEFAULT_255_2_778
10
19.5728806
20
137.9554086
40
0.184022
50
4.3922991
51
10.7492459
0
ARC
8
DEFAULT_255_2_778
10
19.7790464
20
137.9657679
40
0.0229895
50
170.6523659
51
230.6545988
0
ARC
8
DEFAULT_255_2_778
10
19.7669101
20
137.9562613
40
0.0086241
50
253.5721784
51
270.5831571
0
ARC
8
DEFAULT_255_2_778
10
19.6864906
20
138.0529188
40
0.034333
50
13.334954
51
106.2290103
0
ARC
8
DEFAULT_255_2_778
10
19.6694514
20
137.905895
40
0.1801426
50
87.631716
51
90.0488074
0
ARC
8
DEFAULT_255_2_778
10
19.6792828
20
138.1048746
40
0.0666888
50
261.3891358
51
304.5653386
0
ARC
8
DEFAULT_255_2_778
10
19.7080184
20
138.0575951
40
0.0118802
50
319.9940947
51
0.6866831
0
ARC
8
DEFAULT_255_2_778
10
19.6909745
20
138.0294613
40
0.1602765
50
89.8843696
51
180.00852
0
ARC
8
DEFAULT_255_2_778
10
19.6918123
20
138.0296526
40
0.1600857
50
359.923006
51
90.1841118
0
ARC
8
DEFAULT_255_2_778
10
19.6917276
20
138.0292075
40
0.1601705
50
269.8462838
51
0.0822692
0
ARC
8
DEFAULT_255_2_778
10
19.6908681
20
138.0292074
40
0.1601705
50
179.9177057
51
270.1537517
0
ARC
8
DEFAULT_255_2_778
10
19.6941702
20
138.0305588
40
0.1256773
50
179.9900739
51
180.5112141
0
ARC
8
DEFAULT_255_2_778
10
19.6929324
20
138.0306978
40
0.1244397
50
135.616881
51
180.0539568
0
ARC
8
DEFAULT_255_2_778
10
19.6926982
20
138.0309377
40
0.1241046
50
90.5079979
51
135.6204406
0
ARC
8
DEFAULT_255_2_778
10
19.6904941
20
138.0311676
40
0.1238749
50
44.3347873
51
89.4894407
0
ARC
8
DEFAULT_255_2_778
10
19.6901635
20
138.0306978
40
0.1244397
50
359.9460432
51
44.383119
0
ARC
8
DEFAULT_255_2_778
10
19.6889256
20
138.0305588
40
0.1256775
50
359.4887859
51
0.0099261
0
ARC
8
DEFAULT_255_2_778
10
19.6889212
20
138.0283161
40
0.1256817
50
359.9900717
51
0.5112118
0
ARC
8
DEFAULT_255_2_778
10
19.6899314
20
138.0281718
40
0.1246718
50
315.6604182
51
0.0563277
0
ARC
8
DEFAULT_255_2_778
10
19.690317
20
138.0280233
40
0.1242924
50
270.5905059
51
315.5851458
0
ARC
8
DEFAULT_255_2_778
10
19.6928761
20
138.0282548
40
0.1245239
50
224.4596468
51
269.4118891
0
ARC
8
DEFAULT_255_2_778
10
19.6931644
20
138.0281718
40
0.1246718
50
179.9436723
51
224.3395818
0
ARC
8
DEFAULT_255_2_778
10
19.6941746
20
138.0283161
40
0.1256819
50
179.4887882
51
180.0099283
0
LINE
8
DEFAULT_255_2_778
10
19.7671979
20
137.9479375
11
19.7261979
21
137.9479375
0
LINE
8
DEFAULT_255_2_778
10
19.7261979
20
137.9479375
11
19.7134979
21
137.9981375
0
LINE
8
DEFAULT_255_2_778
10
19.6661979
20
138.0106375
11
19.6661979
21
137.9479375
0
LINE
8
DEFAULT_255_2_778
10
19.6661979
20
137.9479375
11
19.6282979
21
137.9479375
0
LINE
8
DEFAULT_255_2_778
10
19.6282979
20
137.9479375
11
19.6251979
21
138.1079375
0
LINE
8
DEFAULT_255_2_778
10
19.7669979
20
137.9476375
11
19.7671979
21
137.9479375
0
LINE
8
DEFAULT_255_2_778
10
19.6692979
20
138.0860375
11
19.6692979
21
138.0389375
0
LINE
8
DEFAULT_255_2_778
10
19.5306979
20
138.0294375
11
19.5306979
21
138.0294375
0
LINE
8
DEFAULT_255_2_778
10
19.5684979
20
138.0294375
11
19.5684979
21
138.0294375
0
LINE
8
DEFAULT_255_2_778
10
11.0900688
20
137.7568698
11
11.0900688
21
137.1285698
0
ARC
8
DEFAULT_255_2_778
10
10.4258178
20
138.3217512
40
1.3656176
50
292.8223416
51
299.1049387
0
ARC
8
DEFAULT_255_2_778
10
10.6923229
20
137.6800623
40
0.6708024
50
282.4794629
51
293.1002978
0
ARC
8
DEFAULT_255_2_778
10
10.7656801
20
137.3545416
40
0.3371233
50
270.5838487
51
282.2615078
0
ARC
8
DEFAULT_255_2_778
10
10.7637817
20
137.187928
40
0.1705756
50
241.3798642
51
271.7918735
0
ARC
8
DEFAULT_255_2_778
10
10.7476697
20
137.151112
40
0.1305871
50
222.8095502
51
239.8477433
0
ARC
8
DEFAULT_255_2_778
10
10.8383448
20
137.2756648
40
0.2833162
50
195.5923976
51
228.8379937
0
ARC
8
DEFAULT_255_2_778
10
11.2233514
20
137.3994125
40
0.6875956
50
182.8988217
51
196.901328
0
ARC
8
DEFAULT_255_2_778
10
11.7297763
20
137.4415595
40
1.1956176
50
179.9089191
51
183.6886871
0
ARC
8
DEFAULT_255_2_778
10
12.0981229
20
137.4419544
40
1.5639636
50
177.2544012
51
179.9448392
0
LINE
8
DEFAULT_255_2_778
10
10.5359547
20
137.5168705
11
10.5359688
21
137.5171698
0
ARC
8
DEFAULT_255_2_778
10
11.0005754
20
137.4522208
40
0.4691244
50
149.0121274
51
172.0420019
0
ARC
8
DEFAULT_255_2_778
10
10.8347413
20
137.5426494
40
0.280511
50
88.5440138
51
147.4067729
0
ARC
8
DEFAULT_255_2_778
10
10.7657193
20
136.9924864
40
0.8340669
50
72.0203436
51
84.7616527
0
ARC
8
DEFAULT_255_2_778
10
10.8831282
20
137.3705191
40
0.4382821
50
61.8252032
51
71.3646611
0
ARC
8
DEFAULT_255_2_778
10
10.4737962
20
138.0409032
40
1.2918982
50
287.0682731
51
298.4915226
0
ARC
8
DEFAULT_255_2_778
10
10.6328818
20
137.5179772
40
0.7453122
50
270.6811176
51
287.1763457
0
ARC
8
DEFAULT_255_2_778
10
10.6416525
20
137.3519494
40
0.5792318
50
267.7358327
51
270.0088232
0
ARC
8
DEFAULT_255_2_778
10
10.6221952
20
137.1923768
40
0.4192211
50
203.9093897
51
269.5317059
0
ARC
8
DEFAULT_255_2_778
10
11.0896726
20
137.4517122
40
0.9528801
50
192.6009015
51
206.7737237
0
ARC
8
DEFAULT_255_2_778
10
11.4914822
20
137.5600427
40
1.3687639
50
192.6165694
51
193.3570279
0
ARC
8
DEFAULT_255_2_778
10
11.1915444
20
137.4542151
40
1.05363
50
182.6356817
51
190.5628607
0
ARC
8
DEFAULT_255_2_778
10
11.0380576
20
137.4446692
40
0.89987
50
180.0135228
51
182.4779265
0
ARC
8
DEFAULT_255_2_778
10
10.8122185
20
137.4605664
40
0.6742234
50
136.7456723
51
181.3691273
0
ARC
8
DEFAULT_255_2_778
10
10.662857
20
137.5493873
40
0.5059802
50
89.2314975
51
132.4774114
0
ARC
8
DEFAULT_255_2_778
10
10.6695571
20
137.4386601
40
0.6166618
50
87.8056342
51
89.9919799
0
ARC
8
DEFAULT_255_2_778
10
10.6807164
20
136.8969717
40
1.157965
50
70.3175508
51
89.3838437
0
ARC
8
DEFAULT_255_2_778
10
10.5893508
20
136.5894874
40
1.4783609
50
70.2024224
51
70.9971735
0
ARC
8
DEFAULT_255_2_778
10
9.3624819
20
137.4233426
40
0.1950108
50
91.6788031
51
181.813939
0
ARC
8
DEFAULT_255_2_778
10
9.350989
20
137.4232798
40
0.1950756
50
358.2051219
51
88.3021655
0
ARC
8
DEFAULT_255_2_778
10
9.3509891
20
137.4110596
40
0.1950754
50
271.6978133
51
1.7949071
0
ARC
8
DEFAULT_255_2_778
10
9.3624819
20
137.4109969
40
0.1950108
50
178.186061
51
268.3211969
0
ARC
8
DEFAULT_255_2_778
10
9.5084727
20
137.4239309
40
0.4668529
50
145.043768
51
180.8298084
0
ARC
8
DEFAULT_255_2_778
10
9.3653029
20
137.5316132
40
0.287883
50
91.6987406
51
146.2830079
0
ARC
8
DEFAULT_255_2_778
10
9.3415457
20
137.5146621
40
0.3050877
50
23.4934874
51
87.1398977
0
ARC
8
DEFAULT_255_2_778
10
9.1870732
20
137.4207629
40
0.484809
50
359.5753549
51
26.3944218
0
ARC
8
DEFAULT_255_2_778
10
9.2053375
20
137.41042
40
0.4665802
50
325.0256173
51
0.8288991
0
ARC
8
DEFAULT_255_2_778
10
9.3482106
20
137.3028699
40
0.2879274
50
271.7032906
51
326.2656695
0
ARC
8
DEFAULT_255_2_778
10
9.3720078
20
137.3199987
40
0.3053095
50
203.3271307
51
267.1389871
0
ARC
8
DEFAULT_255_2_778
10
9.5267258
20
137.413593
40
0.4850703
50
179.5775117
51
206.2433806
0
ARC
8
DEFAULT_255_2_778
10
9.3462242
20
137.3982025
40
0.6700752
50
95.9615992
51
178.9168048
0
ARC
8
DEFAULT_255_2_778
10
9.3692457
20
137.3301302
40
0.7403396
50
89.982733
51
97.186551
0
ARC
8
DEFAULT_255_2_778
10
9.3737015
20
137.3603279
40
0.7101545
50
48.1622127
51
90.3414937
0
ARC
8
DEFAULT_255_2_778
10
9.4198028
20
137.4093697
40
0.6428678
50
0.1336951
51
48.3079447
0
ARC
8
DEFAULT_255_2_778
10
9.3927134
20
137.423537
40
0.6700752
50
275.9615992
51
358.9168048
0
ARC
8
DEFAULT_255_2_778
10
9.3696919
20
137.4916094
40
0.7403396
50
269.982733
51
277.186551
0
ARC
8
DEFAULT_255_2_778
10
9.3652362
20
137.4614116
40
0.7101545
50
228.1622127
51
270.3414937
0
ARC
8
DEFAULT_255_2_778
10
9.3191349
20
137.4123698
40
0.6428678
50
180.1336951
51
228.3079447
0
ARC
8
DEFAULT_255_2_778
10
6.8107463
20
138.1078908
40
0.4410946
50
358.399361
51
20.0218069
0
ARC
8
DEFAULT_255_2_778
10
7.0252301
20
138.1839859
40
0.2135292
50
20.5419455
51
86.7410997
0
ARC
8
DEFAULT_255_2_778
10
6.9403671
20
138.1440134
40
0.3150485
50
287.9324001
51
351.1547913
0
ARC
8
DEFAULT_255_2_778
10
7.0381682
20
138.09225
40
0.6191268
50
4.9683528
51
29.9289322
0
ARC
8
DEFAULT_255_2_778
10
7.1427871
20
138.1333443
40
0.508227
50
31.7987523
51
73.6168205
0
ARC
8
DEFAULT_255_2_778
10
7.0076309
20
137.7522148
40
0.9122727
50
72.2244713
51
84.9667071
0
ARC
8
DEFAULT_255_2_778
10
6.9731565
20
138.5162673
40
0.9427779
50
276.9765222
51
292.3131775
0
ARC
8
DEFAULT_255_2_778
10
7.152457
20
138.1087302
40
0.4978062
50
291.0302401
51
353.4987619
0
ARC
8
DEFAULT_255_2_778
10
6.882936
20
138.1640679
40
0.7722473
50
351.6832812
51
358.6496898
0
LINE
8
DEFAULT_255_2_778
10
11.0900688
20
137.7568698
11
11.0900688
21
137.7568698
0
LINE
8
DEFAULT_255_2_778
10
11.0900688
20
137.9802698
11
11.0900688
21
138.7326698
0
LINE
8
DEFAULT_255_2_778
10
11.0900688
20
138.7326698
11
11.4538688
21
138.7739698
0
LINE
8
DEFAULT_255_2_778
10
11.4538688
20
138.7739698
11
11.4538688
21
136.8062698
0
LINE
8
DEFAULT_255_2_778
10
11.4538688
20
136.8062698
11
11.0982688
21
136.8062698
0
LINE
8
DEFAULT_255_2_778
10
11.0982688
20
136.8062698
11
11.0900688
21
136.9054698
0
LINE
8
DEFAULT_255_2_778
10
11.0900688
20
137.9804698
11
11.0900688
21
137.9802698
0
LINE
8
DEFAULT_255_2_778
10
9.1675688
20
137.4171698
11
9.1675688
21
137.4171698
0
LINE
8
DEFAULT_255_2_778
10
9.0416688
20
137.4171698
11
9.0416688
21
137.4171698
0
LINE
8
DEFAULT_255_2_778
10
8.6762688
20
137.4108698
11
8.6762688
21
137.4108698
0
LINE
8
DEFAULT_255_2_778
10
7.0373688
20
138.3971698
11
6.7728688
21
138.3971698
0
LINE
8
DEFAULT_255_2_778
10
6.7728688
20
138.3971698
11
6.7728688
21
137.8442698
0
LINE
8
DEFAULT_255_2_778
10
6.7728688
20
137.8442698
11
7.0373688
21
137.8442698
0
LINE
8
DEFAULT_255_2_778
10
7.2516688
20
138.0955698
11
7.2516688
21
138.0955698
0
LINE
8
DEFAULT_255_2_778
10
7.0876688
20
138.6609698
11
6.3817688
21
138.6609698
0
LINE
8
DEFAULT_255_2_778
10
6.3817688
20
138.6609698
11
6.3817688
21
136.8014698
0
LINE
8
DEFAULT_255_2_778
10
6.3817688
20
136.8014698
11
6.7725688
21
136.8014698
0
LINE
8
DEFAULT_255_2_778
10
6.7725688
20
136.8014698
11
6.7725688
21
137.5804698
0
LINE
8
DEFAULT_255_2_778
10
6.7725688
20
137.5804698
11
7.0876688
21
137.5804698
0
LINE
8
DEFAULT_255_2_778
10
7.6549688
20
138.1458698
11
7.6549688
21
138.1458698
0
ARC
8
DEFAULT_255_2_778
10
22.0341103
20
136.6396325
40
0.1933696
50
91.2195322
51
181.3554583
0
ARC
8
DEFAULT_255_2_778
10
22.0258793
20
136.6396325
40
0.1933696
50
358.6445319
51
88.7804717
0
ARC
8
DEFAULT_255_2_778
10
22.0258794
20
136.6304841
40
0.1933695
50
271.2194968
51
1.3554733
0
ARC
8
DEFAULT_255_2_778
10
22.0341102
20
136.6304841
40
0.1933696
50
178.6445267
51
268.7805032
0
ARC
8
DEFAULT_255_2_778
10
22.500592
20
136.6396522
40
0.1933518
50
91.2438577
51
181.3614136
0
ARC
8
DEFAULT_255_2_778
10
22.4922792
20
136.6396325
40
0.1933696
50
358.6445428
51
88.7804459
0
ARC
8
DEFAULT_255_2_778
10
22.4922795
20
136.6304841
40
0.1933694
50
271.219471
51
1.3554842
0
ARC
8
DEFAULT_255_2_778
10
22.5005921
20
136.6304647
40
0.1933519
50
178.638633
51
268.7561308
0
ARC
8
DEFAULT_255_2_778
10
22.966792
20
136.652352
40
0.1933518
50
91.2438477
51
181.3613675
0
ARC
8
DEFAULT_255_2_778
10
22.9584792
20
136.6523325
40
0.1933696
50
358.6445428
51
88.7804459
0
ARC
8
DEFAULT_255_2_778
10
22.9584795
20
136.6431841
40
0.1933694
50
271.219471
51
1.3554842
0
ARC
8
DEFAULT_255_2_778
10
22.9667921
20
136.6431645
40
0.1933517
50
178.6385825
51
268.7561312
0
LINE
8
DEFAULT_255_2_778
10
21.8407948
20
136.6350583
11
21.8407948
21
136.6350583
0
LINE
8
DEFAULT_255_2_778
10
22.3072948
20
136.6350583
11
22.3072948
21
136.6350583
0
LINE
8
DEFAULT_255_2_778
10
22.7734948
20
136.6477583
11
22.7734948
21
136.6477583
0
LINE
8
DEFAULT_255_2_778
10
21.8956365
20
136.391124
11
21.8665365
21
136.395924
0
LINE
8
DEFAULT_255_2_778
10
21.8665365
20
136.395924
11
21.8059365
21
136.405724
0
LINE
8
DEFAULT_255_2_778
10
21.8059365
20
136.405724
11
21.7299365
21
136.463924
0
LINE
8
DEFAULT_255_2_778
10
21.7299365
20
136.463924
11
21.6728365
21
136.539624
0
LINE
8
DEFAULT_255_2_778
10
21.6728365
20
136.539624
11
21.6476365
21
136.633024
0
LINE
8
DEFAULT_255_2_778
10
21.6476365
20
136.633024
11
21.6728365
21
136.726624
0
LINE
8
DEFAULT_255_2_778
10
21.6728365
20
136.726624
11
21.7294365
21
136.803424
0
LINE
8
DEFAULT_255_2_778
10
21.7294365
20
136.803424
11
21.8053365
21
136.862924
0
LINE
8
DEFAULT_255_2_778
10
21.8053365
20
136.862924
11
21.8665365
21
136.872924
0
LINE
8
DEFAULT_255_2_778
10
21.8665365
20
136.872924
11
21.8958365
21
136.877724
0
LINE
8
DEFAULT_255_2_778
10
21.8958365
20
136.308124
11
21.8546365
21
136.313624
0
LINE
8
DEFAULT_255_2_778
10
21.8546365
20
136.313624
11
21.7707365
21
136.325024
0
LINE
8
DEFAULT_255_2_778
10
21.7707365
20
136.325024
11
21.6683365
21
136.399624
0
LINE
8
DEFAULT_255_2_778
10
21.6683365
20
136.399624
11
21.5950365
21
136.498324
0
LINE
8
DEFAULT_255_2_778
10
21.5950365
20
136.498324
11
21.5733365
21
136.613924
0
ARC
8
DEFAULT_255_2_778
10
19.6071242
20
137.2321303
40
0.3581298
50
180.0162757
51
182.2699138
0
ARC
8
DEFAULT_255_2_778
10
19.4534829
20
137.2457764
40
0.2049502
50
100.1638691
51
183.8462269
0
ARC
8
DEFAULT_255_2_778
10
19.5515993
20
136.9171455
40
0.5471003
50
90.0234402
51
104.2080975
0
ARC
8
DEFAULT_255_2_778
10
19.5528834
20
137.2704699
40
0.1937818
50
5.5175223
51
90.4458723
0
ARC
8
DEFAULT_255_2_778
10
19.3612362
20
137.2300775
40
0.3890348
50
359.7014597
51
8.726641
0
ARC
8
DEFAULT_255_2_778
10
19.2420729
20
137.2282577
40
0.5081929
50
357.7544822
51
359.976639
0
ARC
8
DEFAULT_255_2_778
10
19.3404742
20
137.273607
40
0.4145702
50
340.5439579
51
350.9428846
0
ARC
8
DEFAULT_255_2_778
10
19.6818113
20
137.1526061
40
0.0524224
50
319.3350621
51
340.9786234
0
ARC
8
DEFAULT_255_2_778
10
19.1300329
20
137.335169
40
0.4858933
50
337.8212904
51
346.2526281
0
ARC
8
DEFAULT_255_2_778
10
19.5379362
20
137.2340825
40
0.0656649
50
347.3486169
51
358.3972422
0
ARC
8
DEFAULT_255_2_778
10
19.3892367
20
137.2412112
40
0.2145262
50
357.6048162
51
359.9743471
0
ARC
8
DEFAULT_255_2_778
10
19.521739
20
137.2546395
40
0.0831313
50
350.6371276
51
96.844243
0
ARC
8
DEFAULT_255_2_778
10
19.5122091
20
137.1365521
40
0.2006266
50
90.1076454
51
94.8990763
0
ARC
8
DEFAULT_255_2_778
10
19.5034127
20
137.2331153
40
0.1036663
50
94.6129189
51
177.4610849
0
ARC
8
DEFAULT_255_2_778
10
19.6883706
20
137.1784397
40
0.2945469
50
168.391873
51
173.2331892
0
LINE
8
DEFAULT_255_2_778
10
19.3955754
20
137.2131458
11
19.2492754
21
137.2179458
0
LINE
8
DEFAULT_255_2_778
10
19.7215754
20
137.1184458
11
19.4572754
21
136.8199458
0
LINE
8
DEFAULT_255_2_778
10
19.4572754
20
136.8199458
11
19.7784754
21
136.8199458
0
LINE
8
DEFAULT_255_2_778
10
19.7784754
20
136.8199458
11
19.7784754
21
136.6969458
0
LINE
8
DEFAULT_255_2_778
10
19.7784754
20
136.6969458
11
19.2682754
21
136.6969458
0
LINE
8
DEFAULT_255_2_778
10
19.2682754
20
136.6969458
11
19.2682754
21
136.8012458
0
LINE
8
DEFAULT_255_2_778
10
19.2682754
20
136.8012458
11
19.5799754
21
137.1517458
0
LINE
8
DEFAULT_255_2_778
10
19.3958754
20
137.2131458
11
19.3955754
21
137.2131458
0
ARC
8
DEFAULT_255_2_778
10
21.6491338
20
137.0979013
40
0.5330281
50
158.8297779
51
180.8126209
0
ARC
8
DEFAULT_255_2_778
10
21.3443043
20
137.2240829
40
0.2033429
50
124.0119958
51
160.9659866
0
ARC
8
DEFAULT_255_2_778
10
21.2743176
20
137.317462
40
0.0869831
50
90.4994457
51
120.2017555
0
ARC
8
DEFAULT_255_2_778
10
21.2600082
20
137.2790586
40
0.1261132
50
24.6798401
51
83.8315083
0
ARC
8
DEFAULT_255_2_778
10
21.0025231
20
137.123952
40
0.4261556
50
6.130385
51
29.1785479
0
ARC
8
DEFAULT_255_2_778
10
20.8148831
20
137.0909702
40
0.6163766
50
359.941576
51
7.3161118
0
ARC
8
DEFAULT_255_2_778
10
20.8991049
20
137.0827366
40
0.5322088
50
338.8055679
51
0.8187669
0
ARC
8
DEFAULT_255_2_778
10
21.2033747
20
136.9566684
40
0.203082
50
303.9150541
51
340.932466
0
ARC
8
DEFAULT_255_2_778
10
21.2728185
20
136.8637902
40
0.0874515
50
270.4854298
51
300.1080748
0
ARC
8
DEFAULT_255_2_778
10
21.2871918
20
136.9020041
40
0.1263997
50
204.3281643
51
263.8084993
0
ARC
8
DEFAULT_255_2_778
10
21.5498039
20
137.0580123
40
0.4313014
50
185.613152
51
208.8453558
0
ARC
8
DEFAULT_255_2_778
10
21.738281
20
137.0897819
40
0.6221217
50
179.9484445
51
186.8272745
0
ARC
8
DEFAULT_255_2_778
10
21.5396261
20
137.0944048
40
0.5243157
50
152.5254433
51
180.7827883
0
ARC
8
DEFAULT_255_2_778
10
21.3138339
20
137.2218837
40
0.2653266
50
108.4095367
51
154.4544086
0
ARC
8
DEFAULT_255_2_778
10
21.2768034
20
137.3006783
40
0.1791635
50
90.0140927
51
105.1293658
0
ARC
8
DEFAULT_255_2_778
10
21.2623719
20
137.2489205
40
0.231369
50
28.2822033
51
86.4348199
0
ARC
8
DEFAULT_255_2_778
10
21.0418618
20
137.1017258
40
0.4959362
50
2.837394
51
31.1881489
0
ARC
8
DEFAULT_255_2_778
10
20.9404116
20
137.0873304
40
0.5980477
50
359.9914968
51
3.7337628
0
ARC
8
DEFAULT_255_2_778
10
21.0137058
20
137.0801164
40
0.524802
50
332.6504535
51
0.7779361
0
ARC
8
DEFAULT_255_2_778
10
21.2395936
20
136.9531026
40
0.265965
50
288.44039
51
334.5981325
0
ARC
8
DEFAULT_255_2_778
10
21.2767199
20
136.8743438
40
0.1798021
50
270.0125899
51
285.1541198
0
ARC
8
DEFAULT_255_2_778
10
21.2909632
20
136.9251186
40
0.2310141
50
208.1688806
51
266.4749618
0
ARC
8
DEFAULT_255_2_778
10
21.513001
20
137.0725235
40
0.4969751
50
182.8019459
51
211.0671432
0
ARC
8
DEFAULT_255_2_778
10
21.6169279
20
137.0871537
40
0.6015684
50
179.9916184
51
183.7098813
0
LINE
8
DEFAULT_255_2_778
10
21.1161594
20
137.0903417
11
21.1161594
21
137.0903417
0
LINE
8
DEFAULT_255_2_778
10
21.0153594
20
137.0872417
11
21.0153594
21
137.0872417
0
ARC
8
DEFAULT_255_2_778
10
21.0567338
20
137.0979013
40
0.5330281
50
158.8297779
51
180.8126209
0
ARC
8
DEFAULT_255_2_778
10
20.7519043
20
137.2240829
40
0.2033429
50
124.0119958
51
160.9659866
0
ARC
8
DEFAULT_255_2_778
10
20.6819176
20
137.317462
40
0.0869831
50
90.4994457
51
120.2017555
0
ARC
8
DEFAULT_255_2_778
10
20.6676082
20
137.2790586
40
0.1261132
50
24.6798401
51
83.8315083
0
ARC
8
DEFAULT_255_2_778
10
20.4101231
20
137.123952
40
0.4261556
50
6.130385
51
29.1785479
0
ARC
8
DEFAULT_255_2_778
10
20.2224831
20
137.0909702
40
0.6163766
50
359.941576
51
7.3161118
0
ARC
8
DEFAULT_255_2_778
10
20.3067049
20
137.0827366
40
0.5322088
50
338.8055679
51
0.8187669
0
ARC
8
DEFAULT_255_2_778
10
20.6109747
20
136.9566684
40
0.203082
50
303.9150541
51
340.932466
0
ARC
8
DEFAULT_255_2_778
10
20.6804185
20
136.8637902
40
0.0874515
50
270.4854298
51
300.1080748
0
ARC
8
DEFAULT_255_2_778
10
20.6947918
20
136.9020041
40
0.1263997
50
204.3281643
51
263.8084993
0
ARC
8
DEFAULT_255_2_778
10
20.9574039
20
137.0580123
40
0.4313014
50
185.613152
51
208.8453558
0
ARC
8
DEFAULT_255_2_778
10
21.145881
20
137.0897819
40
0.6221217
50
179.9484445
51
186.8272745
0
ARC
8
DEFAULT_255_2_778
10
20.9472261
20
137.0944048
40
0.5243157
50
152.5254433
51
180.7827883
0
ARC
8
DEFAULT_255_2_778
10
20.7214339
20
137.2218837
40
0.2653266
50
108.4095367
51
154.4544086
0
ARC
8
DEFAULT_255_2_778
10
20.6844034
20
137.3006783
40
0.1791635
50
90.0140927
51
105.1293658
0
ARC
8
DEFAULT_255_2_778
10
20.6699719
20
137.2489205
40
0.231369
50
28.2822033
51
86.4348199
0
ARC
8
DEFAULT_255_2_778
10
20.4494618
20
137.1017258
40
0.4959362
50
2.837394
51
31.1881489
0
ARC
8
DEFAULT_255_2_778
10
20.3480116
20
137.0873304
40
0.5980477
50
359.9914968
51
3.7337628
0
ARC
8
DEFAULT_255_2_778
10
20.4213058
20
137.0801164
40
0.524802
50
332.6504535
51
0.7779361
0
ARC
8
DEFAULT_255_2_778
10
20.6471936
20
136.9531026
40
0.265965
50
288.44039
51
334.5981325
0
ARC
8
DEFAULT_255_2_778
10
20.6843199
20
136.8743438
40
0.1798021
50
270.0125899
51
285.1541198
0
ARC
8
DEFAULT_255_2_778
10
20.6985632
20
136.9251186
40
0.2310141
50
208.1688806
51
266.4749618
0
ARC
8
DEFAULT_255_2_778
10
20.920601
20
137.0725235
40
0.4969751
50
182.8019459
51
211.0671432
0
ARC
8
DEFAULT_255_2_778
10
21.0245279
20
137.0871537
40
0.6015684
50
179.9916184
51
183.7098813
0
LINE
8
DEFAULT_255_2_778
10
20.5237594
20
137.0903417
11
20.5237594
21
137.0903417
0
LINE
8
DEFAULT_255_2_778
10
20.4229594
20
137.0872417
11
20.4229594
21
137.0872417
0
ARC
8
DEFAULT_255_2_778
10
20.4643338
20
137.0979013
40
0.5330281
50
158.8297779
51
180.8126209
0
ARC
8
DEFAULT_255_2_778
10
20.1595043
20
137.2240829
40
0.2033429
50
124.0119958
51
160.9659866
0
ARC
8
DEFAULT_255_2_778
10
20.0895176
20
137.317462
40
0.0869831
50
90.4994457
51
120.2017555
0
ARC
8
DEFAULT_255_2_778
10
20.0752082
20
137.2790586
40
0.1261132
50
24.6798401
51
83.8315083
0
ARC
8
DEFAULT_255_2_778
10
19.8177231
20
137.123952
40
0.4261556
50
6.130385
51
29.1785479
0
ARC
8
DEFAULT_255_2_778
10
19.6300831
20
137.0909702
40
0.6163766
50
359.941576
51
7.3161118
0
ARC
8
DEFAULT_255_2_778
10
19.7143049
20
137.0827366
40
0.5322088
50
338.8055679
51
0.8187669
0
ARC
8
DEFAULT_255_2_778
10
20.0185747
20
136.9566684
40
0.203082
50
303.9150541
51
340.932466
0
ARC
8
DEFAULT_255_2_778
10
20.0880185
20
136.8637902
40
0.0874515
50
270.4854298
51
300.1080748
0
ARC
8
DEFAULT_255_2_778
10
20.1023918
20
136.9020041
40
0.1263997
50
204.3281643
51
263.8084993
0
ARC
8
DEFAULT_255_2_778
10
20.3650039
20
137.0580123
40
0.4313014
50
185.613152
51
208.8453558
0
ARC
8
DEFAULT_255_2_778
10
20.553481
20
137.0897819
40
0.6221217
50
179.9484445
51
186.8272745
0
ARC
8
DEFAULT_255_2_778
10
20.3548261
20
137.0944048
40
0.5243157
50
152.5254433
51
180.7827883
0
ARC
8
DEFAULT_255_2_778
10
20.1290339
20
137.2218837
40
0.2653266
50
108.4095367
51
154.4544086
0
ARC
8
DEFAULT_255_2_778
10
20.0920034
20
137.3006783
40
0.1791635
50
90.0140927
51
105.1293658
0
ARC
8
DEFAULT_255_2_778
10
20.0775719
20
137.2489205
40
0.231369
50
28.2822033
51
86.4348199
0
ARC
8
DEFAULT_255_2_778
10
19.8570618
20
137.1017258
40
0.4959362
50
2.837394
51
31.1881489
0
ARC
8
DEFAULT_255_2_778
10
19.7556116
20
137.0873304
40
0.5980477
50
359.9914968
51
3.7337628
0
ARC
8
DEFAULT_255_2_778
10
19.8289058
20
137.0801164
40
0.524802
50
332.6504535
51
0.7779361
0
ARC
8
DEFAULT_255_2_778
10
20.0547936
20
136.9531026
40
0.265965
50
288.44039
51
334.5981325
0
ARC
8
DEFAULT_255_2_778
10
20.0919199
20
136.8743438
40
0.1798021
50
270.0125899
51
285.1541198
0
ARC
8
DEFAULT_255_2_778
10
20.1061632
20
136.9251186
40
0.2310141
50
208.1688806
51
266.4749618
0
ARC
8
DEFAULT_255_2_778
10
20.328201
20
137.0725235
40
0.4969751
50
182.8019459
51
211.0671432
0
ARC
8
DEFAULT_255_2_778
10
20.4321279
20
137.0871537
40
0.6015684
50
179.9916184
51
183.7098813
0
LINE
8
DEFAULT_255_2_778
10
19.9313594
20
137.0903417
11
19.9313594
21
137.0903417
0
LINE
8
DEFAULT_255_2_778
10
19.8305594
20
137.0872417
11
19.8305594
21
137.0872417
0
LINE
8
DEFAULT_255_2_778
10
9.3932417
20
124.2219075
11
10.7161417
21
124.2219075
0
LINE
8
DEFAULT_255_2_778
10
10.7161417
20
124.2219075
11
10.7161417
21
67.3365075
0
LINE
8
DEFAULT_255_2_778
10
9.3932834
20
67.3364333
11
12.0390834
21
67.3364333
0
LINE
8
DEFAULT_255_2_778
10
12.0390834
20
67.3364333
11
12.0390834
21
62.0447333
0
LINE
8
DEFAULT_255_2_778
10
12.0390834
20
62.0447333
11
9.3932834
21
62.0447333
0
LINE
8
DEFAULT_255_2_778
10
9.3932834
20
62.0447333
11
9.3932834
21
67.3364333
0
ARC
8
DEFAULT_255_2_778_1
10
13.1928591
20
62.147177
40
4.816461
50
120.9442904
51
122.351755
0
ARC
8
DEFAULT_255_2_778_1
10
12.7462523
20
62.8508039
40
3.9830657
50
122.3407904
51
124.1946752
0
ARC
8
DEFAULT_255_2_778_1
10
12.3063464
20
63.4973306
40
3.2010724
50
124.1855758
51
126.4338849
0
ARC
8
DEFAULT_255_2_778_1
10
11.9204129
20
64.0200611
40
2.5513094
50
126.4326926
51
128.8877368
0
ARC
8
DEFAULT_255_2_778_1
10
11.5855968
20
64.4344658
40
2.0185498
50
128.8749205
51
131.8726567
0
ARC
8
DEFAULT_255_2_778_1
10
11.2884677
20
64.7654854
40
1.5737356
50
131.8616166
51
135.4168838
0
ARC
8
DEFAULT_255_2_778_1
10
11.025668
20
65.0236765
40
1.2053256
50
135.3893975
51
139.9687014
0
ARC
8
DEFAULT_255_2_778_1
10
10.7927889
20
65.2185102
40
0.9016937
50
139.9301659
51
145.9260426
0
ARC
8
DEFAULT_255_2_778_1
10
10.596654
20
65.3505104
40
0.6652776
50
145.8787362
51
153.8146208
0
ARC
8
DEFAULT_255_2_778_1
10
10.4445553
20
65.4248797
40
0.4959714
50
153.770634
51
164.3484794
0
ARC
8
DEFAULT_255_2_778_1
10
10.3432387
20
65.4530786
40
0.3908039
50
164.3220276
51
179.8083066
0
ARC
8
DEFAULT_255_2_778_1
10
10.3642789
20
65.461215
40
0.4118985
50
180.9499449
51
213.8111542
0
ARC
8
DEFAULT_255_2_778_1
10
10.6401828
20
65.6307896
40
0.73561
50
212.8271214
51
224.258472
0
ARC
8
DEFAULT_255_2_778_1
10
11.0230335
20
66.0001236
40
1.267567
50
224.1376218
51
231.4508261
0
ARC
8
DEFAULT_255_2_778_1
10
11.6657195
20
66.8031168
40
2.2960809
50
231.3955893
51
236.1256478
0
ARC
8
DEFAULT_255_2_778_1
10
13.4980223
20
69.5496293
40
5.5976905
50
236.2233172
51
239.1314682
0
ARC
8
DEFAULT_255_2_778_1
10
25.447927
20
89.2773568
40
28.6623793
50
238.8606853
51
239.0711101
0
ARC
8
DEFAULT_255_2_778_1
10
6.2757281
20
57.1802653
40
8.7248518
50
57.2420924
51
59.4062964
0
ARC
8
DEFAULT_255_2_778_1
10
9.5034241
20
62.2112102
40
2.747542
50
52.8289294
51
57.079028
0
ARC
8
DEFAULT_255_2_778_1
10
10.2780783
20
63.2315488
40
1.466457
50
46.3041868
51
52.8596521
0
ARC
8
DEFAULT_255_2_778_1
10
10.7103073
20
63.6816842
40
0.8424061
50
36.2174211
51
46.4090895
0
ARC
8
DEFAULT_255_2_778_1
10
10.9948088
20
63.8865128
40
0.4918609
50
17.400375
51
36.5489745
0
ARC
8
DEFAULT_255_2_778_1
10
11.1088994
20
63.9263754
40
0.3710912
50
0.0676858
51
16.7951297
0
ARC
8
DEFAULT_255_2_778_1
10
11.0878613
20
63.9282428
40
0.3921317
50
343.8035191
51
359.7912046
0
ARC
8
DEFAULT_255_2_778_1
10
10.9815912
20
63.9587167
40
0.5026844
50
333.2506233
51
343.8465691
0
ARC
8
DEFAULT_255_2_778_1
10
10.8277757
20
64.0354313
40
0.6745679
50
325.6600948
51
333.3122657
0
ARC
8
DEFAULT_255_2_778_1
10
10.6323344
20
64.1682296
40
0.9108568
50
319.7560915
51
325.6976089
0
ARC
8
DEFAULT_255_2_778_1
10
10.404199
20
64.3600002
40
1.2088854
50
315.4577584
51
319.8037947
0
ARC
8
DEFAULT_255_2_778_1
10
10.1408127
20
64.6188507
40
1.5781764
50
311.7298824
51
315.4670864
0
ARC
8
DEFAULT_255_2_778_1
10
9.8317879
20
64.9644074
40
2.0417554
50
308.723055
51
311.7470879
0
ARC
8
DEFAULT_255_2_778_1
10
9.477589
20
65.4056492
40
2.6075745
50
306.1165163
51
308.7300151
0
ARC
8
DEFAULT_255_2_778_1
10
9.0746091
20
65.9569523
40
3.2904564
50
303.9559446
51
306.1266333
0
ARC
8
DEFAULT_255_2_778_1
10
8.6630432
20
66.566215
40
4.0257023
50
302.3733397
51
303.9712246
0
ARC
8
DEFAULT_255_2_778_1
10
8.2434347
20
67.2277058
40
4.8090549
50
300.9434827
51
302.3758078
0
LINE
8
DEFAULT_255_2_778
10
10.7161417
20
62.0448075
11
10.7161417
21
5.1594075
0
LINE
8
DEFAULT_255_2_778
10
10.7161417
20
5.1594075
11
9.3932417
21
5.1594075
0
LINE
8
DEFAULT_255_1_388
10
4.8826318
20
131.7883382
11
4.8826318
21
131.6519
0
LINE
8
DEFAULT_255_1_388
10
4.8826318
20
131.6519
11
4.0206313
21
131.6519
0
LINE
8
DEFAULT_255_1_388
10
4.0206313
20
131.6519
11
4.0206313
21
131.7720741
0
LINE
8
DEFAULT_255_1_388
10
4.0206313
20
131.7720741
11
4.4760278
21
132.2780702
0
LINE
8
DEFAULT_255_1_388
10
4.1624909
20
132.5798607
11
3.9953315
21
132.5798607
0
LINE
8
DEFAULT_255_1_388
10
4.5745163
20
132.170546
11
4.2221262
21
131.7883382
0
LINE
8
DEFAULT_255_1_388
10
4.2221262
20
131.7883382
11
4.8826318
21
131.7883382
0
ARC
8
DEFAULT_255_1_388
10
2.9584337
20
133.6200983
40
2.0258655
50
318.5132526
51
320.7829045
0
ARC
8
DEFAULT_255_1_388
10
3.5532294
20
133.1359929
40
1.2589638
50
320.7372878
51
323.9739031
0
ARC
8
DEFAULT_255_1_388
10
3.9941226
20
132.8165554
40
0.7145141
50
323.8962701
51
328.64194
0
ARC
8
DEFAULT_255_1_388
10
4.2243484
20
132.6745545
40
0.4440242
50
328.8294576
51
331.7891185
0
ARC
8
DEFAULT_255_1_388
10
4.3365804
20
132.6166374
40
0.3177517
50
331.4254512
51
352.9365785
0
ARC
8
DEFAULT_255_1_388
10
4.3518804
20
132.613205
40
0.3021496
50
353.2257659
51
0.0166158
0
ARC
8
DEFAULT_255_1_388
10
4.3755564
20
132.6157894
40
0.2784847
50
359.486299
51
15.9343185
0
ARC
8
DEFAULT_255_1_388
10
4.4325831
20
132.6311269
40
0.2194403
50
16.1712913
51
43.5286088
0
ARC
8
DEFAULT_255_1_388
10
4.4412776
20
132.6398191
40
0.2071504
50
43.4417391
51
83.1661095
0
ARC
8
DEFAULT_255_1_388
10
4.4261937
20
132.5569316
40
0.2912888
50
82.160179
51
90.1505708
0
ARC
8
DEFAULT_255_1_388
10
4.4226418
20
132.4965279
40
0.3517025
50
89.5460741
51
102.5418361
0
ARC
8
DEFAULT_255_1_388
10
4.3953138
20
132.6124933
40
0.2325748
50
102.1738499
51
129.206123
0
ARC
8
DEFAULT_255_1_388
10
4.3864592
20
132.6264664
40
0.2161591
50
129.72865
51
135.753947
0
ARC
8
DEFAULT_255_1_388
10
4.4001074
20
132.6155728
40
0.2335433
50
136.1757367
51
166.3673339
0
ARC
8
DEFAULT_255_1_388
10
4.5133762
20
132.5852148
40
0.3507873
50
165.9090694
51
178.8684636
0
ARC
8
DEFAULT_255_1_388
10
4.6109534
20
132.5799263
40
0.4484624
50
178.4391136
51
180.0083808
0
ARC
8
DEFAULT_255_1_388
10
4.4530235
20
132.5843197
40
0.4577138
50
163.2878482
51
180.5581842
0
ARC
8
DEFAULT_255_1_388
10
4.3628276
20
132.6091393
40
0.3641968
50
133.4540601
51
162.947111
0
ARC
8
DEFAULT_255_1_388
10
4.3829158
20
132.5877789
40
0.3935189
50
100.7869829
51
133.4382499
0
ARC
8
DEFAULT_255_1_388
10
4.4220403
20
132.4135399
40
0.5720313
50
89.660664
51
101.3702276
0
ARC
8
DEFAULT_255_1_388
10
4.4295012
20
132.4204263
40
0.5651495
50
78.2172678
51
90.412935
0
ARC
8
DEFAULT_255_1_388
10
4.4694478
20
132.6031511
40
0.378122
50
55.9269121
51
78.4888449
0
ARC
8
DEFAULT_255_1_388
10
4.4915193
20
132.6412187
40
0.3342379
50
47.929771
51
55.4049217
0
ARC
8
DEFAULT_255_1_388
10
4.5029723
20
132.6528618
40
0.3179217
50
4.334829
51
48.0560205
0
ARC
8
DEFAULT_255_1_388
10
4.3797525
20
132.6337487
40
0.442341
50
359.9251713
51
5.5971671
0
ARC
8
DEFAULT_255_1_388
10
4.427968
20
132.6400728
40
0.3941854
50
337.8914027
51
358.9967534
0
ARC
8
DEFAULT_255_1_388
10
4.122725
20
132.7578295
40
0.7213271
50
326.9132501
51
338.3508308
0
ARC
8
DEFAULT_255_1_388
10
3.6743362
20
133.0452105
40
1.2538973
50
319.6471833
51
327.0959558
0
ARC
8
DEFAULT_255_1_388
10
3.243002
20
133.401005
40
1.8129975
50
317.2588228
51
319.9045804
0
LINE
8
DEFAULT_255_1_388
10
5.7654143
20
132.9674898
11
5.7654143
21
132.093743
0
LINE
8
DEFAULT_255_1_388
10
5.7654143
20
132.093743
11
5.9479343
21
132.093743
0
LINE
8
DEFAULT_255_1_388
10
5.9479343
20
132.093743
11
5.9479343
21
131.9573048
0
LINE
8
DEFAULT_255_1_388
10
5.9479343
20
131.9573048
11
5.7654143
21
131.9573048
0
LINE
8
DEFAULT_255_1_388
10
5.7654143
20
131.9573048
11
5.7654143
21
131.6519
0
LINE
8
DEFAULT_255_1_388
10
5.7654143
20
131.6519
11
5.5973513
21
131.6519
0
LINE
8
DEFAULT_255_1_388
10
5.5973513
20
131.6519
11
5.5973513
21
131.9573048
0
LINE
8
DEFAULT_255_1_388
10
5.5973513
20
131.9573048
11
4.998288
21
131.9573048
0
LINE
8
DEFAULT_255_1_388
10
4.998288
20
131.9573048
11
4.998288
21
132.0557933
0
LINE
8
DEFAULT_255_1_388
10
4.998288
20
132.0557933
11
5.5874121
21
132.9674898
0
LINE
8
DEFAULT_255_1_388
10
5.5874121
20
132.9674898
11
5.7654143
21
132.9674898
0
LINE
8
DEFAULT_255_1_388
10
5.5774729
20
132.7027455
11
5.1880366
21
132.093743
0
LINE
8
DEFAULT_255_1_388
10
5.1880366
20
132.093743
11
5.5973513
21
132.093743
0
LINE
8
DEFAULT_255_1_388
10
5.5973513
20
132.093743
11
5.5973513
21
132.738888
0
LINE
8
DEFAULT_255_1_388
10
5.5973513
20
132.738888
11
5.5774729
21
132.7027455
0
LINE
8
DEFAULT_255_1_388
10
6.203643
20
132.9674898
11
6.5777187
21
131.8823089
0
LINE
8
DEFAULT_255_1_388
10
6.5777187
20
131.8823089
11
6.9536015
21
132.9674898
0
LINE
8
DEFAULT_255_1_388
10
6.9536015
20
132.9674898
11
7.14335
21
132.9674898
0
LINE
8
DEFAULT_255_1_388
10
7.14335
20
132.9674898
11
6.6554252
21
131.6519
0
LINE
8
DEFAULT_255_1_388
10
6.6554252
20
131.6519
11
6.5018193
21
131.6519
0
LINE
8
DEFAULT_255_1_388
10
6.5018193
20
131.6519
11
6.014798
21
132.9674898
0
LINE
8
DEFAULT_255_1_388
10
6.014798
20
132.9674898
11
6.203643
21
132.9674898
0
LINE
8
DEFAULT_255_1_388
10
5.1738882
20
5.9674898
11
5.1738882
21
5.8247267
0
LINE
8
DEFAULT_255_1_388
10
5.1738882
20
5.8247267
11
4.7510201
21
5.8247267
0
LINE
8
DEFAULT_255_1_388
10
4.7510201
20
5.8247267
11
4.7510201
21
4.6519
0
LINE
8
DEFAULT_255_1_388
10
4.7510201
20
4.6519
11
4.5784393
21
4.6519
0
LINE
8
DEFAULT_255_1_388
10
4.5784393
20
4.6519
11
4.5784393
21
5.8247267
0
LINE
8
DEFAULT_255_1_388
10
4.5784393
20
5.8247267
11
4.1564747
21
5.8247267
0
LINE
8
DEFAULT_255_1_388
10
4.1564747
20
5.8247267
11
4.1564747
21
5.9674898
0
LINE
8
DEFAULT_255_1_388
10
4.1564747
20
5.9674898
11
5.1738882
21
5.9674898
0
LINE
8
DEFAULT_255_1_388
10
6.1370879
20
5.0693468
11
6.3114759
21
5.0693468
0
LINE
8
DEFAULT_255_1_388
10
5.2985801
20
5.2482525
11
5.2985801
21
5.3747516
0
LINE
8
DEFAULT_255_1_388
10
6.3114759
20
5.5446217
11
6.1370879
21
5.5446217
0
LINE
8
DEFAULT_255_1_388
10
5.4729681
20
5.3702337
11
5.4729681
21
5.2428312
0
ARC
8
DEFAULT_255_1_388
10
5.6948993
20
5.1365329
40
0.6202263
50
340.1774904
51
353.7812217
0
ARC
8
DEFAULT_255_1_388
10
5.8716846
20
5.0706893
40
0.4315926
50
311.4560052
51
340.4420756
0
ARC
8
DEFAULT_255_1_388
10
5.8679385
20
5.0831665
40
0.4434573
50
282.4332229
51
310.7514507
0
ARC
8
DEFAULT_255_1_388
10
5.8185203
20
5.2873703
40
0.6535262
50
269.9358869
51
282.8096729
0
ARC
8
DEFAULT_255_1_388
10
5.8127143
20
5.4386329
40
0.8048043
50
269.9995752
51
270.3612856
0
ARC
8
DEFAULT_255_1_388
10
5.8067633
20
5.1587781
40
0.5249831
50
250.7885263
51
270.6488451
0
ARC
8
DEFAULT_255_1_388
10
5.7878457
20
5.0870853
40
0.4510942
50
219.3628377
51
250.0611024
0
ARC
8
DEFAULT_255_1_388
10
5.8811332
20
5.1663653
40
0.5735046
50
193.5480293
51
219.5755675
0
ARC
8
DEFAULT_255_1_388
10
6.147954
20
5.235652
40
0.849146
50
181.1220183
51
193.8754971
0
ARC
8
DEFAULT_255_1_388
10
6.3802774
20
5.2480914
40
1.0816971
50
179.9914644
51
181.5398227
0
ARC
8
DEFAULT_255_1_388
10
6.1726084
20
5.3789586
40
0.8740384
50
169.5837606
51
180.275782
0
ARC
8
DEFAULT_255_1_388
10
5.9659432
20
5.4171439
40
0.6638751
50
155.0367033
51
169.6002779
0
ARC
8
DEFAULT_255_1_388
10
5.8381891
20
5.4787336
40
0.5220662
50
136.7831557
51
155.2472983
0
ARC
8
DEFAULT_255_1_388
10
5.7943681
20
5.5159577
40
0.4646502
50
121.7633063
51
136.4281161
0
ARC
8
DEFAULT_255_1_388
10
5.8095521
20
5.4879049
40
0.4964979
50
95.6460018
51
121.5489589
0
ARC
8
DEFAULT_255_1_388
10
5.8272495
20
5.3631704
40
0.6223912
50
89.9245727
51
96.1375919
0
ARC
8
DEFAULT_255_1_388
10
5.8329201
20
5.3765721
40
0.6090084
50
76.6779212
51
90.456405
0
ARC
8
DEFAULT_255_1_388
10
5.8772013
20
5.555506
40
0.42469
50
47.4858803
51
76.9287069
0
ARC
8
DEFAULT_255_1_388
10
5.8606627
20
5.5442623
40
0.4441778
50
16.5424081
51
46.8934505
0
ARC
8
DEFAULT_255_1_388
10
5.6797677
20
5.4848265
40
0.6345318
50
5.4072971
51
17.0363711
0
ARC
8
DEFAULT_255_1_388
10
5.5179402
20
5.4588304
40
0.6250632
50
7.8888693
51
15.9242022
0
ARC
8
DEFAULT_255_1_388
10
5.7414387
20
5.5237309
40
0.3923364
50
15.7650676
51
27.9410069
0
ARC
8
DEFAULT_255_1_388
10
5.8656557
20
5.5902317
40
0.2514401
50
27.8167196
51
46.4007942
0
ARC
8
DEFAULT_255_1_388
10
5.8712398
20
5.5895882
40
0.2480958
50
47.4372362
51
75.0695672
0
ARC
8
DEFAULT_255_1_388
10
5.8365234
20
5.4687277
40
0.3738281
50
74.7009379
51
87.8124314
0
ARC
8
DEFAULT_255_1_388
10
5.8282851
20
5.3503659
40
0.4924321
50
87.3802571
51
90.0251599
0
ARC
8
DEFAULT_255_1_388
10
5.8239499
20
5.4823997
40
0.3604218
50
89.3451886
51
108.5744412
0
ARC
8
DEFAULT_255_1_388
10
5.8085491
20
5.5401836
40
0.3007661
50
109.2998307
51
143.3037387
0
ARC
8
DEFAULT_255_1_388
10
5.8942781
20
5.4742584
40
0.4089031
50
143.075267
51
163.1918576
0
ARC
8
DEFAULT_255_1_388
10
6.1138615
20
5.4049652
40
0.6391492
50
162.9375929
51
174.6208776
0
ARC
8
DEFAULT_255_1_388
10
6.4092997
20
5.3725711
40
0.9363344
50
174.342123
51
180.1430283
0
ARC
8
DEFAULT_255_1_388
10
6.3045538
20
5.2382117
40
0.8315986
50
179.6817261
51
189.150555
0
ARC
8
DEFAULT_255_1_388
10
6.0232287
20
5.1913559
40
0.5464044
50
188.9911061
51
203.5772363
0
ARC
8
DEFAULT_255_1_388
10
5.9017579
20
5.1409539
40
0.4149206
50
203.9075402
51
215.1312435
0
ARC
8
DEFAULT_255_1_388
10
5.7979376
20
5.0604907
40
0.2837747
50
213.9071511
51
263.8848919
0
ARC
8
DEFAULT_255_1_388
10
5.812037
20
5.1487519
40
0.3730641
50
263.1757928
51
270.1031044
0
ARC
8
DEFAULT_255_1_388
10
5.8156449
20
5.2890511
40
0.5133712
50
269.6722503
51
279.0606936
0
ARC
8
DEFAULT_255_1_388
10
5.8456605
20
5.107615
40
0.3294739
50
278.8749101
51
293.6349581
0
ARC
8
DEFAULT_255_1_388
10
5.8816808
20
5.0230251
40
0.2375405
50
293.8553806
51
310.0518171
0
ARC
8
DEFAULT_255_1_388
10
5.8822317
20
5.0160021
40
0.2318463
50
311.0644687
51
332.0111037
0
ARC
8
DEFAULT_255_1_388
10
5.7480991
20
5.0899702
40
0.3850112
50
331.6586806
51
343.2877423
0
ARC
8
DEFAULT_255_1_388
10
5.5160456
20
5.1612806
40
0.6277712
50
343.1446576
51
351.0103568
0
ARC
8
DEFAULT_255_1_388
10
5.3527779
20
5.1912873
40
0.7937327
50
350.71248
51
351.1626997
0
ARC
8
DEFAULT_255_1_388
10
6.9851892
20
5.621272
40
0.3175098
50
338.8762533
51
0.5167111
0
ARC
8
DEFAULT_255_1_388
10
7.0041486
20
5.61616
40
0.2979894
50
325.8415285
51
338.4793574
0
ARC
8
DEFAULT_255_1_388
10
6.9602119
20
5.6466242
40
0.351452
50
296.7587686
51
325.7536481
0
ARC
8
DEFAULT_255_1_388
10
6.9273747
20
5.7020363
40
0.4157374
50
296.0927901
51
297.3613472
0
ARC
8
DEFAULT_255_1_388
10
6.9567943
20
4.9637593
40
0.395855
50
47.9007294
51
67.1948823
0
ARC
8
DEFAULT_255_1_388
10
6.9788585
20
4.9914599
40
0.360516
50
35.2363914
51
47.551141
0
ARC
8
DEFAULT_255_1_388
10
7.0082988
20
5.0111093
40
0.3251343
50
359.2759765
51
35.4014143
0
ARC
8
DEFAULT_255_1_388
10
6.9244915
20
5.0028787
40
0.4089365
50
343.1293083
51
0.5775513
0
ARC
8
DEFAULT_255_1_388
10
7.0060028
20
4.9804336
40
0.3244269
50
310.8496669
51
342.7449331
0
ARC
8
DEFAULT_255_1_388
10
6.9589903
20
5.0340913
40
0.3957651
50
281.5472888
51
310.9170406
0
ARC
8
DEFAULT_255_1_388
10
6.9188778
20
5.2087814
40
0.5749654
50
269.619248
51
281.9789564
0
ARC
8
DEFAULT_255_1_388
10
6.9107555
20
5.2088776
40
0.5750649
50
257.4585678
51
270.4285689
0
ARC
8
DEFAULT_255_1_388
10
6.8679076
20
5.0284741
40
0.389671
50
228.7554326
51
257.8484789
0
ARC
8
DEFAULT_255_1_388
10
6.8330561
20
4.9865228
40
0.335154
50
184.0104975
51
228.5071184
0
ARC
8
DEFAULT_255_1_388
10
6.9638953
20
5.006443
40
0.4671891
50
179.9315832
51
185.3253753
0
ARC
8
DEFAULT_255_1_388
10
6.8315466
20
5.0106592
40
0.33486
50
145.6796023
51
180.6259786
0
ARC
8
DEFAULT_255_1_388
10
6.8499232
20
4.9978271
40
0.3572723
50
115.5537685
51
145.6415986
0
ARC
8
DEFAULT_255_1_388
10
6.8882276
20
4.9292087
40
0.4357296
50
113.243307
51
116.2057839
0
ARC
8
DEFAULT_255_1_388
10
6.8710927
20
5.6489379
40
0.3549126
50
222.9549744
51
244.1370481
0
ARC
8
DEFAULT_255_1_388
10
6.8573571
20
5.6335378
40
0.3343711
50
213.3436887
51
222.6274467
0
ARC
8
DEFAULT_255_1_388
10
6.835764
20
5.6188653
40
0.3082678
50
180.431584
51
213.271499
0
ARC
8
DEFAULT_255_1_388
10
6.8992639
20
5.6241296
40
0.3718363
50
179.9991191
51
181.1690594
0
ARC
8
DEFAULT_255_1_388
10
6.9465095
20
5.6280072
40
0.4190996
50
164.6186169
51
180.529336
0
ARC
8
DEFAULT_255_1_388
10
6.8454744
20
5.655178
40
0.3144772
50
132.2455553
51
164.5090724
0
ARC
8
DEFAULT_255_1_388
10
6.8777723
20
5.618607
40
0.3632644
50
100.7053914
51
132.1386381
0
ARC
8
DEFAULT_255_1_388
10
6.9120783
20
5.4636118
40
0.5219578
50
89.6730358
51
101.2451698
0
ARC
8
DEFAULT_255_1_388
10
6.9190774
20
5.4832648
40
0.5023124
50
76.287748
51
90.4586006
0
ARC
8
DEFAULT_255_1_388
10
6.9535276
20
5.6207671
40
0.3605639
50
47.8240511
51
76.4266241
0
ARC
8
DEFAULT_255_1_388
10
6.9785661
20
5.6500599
40
0.3220463
50
6.9168387
51
47.6262497
0
ARC
8
DEFAULT_255_1_388
10
6.8451114
20
5.6254004
40
0.4575765
50
359.8415968
51
7.9697453
0
ARC
8
DEFAULT_255_1_388
10
6.8835383
20
5.0133519
40
0.2827228
50
359.445363
51
16.9256873
0
ARC
8
DEFAULT_255_1_388
10
6.9362817
20
5.0278781
40
0.2280396
50
17.2920767
51
45.4630727
0
ARC
8
DEFAULT_255_1_388
10
6.9301953
20
5.0226324
40
0.2360485
50
45.30305
51
83.1920945
0
ARC
8
DEFAULT_255_1_388
10
6.9140698
20
4.9324473
40
0.3275527
50
82.2612665
51
90.1434275
0
ARC
8
DEFAULT_255_1_388
10
6.9105974
20
4.9586869
40
0.3013237
50
89.4956434
51
104.8580688
0
ARC
8
DEFAULT_255_1_388
10
6.8907164
20
5.0340455
40
0.2233867
50
104.8856641
51
135.244616
0
ARC
8
DEFAULT_255_1_388
10
6.8963153
20
5.0290352
40
0.2308906
50
135.3399546
51
172.1044062
0
ARC
8
DEFAULT_255_1_388
10
6.9870677
20
5.0116667
40
0.3232034
50
171.2645637
51
180.186429
0
ARC
8
DEFAULT_255_1_388
10
6.9680682
20
5.0080426
40
0.304213
50
179.5154935
51
193.6464289
0
ARC
8
DEFAULT_255_1_388
10
6.8762358
20
4.9846473
40
0.209456
50
193.3540274
51
225.8258581
0
ARC
8
DEFAULT_255_1_388
10
6.880823
20
4.9926076
40
0.2183738
50
226.4180634
51
255.8552336
0
ARC
8
DEFAULT_255_1_388
10
6.9096696
20
5.0979521
40
0.3275812
50
255.4654104
51
268.7987425
0
ARC
8
DEFAULT_255_1_388
10
6.9149873
20
5.1921545
40
0.4218877
50
268.3449238
51
270.0094605
0
ARC
8
DEFAULT_255_1_388
10
6.9176106
20
5.1153094
40
0.3450519
50
269.5759586
51
282.0820163
0
ARC
8
DEFAULT_255_1_388
10
6.9429142
20
5.0034363
40
0.2303642
50
281.752014
51
306.6056188
0
ARC
8
DEFAULT_255_1_388
10
6.953995
20
4.9852802
40
0.2091906
50
307.1346085
51
314.027845
0
ARC
8
DEFAULT_255_1_388
10
6.9499462
20
4.9882459
40
0.2141385
50
314.2552483
51
350.1694025
0
ARC
8
DEFAULT_255_1_388
10
6.8541699
20
5.0090175
40
0.312082
50
349.4140529
51
0.2933014
0
ARC
8
DEFAULT_255_1_388
10
6.9126977
20
5.5893924
40
0.2588377
50
89.477747
51
105.729729
0
ARC
8
DEFAULT_255_1_388
10
6.8973896
20
5.6462367
40
0.1999733
50
105.9233417
51
135.1660906
0
ARC
8
DEFAULT_255_1_388
10
6.8996927
20
5.6446412
40
0.2027322
50
135.3052302
51
168.9883645
0
ARC
8
DEFAULT_255_1_388
10
6.9927944
20
5.6232996
40
0.2982129
50
168.3801673
51
180.3602268
0
ARC
8
DEFAULT_255_1_388
10
6.967106
20
5.6190622
40
0.2725291
50
179.5033122
51
194.9125571
0
ARC
8
DEFAULT_255_1_388
10
6.9012467
20
5.6017427
40
0.204431
50
194.9720816
51
224.194444
0
ARC
8
DEFAULT_255_1_388
10
6.8980833
20
5.5991635
40
0.2003651
50
224.2962453
51
262.015664
0
ARC
8
DEFAULT_255_1_388
10
6.9140837
20
5.6814315
40
0.2840925
50
261.1245923
51
270.1962896
0
ARC
8
DEFAULT_255_1_388
10
6.9174318
20
5.6603859
40
0.2630559
50
269.4827276
51
285.0987215
0
ARC
8
DEFAULT_255_1_388
10
6.9347754
20
5.5953175
40
0.1957162
50
285.1585357
51
315.9484501
0
ARC
8
DEFAULT_255_1_388
10
6.9247628
20
5.6045315
40
0.2093195
50
316.0413965
51
351.916092
0
ARC
8
DEFAULT_255_1_388
10
6.8423002
20
5.6204323
40
0.2932279
50
351.105835
51
0.1939062
0
ARC
8
DEFAULT_255_1_388
10
6.8718636
20
5.6238224
40
0.2636739
50
359.4789618
51
16.0678224
0
ARC
8
DEFAULT_255_1_388
10
6.9254108
20
5.6382721
40
0.2082215
50
16.3252067
51
44.7913869
0
ARC
8
DEFAULT_255_1_388
10
6.923417
20
5.638332
40
0.2095992
50
44.3957814
51
88.2499162
0
ARC
8
DEFAULT_255_1_388
10
6.9151504
20
5.5695006
40
0.2787189
50
86.9833854
51
90.0192215
0
LINE
8
DEFAULT_255_1_388
10
7.9089778
20
5.2789737
11
7.9089778
21
5.1425355
0
LINE
8
DEFAULT_255_1_388
10
7.9089778
20
5.1425355
11
7.4680384
21
5.1425355
0
LINE
8
DEFAULT_255_1_388
10
7.4680384
20
5.1425355
11
7.4680384
21
5.2789737
0
LINE
8
DEFAULT_255_1_388
10
7.4680384
20
5.2789737
11
7.9089778
21
5.2789737
0
LINE
8
DEFAULT_255_1_388
10
5.0374882
20
13.9049898
11
5.0374882
21
13.7622267
0
LINE
8
DEFAULT_255_1_388
10
5.0374882
20
13.7622267
11
4.6146201
21
13.7622267
0
LINE
8
DEFAULT_255_1_388
10
4.6146201
20
13.7622267
11
4.6146201
21
12.5894
0
LINE
8
DEFAULT_255_1_388
10
4.6146201
20
12.5894
11
4.4420393
21
12.5894
0
LINE
8
DEFAULT_255_1_388
10
4.4420393
20
12.5894
11
4.4420393
21
13.7622267
0
LINE
8
DEFAULT_255_1_388
10
4.4420393
20
13.7622267
11
4.0200747
21
13.7622267
0
LINE
8
DEFAULT_255_1_388
10
4.0200747
20
13.7622267
11
4.0200747
21
13.9049898
0
LINE
8
DEFAULT_255_1_388
10
4.0200747
20
13.9049898
11
5.0374882
21
13.9049898
0
LINE
8
DEFAULT_255_1_388
10
6.0006879
20
13.0068468
11
6.1750759
21
13.0068468
0
LINE
8
DEFAULT_255_1_388
10
5.1621801
20
13.1857525
11
5.1621801
21
13.3122516
0
LINE
8
DEFAULT_255_1_388
10
6.1750759
20
13.4821217
11
6.0006879
21
13.4821217
0
LINE
8
DEFAULT_255_1_388
10
5.3365681
20
13.3077337
11
5.3365681
21
13.1803312
0
ARC
8
DEFAULT_255_1_388
10
5.5584993
20
13.0740329
40
0.6202263
50
340.1774904
51
353.7812217
0
ARC
8
DEFAULT_255_1_388
10
5.7352846
20
13.0081893
40
0.4315926
50
311.4560052
51
340.4420756
0
ARC
8
DEFAULT_255_1_388
10
5.7315385
20
13.0206665
40
0.4434573
50
282.4332229
51
310.7514507
0
ARC
8
DEFAULT_255_1_388
10
5.6821203
20
13.2248703
40
0.6535262
50
269.9358869
51
282.8096729
0
ARC
8
DEFAULT_255_1_388
10
5.6763143
20
13.3761329
40
0.8048043
50
269.9995752
51
270.3612856
0
ARC
8
DEFAULT_255_1_388
10
5.6703633
20
13.0962781
40
0.5249831
50
250.7885263
51
270.6488451
0
ARC
8
DEFAULT_255_1_388
10
5.6514457
20
13.0245853
40
0.4510942
50
219.3628377
51
250.0611024
0
ARC
8
DEFAULT_255_1_388
10
5.7447332
20
13.1038653
40
0.5735046
50
193.5480293
51
219.5755675
0
ARC
8
DEFAULT_255_1_388
10
6.011554
20
13.173152
40
0.849146
50
181.1220183
51
193.8754971
0
ARC
8
DEFAULT_255_1_388
10
6.2438774
20
13.1855914
40
1.0816971
50
179.9914644
51
181.5398227
0
ARC
8
DEFAULT_255_1_388
10
6.0362084
20
13.3164586
40
0.8740384
50
169.5837606
51
180.275782
0
ARC
8
DEFAULT_255_1_388
10
5.8295432
20
13.3546439
40
0.6638751
50
155.0367033
51
169.6002779
0
ARC
8
DEFAULT_255_1_388
10
5.7017891
20
13.4162336
40
0.5220662
50
136.7831557
51
155.2472983
0
ARC
8
DEFAULT_255_1_388
10
5.6579681
20
13.4534577
40
0.4646502
50
121.7633063
51
136.4281161
0
ARC
8
DEFAULT_255_1_388
10
5.6731521
20
13.4254049
40
0.4964979
50
95.6460018
51
121.5489589
0
ARC
8
DEFAULT_255_1_388
10
5.6908495
20
13.3006704
40
0.6223912
50
89.9245727
51
96.1375919
0
ARC
8
DEFAULT_255_1_388
10
5.6965201
20
13.3140721
40
0.6090084
50
76.6779212
51
90.456405
0
ARC
8
DEFAULT_255_1_388
10
5.7408013
20
13.493006
40
0.42469
50
47.4858803
51
76.9287069
0
ARC
8
DEFAULT_255_1_388
10
5.7242627
20
13.4817623
40
0.4441778
50
16.5424081
51
46.8934505
0
ARC
8
DEFAULT_255_1_388
10
5.5433677
20
13.4223265
40
0.6345318
50
5.4072971
51
17.0363711
0
ARC
8
DEFAULT_255_1_388
10
5.3815402
20
13.3963304
40
0.6250632
50
7.8888693
51
15.9242022
0
ARC
8
DEFAULT_255_1_388
10
5.6050387
20
13.4612309
40
0.3923364
50
15.7650676
51
27.9410069
0
ARC
8
DEFAULT_255_1_388
10
5.7292557
20
13.5277317
40
0.2514401
50
27.8167196
51
46.4007942
0
ARC
8
DEFAULT_255_1_388
10
5.7348398
20
13.5270882
40
0.2480958
50
47.4372362
51
75.0695672
0
ARC
8
DEFAULT_255_1_388
10
5.7001234
20
13.4062277
40
0.3738281
50
74.7009379
51
87.8124314
0
ARC
8
DEFAULT_255_1_388
10
5.6918851
20
13.2878659
40
0.4924321
50
87.3802571
51
90.0251599
0
ARC
8
DEFAULT_255_1_388
10
5.6875499
20
13.4198997
40
0.3604218
50
89.3451886
51
108.5744412
0
ARC
8
DEFAULT_255_1_388
10
5.6721491
20
13.4776836
40
0.3007661
50
109.2998307
51
143.3037387
0
ARC
8
DEFAULT_255_1_388
10
5.7578781
20
13.4117584
40
0.4089031
50
143.075267
51
163.1918576
0
ARC
8
DEFAULT_255_1_388
10
5.9774615
20
13.3424652
40
0.6391492
50
162.9375929
51
174.6208776
0
ARC
8
DEFAULT_255_1_388
10
6.2728997
20
13.3100711
40
0.9363344
50
174.342123
51
180.1430283
0
ARC
8
DEFAULT_255_1_388
10
6.1681538
20
13.1757117
40
0.8315986
50
179.6817261
51
189.150555
0
ARC
8
DEFAULT_255_1_388
10
5.8868287
20
13.1288559
40
0.5464044
50
188.9911061
51
203.5772363
0
ARC
8
DEFAULT_255_1_388
10
5.7653579
20
13.0784539
40
0.4149206
50
203.9075402
51
215.1312435
0
ARC
8
DEFAULT_255_1_388
10
5.6615376
20
12.9979907
40
0.2837747
50
213.9071511
51
263.8848919
0
ARC
8
DEFAULT_255_1_388
10
5.675637
20
13.0862519
40
0.3730641
50
263.1757928
51
270.1031044
0
ARC
8
DEFAULT_255_1_388
10
5.6792449
20
13.2265511
40
0.5133712
50
269.6722503
51
279.0606936
0
ARC
8
DEFAULT_255_1_388
10
5.7092605
20
13.045115
40
0.3294739
50
278.8749101
51
293.6349581
0
ARC
8
DEFAULT_255_1_388
10
5.7452808
20
12.9605251
40
0.2375405
50
293.8553806
51
310.0518171
0
ARC
8
DEFAULT_255_1_388
10
5.7458317
20
12.9535021
40
0.2318463
50
311.0644687
51
332.0111037
0
ARC
8
DEFAULT_255_1_388
10
5.6116991
20
13.0274702
40
0.3850112
50
331.6586806
51
343.2877423
0
ARC
8
DEFAULT_255_1_388
10
5.3796456
20
13.0987806
40
0.6277712
50
343.1446576
51
351.0103568
0
ARC
8
DEFAULT_255_1_388
10
5.2163779
20
13.1287873
40
0.7937327
50
350.71248
51
351.1626997
0
ARC
8
DEFAULT_255_1_388
10
6.8487892
20
13.558772
40
0.3175098
50
338.8762533
51
0.5167111
0
ARC
8
DEFAULT_255_1_388
10
6.8677486
20
13.55366
40
0.2979894
50
325.8415285
51
338.4793574
0
ARC
8
DEFAULT_255_1_388
10
6.8238119
20
13.5841242
40
0.351452
50
296.7587686
51
325.7536481
0
ARC
8
DEFAULT_255_1_388
10
6.7909747
20
13.6395363
40
0.4157374
50
296.0927901
51
297.3613472
0
ARC
8
DEFAULT_255_1_388
10
6.8203943
20
12.9012593
40
0.395855
50
47.9007294
51
67.1948823
0
ARC
8
DEFAULT_255_1_388
10
6.8424585
20
12.9289599
40
0.360516
50
35.2363914
51
47.551141
0
ARC
8
DEFAULT_255_1_388
10
6.8718988
20
12.9486093
40
0.3251343
50
359.2759765
51
35.4014143
0
ARC
8
DEFAULT_255_1_388
10
6.7880915
20
12.9403787
40
0.4089365
50
343.1293083
51
0.5775513
0
ARC
8
DEFAULT_255_1_388
10
6.8696028
20
12.9179336
40
0.3244269
50
310.8496669
51
342.7449331
0
ARC
8
DEFAULT_255_1_388
10
6.8225903
20
12.9715913
40
0.3957651
50
281.5472888
51
310.9170406
0
ARC
8
DEFAULT_255_1_388
10
6.7824778
20
13.1462814
40
0.5749654
50
269.619248
51
281.9789564
0
ARC
8
DEFAULT_255_1_388
10
6.7743555
20
13.1463776
40
0.5750649
50
257.4585678
51
270.4285689
0
ARC
8
DEFAULT_255_1_388
10
6.7315076
20
12.9659741
40
0.389671
50
228.7554326
51
257.8484789
0
ARC
8
DEFAULT_255_1_388
10
6.6966561
20
12.9240228
40
0.335154
50
184.0104975
51
228.5071184
0
ARC
8
DEFAULT_255_1_388
10
6.8274953
20
12.943943
40
0.4671891
50
179.9315832
51
185.3253753
0
ARC
8
DEFAULT_255_1_388
10
6.6951466
20
12.9481592
40
0.33486
50
145.6796023
51
180.6259786
0
ARC
8
DEFAULT_255_1_388
10
6.7135232
20
12.9353271
40
0.3572723
50
115.5537685
51
145.6415986
0
ARC
8
DEFAULT_255_1_388
10
6.7518276
20
12.8667087
40
0.4357296
50
113.243307
51
116.2057839
0
ARC
8
DEFAULT_255_1_388
10
6.7346927
20
13.5864379
40
0.3549126
50
222.9549744
51
244.1370481
0
ARC
8
DEFAULT_255_1_388
10
6.7209571
20
13.5710378
40
0.3343711
50
213.3436887
51
222.6274467
0
ARC
8
DEFAULT_255_1_388
10
6.699364
20
13.5563653
40
0.3082678
50
180.431584
51
213.271499
0
ARC
8
DEFAULT_255_1_388
10
6.7628639
20
13.5616296
40
0.3718363
50
179.9991191
51
181.1690594
0
ARC
8
DEFAULT_255_1_388
10
6.8101095
20
13.5655072
40
0.4190996
50
164.6186169
51
180.529336
0
ARC
8
DEFAULT_255_1_388
10
6.7090744
20
13.592678
40
0.3144772
50
132.2455553
51
164.5090724
0
ARC
8
DEFAULT_255_1_388
10
6.7413723
20
13.556107
40
0.3632644
50
100.7053914
51
132.1386381
0
ARC
8
DEFAULT_255_1_388
10
6.7756783
20
13.4011118
40
0.5219578
50
89.6730358
51
101.2451698
0
ARC
8
DEFAULT_255_1_388
10
6.7826774
20
13.4207648
40
0.5023124
50
76.287748
51
90.4586006
0
ARC
8
DEFAULT_255_1_388
10
6.8171276
20
13.5582671
40
0.3605639
50
47.8240511
51
76.4266241
0
ARC
8
DEFAULT_255_1_388
10
6.8421661
20
13.5875599
40
0.3220463
50
6.9168387
51
47.6262497
0
ARC
8
DEFAULT_255_1_388
10
6.7087114
20
13.5629004
40
0.4575765
50
359.8415968
51
7.9697453
0
ARC
8
DEFAULT_255_1_388
10
6.7471383
20
12.9508519
40
0.2827228
50
359.445363
51
16.9256873
0
ARC
8
DEFAULT_255_1_388
10
6.7998817
20
12.9653781
40
0.2280396
50
17.2920767
51
45.4630727
0
ARC
8
DEFAULT_255_1_388
10
6.7937953
20
12.9601324
40
0.2360485
50
45.30305
51
83.1920945
0
ARC
8
DEFAULT_255_1_388
10
6.7776698
20
12.8699473
40
0.3275527
50
82.2612665
51
90.1434275
0
ARC
8
DEFAULT_255_1_388
10
6.7741974
20
12.8961869
40
0.3013237
50
89.4956434
51
104.8580688
0
ARC
8
DEFAULT_255_1_388
10
6.7543164
20
12.9715455
40
0.2233867
50
104.8856641
51
135.244616
0
ARC
8
DEFAULT_255_1_388
10
6.7599153
20
12.9665352
40
0.2308906
50
135.3399546
51
172.1044062
0
ARC
8
DEFAULT_255_1_388
10
6.8506677
20
12.9491667
40
0.3232034
50
171.2645637
51
180.186429
0
ARC
8
DEFAULT_255_1_388
10
6.8316682
20
12.9455426
40
0.304213
50
179.5154935
51
193.6464289
0
ARC
8
DEFAULT_255_1_388
10
6.7398358
20
12.9221473
40
0.209456
50
193.3540274
51
225.8258581
0
ARC
8
DEFAULT_255_1_388
10
6.744423
20
12.9301076
40
0.2183738
50
226.4180634
51
255.8552336
0
ARC
8
DEFAULT_255_1_388
10
6.7732696
20
13.0354521
40
0.3275812
50
255.4654104
51
268.7987425
0
ARC
8
DEFAULT_255_1_388
10
6.7785873
20
13.1296545
40
0.4218877
50
268.3449238
51
270.0094605
0
ARC
8
DEFAULT_255_1_388
10
6.7812106
20
13.0528094
40
0.3450519
50
269.5759586
51
282.0820163
0
ARC
8
DEFAULT_255_1_388
10
6.8065142
20
12.9409363
40
0.2303642
50
281.752014
51
306.6056188
0
ARC
8
DEFAULT_255_1_388
10
6.817595
20
12.9227802
40
0.2091906
50
307.1346085
51
314.027845
0
ARC
8
DEFAULT_255_1_388
10
6.8135462
20
12.9257459
40
0.2141385
50
314.2552483
51
350.1694025
0
ARC
8
DEFAULT_255_1_388
10
6.7177699
20
12.9465175
40
0.312082
50
349.4140529
51
0.2933014
0
ARC
8
DEFAULT_255_1_388
10
6.7762977
20
13.5268924
40
0.2588377
50
89.477747
51
105.729729
0
ARC
8
DEFAULT_255_1_388
10
6.7609896
20
13.5837367
40
0.1999733
50
105.9233417
51
135.1660906
0
ARC
8
DEFAULT_255_1_388
10
6.7632927
20
13.5821412
40
0.2027322
50
135.3052302
51
168.9883645
0
ARC
8
DEFAULT_255_1_388
10
6.8563944
20
13.5607996
40
0.2982129
50
168.3801673
51
180.3602268
0
ARC
8
DEFAULT_255_1_388
10
6.830706
20
13.5565622
40
0.2725291
50
179.5033122
51
194.9125571
0
ARC
8
DEFAULT_255_1_388
10
6.7648467
20
13.5392427
40
0.204431
50
194.9720816
51
224.194444
0
ARC
8
DEFAULT_255_1_388
10
6.7616833
20
13.5366635
40
0.2003651
50
224.2962453
51
262.015664
0
ARC
8
DEFAULT_255_1_388
10
6.7776837
20
13.6189315
40
0.2840925
50
261.1245923
51
270.1962896
0
ARC
8
DEFAULT_255_1_388
10
6.7810318
20
13.5978859
40
0.2630559
50
269.4827276
51
285.0987215
0
ARC
8
DEFAULT_255_1_388
10
6.7983754
20
13.5328175
40
0.1957162
50
285.1585357
51
315.9484501
0
ARC
8
DEFAULT_255_1_388
10
6.7883628
20
13.5420315
40
0.2093195
50
316.0413965
51
351.916092
0
ARC
8
DEFAULT_255_1_388
10
6.7059002
20
13.5579323
40
0.2932279
50
351.105835
51
0.1939062
0
ARC
8
DEFAULT_255_1_388
10
6.7354636
20
13.5613224
40
0.2636739
50
359.4789618
51
16.0678224
0
ARC
8
DEFAULT_255_1_388
10
6.7890108
20
13.5757721
40
0.2082215
50
16.3252067
51
44.7913869
0
ARC
8
DEFAULT_255_1_388
10
6.787017
20
13.575832
40
0.2095992
50
44.3957814
51
88.2499162
0
ARC
8
DEFAULT_255_1_388
10
6.7787504
20
13.5070006
40
0.2787189
50
86.9833854
51
90.0192215
0
LINE
8
DEFAULT_255_1_388
10
7.9035947
20
13.6790987
11
7.9035947
21
13.2950838
0
LINE
8
DEFAULT_255_1_388
10
7.9035947
20
13.2950838
11
8.2704418
21
13.2950838
0
LINE
8
DEFAULT_255_1_388
10
8.2704418
20
13.2950838
11
8.2704418
21
13.1369601
0
LINE
8
DEFAULT_255_1_388
10
8.2704418
20
13.1369601
11
7.9035947
21
13.1369601
0
LINE
8
DEFAULT_255_1_388
10
7.9035947
20
13.1369601
11
7.9035947
21
12.7213204
0
LINE
8
DEFAULT_255_1_388
10
7.9035947
20
12.7213204
11
7.7355317
21
12.7213204
0
LINE
8
DEFAULT_255_1_388
10
7.7355317
20
12.7213204
11
7.7355317
21
13.1369601
0
LINE
8
DEFAULT_255_1_388
10
7.7355317
20
13.1369601
11
7.3686845
21
13.1369601
0
LINE
8
DEFAULT_255_1_388
10
7.3686845
20
13.1369601
11
7.3686845
21
13.2950838
0
LINE
8
DEFAULT_255_1_388
10
7.3686845
20
13.2950838
11
7.7355317
21
13.2950838
0
LINE
8
DEFAULT_255_1_388
10
7.7355317
20
13.2950838
11
7.7355317
21
13.6790987
0
LINE
8
DEFAULT_255_1_388
10
7.7355317
20
13.6790987
11
7.9035947
21
13.6790987
0
LINE
8
DEFAULT_255_1_388
10
5.1738882
20
21.8424898
11
5.1738882
21
21.6997267
0
LINE
8
DEFAULT_255_1_388
10
5.1738882
20
21.6997267
11
4.7510201
21
21.6997267
0
LINE
8
DEFAULT_255_1_388
10
4.7510201
20
21.6997267
11
4.7510201
21
20.5269
0
LINE
8
DEFAULT_255_1_388
10
4.7510201
20
20.5269
11
4.5784393
21
20.5269
0
LINE
8
DEFAULT_255_1_388
10
4.5784393
20
20.5269
11
4.5784393
21
21.6997267
0
LINE
8
DEFAULT_255_1_388
10
4.5784393
20
21.6997267
11
4.1564747
21
21.6997267
0
LINE
8
DEFAULT_255_1_388
10
4.1564747
20
21.6997267
11
4.1564747
21
21.8424898
0
LINE
8
DEFAULT_255_1_388
10
4.1564747
20
21.8424898
11
5.1738882
21
21.8424898
0
LINE
8
DEFAULT_255_1_388
10
6.1370879
20
20.9443468
11
6.3114759
21
20.9443468
0
LINE
8
DEFAULT_255_1_388
10
5.2985801
20
21.1232525
11
5.2985801
21
21.2497516
0
LINE
8
DEFAULT_255_1_388
10
6.3114759
20
21.4196217
11
6.1370879
21
21.4196217
0
LINE
8
DEFAULT_255_1_388
10
5.4729681
20
21.2452337
11
5.4729681
21
21.1178312
0
ARC
8
DEFAULT_255_1_388
10
5.6948993
20
21.0115329
40
0.6202263
50
340.1774904
51
353.7812217
0
ARC
8
DEFAULT_255_1_388
10
5.8716846
20
20.9456893
40
0.4315926
50
311.4560052
51
340.4420756
0
ARC
8
DEFAULT_255_1_388
10
5.8679385
20
20.9581665
40
0.4434573
50
282.4332229
51
310.7514507
0
ARC
8
DEFAULT_255_1_388
10
5.8185203
20
21.1623703
40
0.6535262
50
269.9358869
51
282.8096729
0
ARC
8
DEFAULT_255_1_388
10
5.8127143
20
21.3136329
40
0.8048043
50
269.9995752
51
270.3612856
0
ARC
8
DEFAULT_255_1_388
10
5.8067633
20
21.0337781
40
0.5249831
50
250.7885263
51
270.6488451
0
ARC
8
DEFAULT_255_1_388
10
5.7878457
20
20.9620853
40
0.4510942
50
219.3628377
51
250.0611024
0
ARC
8
DEFAULT_255_1_388
10
5.8811332
20
21.0413653
40
0.5735046
50
193.5480293
51
219.5755675
0
ARC
8
DEFAULT_255_1_388
10
6.147954
20
21.110652
40
0.849146
50
181.1220183
51
193.8754971
0
ARC
8
DEFAULT_255_1_388
10
6.3802774
20
21.1230914
40
1.0816971
50
179.9914644
51
181.5398227
0
ARC
8
DEFAULT_255_1_388
10
6.1726084
20
21.2539586
40
0.8740384
50
169.5837606
51
180.275782
0
ARC
8
DEFAULT_255_1_388
10
5.9659432
20
21.2921439
40
0.6638751
50
155.0367033
51
169.6002779
0
ARC
8
DEFAULT_255_1_388
10
5.8381891
20
21.3537336
40
0.5220662
50
136.7831557
51
155.2472983
0
ARC
8
DEFAULT_255_1_388
10
5.7943681
20
21.3909577
40
0.4646502
50
121.7633063
51
136.4281161
0
ARC
8
DEFAULT_255_1_388
10
5.8095521
20
21.3629049
40
0.4964979
50
95.6460018
51
121.5489589
0
ARC
8
DEFAULT_255_1_388
10
5.8272495
20
21.2381704
40
0.6223912
50
89.9245727
51
96.1375919
0
ARC
8
DEFAULT_255_1_388
10
5.8329201
20
21.2515721
40
0.6090084
50
76.6779212
51
90.456405
0
ARC
8
DEFAULT_255_1_388
10
5.8772013
20
21.430506
40
0.42469
50
47.4858803
51
76.9287069
0
ARC
8
DEFAULT_255_1_388
10
5.8606627
20
21.4192623
40
0.4441778
50
16.5424081
51
46.8934505
0
ARC
8
DEFAULT_255_1_388
10
5.6797677
20
21.3598265
40
0.6345318
50
5.4072971
51
17.0363711
0
ARC
8
DEFAULT_255_1_388
10
5.5179402
20
21.3338304
40
0.6250632
50
7.8888693
51
15.9242022
0
ARC
8
DEFAULT_255_1_388
10
5.7414387
20
21.3987309
40
0.3923364
50
15.7650676
51
27.9410069
0
ARC
8
DEFAULT_255_1_388
10
5.8656557
20
21.4652317
40
0.2514401
50
27.8167196
51
46.4007942
0
ARC
8
DEFAULT_255_1_388
10
5.8712398
20
21.4645882
40
0.2480958
50
47.4372362
51
75.0695672
0
ARC
8
DEFAULT_255_1_388
10
5.8365234
20
21.3437277
40
0.3738281
50
74.7009379
51
87.8124314
0
ARC
8
DEFAULT_255_1_388
10
5.8282851
20
21.2253659
40
0.4924321
50
87.3802571
51
90.0251599
0
ARC
8
DEFAULT_255_1_388
10
5.8239499
20
21.3573997
40
0.3604218
50
89.3451886
51
108.5744412
0
ARC
8
DEFAULT_255_1_388
10
5.8085491
20
21.4151836
40
0.3007661
50
109.2998307
51
143.3037387
0
ARC
8
DEFAULT_255_1_388
10
5.8942781
20
21.3492584
40
0.4089031
50
143.075267
51
163.1918576
0
ARC
8
DEFAULT_255_1_388
10
6.1138615
20
21.2799652
40
0.6391492
50
162.9375929
51
174.6208776
0
ARC
8
DEFAULT_255_1_388
10
6.4092997
20
21.2475711
40
0.9363344
50
174.342123
51
180.1430283
0
ARC
8
DEFAULT_255_1_388
10
6.3045538
20
21.1132117
40
0.8315986
50
179.6817261
51
189.150555
0
ARC
8
DEFAULT_255_1_388
10
6.0232287
20
21.0663559
40
0.5464044
50
188.9911061
51
203.5772363
0
ARC
8
DEFAULT_255_1_388
10
5.9017579
20
21.0159539
40
0.4149206
50
203.9075402
51
215.1312435
0
ARC
8
DEFAULT_255_1_388
10
5.7979376
20
20.9354907
40
0.2837747
50
213.9071511
51
263.8848919
0
ARC
8
DEFAULT_255_1_388
10
5.812037
20
21.0237519
40
0.3730641
50
263.1757928
51
270.1031044
0
ARC
8
DEFAULT_255_1_388
10
5.8156449
20
21.1640511
40
0.5133712
50
269.6722503
51
279.0606936
0
ARC
8
DEFAULT_255_1_388
10
5.8456605
20
20.982615
40
0.3294739
50
278.8749101
51
293.6349581
0
ARC
8
DEFAULT_255_1_388
10
5.8816808
20
20.8980251
40
0.2375405
50
293.8553806
51
310.0518171
0
ARC
8
DEFAULT_255_1_388
10
5.8822317
20
20.8910021
40
0.2318463
50
311.0644687
51
332.0111037
0
ARC
8
DEFAULT_255_1_388
10
5.7480991
20
20.9649702
40
0.3850112
50
331.6586806
51
343.2877423
0
ARC
8
DEFAULT_255_1_388
10
5.5160456
20
21.0362806
40
0.6277712
50
343.1446576
51
351.0103568
0
ARC
8
DEFAULT_255_1_388
10
5.3527779
20
21.0662873
40
0.7937327
50
350.71248
51
351.1626997
0
LINE
8
DEFAULT_255_1_388
10
7.3541893
20
21.8424898
11
7.3541893
21
21.7485191
0
LINE
8
DEFAULT_255_1_388
10
7.3541893
20
21.7485191
11
6.8093399
21
20.5269
0
LINE
8
DEFAULT_255_1_388
10
6.8093399
20
20.5269
11
6.6340484
21
20.5269
0
LINE
8
DEFAULT_255_1_388
10
6.6340484
20
20.5269
11
7.1770906
21
21.705148
0
LINE
8
DEFAULT_255_1_388
10
7.1770906
20
21.705148
11
6.4650818
21
21.705148
0
LINE
8
DEFAULT_255_1_388
10
6.4650818
20
21.705148
11
6.4650818
21
21.8424898
0
LINE
8
DEFAULT_255_1_388
10
6.4650818
20
21.8424898
11
7.3541893
21
21.8424898
0
LINE
8
DEFAULT_255_1_388
10
7.9089778
20
21.1539737
11
7.9089778
21
21.0175355
0
LINE
8
DEFAULT_255_1_388
10
7.9089778
20
21.0175355
11
7.4680384
21
21.0175355
0
LINE
8
DEFAULT_255_1_388
10
7.4680384
20
21.0175355
11
7.4680384
21
21.1539737
0
LINE
8
DEFAULT_255_1_388
10
7.4680384
20
21.1539737
11
7.9089778
21
21.1539737
0
LINE
8
DEFAULT_255_1_388
10
5.0374882
20
29.7799898
11
5.0374882
21
29.6372267
0
LINE
8
DEFAULT_255_1_388
10
5.0374882
20
29.6372267
11
4.6146201
21
29.6372267
0
LINE
8
DEFAULT_255_1_388
10
4.6146201
20
29.6372267
11
4.6146201
21
28.4644
0
LINE
8
DEFAULT_255_1_388
10
4.6146201
20
28.4644
11
4.4420393
21
28.4644
0
LINE
8
DEFAULT_255_1_388
10
4.4420393
20
28.4644
11
4.4420393
21
29.6372267
0
LINE
8
DEFAULT_255_1_388
10
4.4420393
20
29.6372267
11
4.0200747
21
29.6372267
0
LINE
8
DEFAULT_255_1_388
10
4.0200747
20
29.6372267
11
4.0200747
21
29.7799898
0
LINE
8
DEFAULT_255_1_388
10
4.0200747
20
29.7799898
11
5.0374882
21
29.7799898
0
LINE
8
DEFAULT_255_1_388
10
6.0006879
20
28.8818468
11
6.1750759
21
28.8818468
0
LINE
8
DEFAULT_255_1_388
10
5.1621801
20
29.0607525
11
5.1621801
21
29.1872516
0
LINE
8
DEFAULT_255_1_388
10
6.1750759
20
29.3571217
11
6.0006879
21
29.3571217
0
LINE
8
DEFAULT_255_1_388
10
5.3365681
20
29.1827337
11
5.3365681
21
29.0553312
0
ARC
8
DEFAULT_255_1_388
10
5.5584993
20
28.9490329
40
0.6202263
50
340.1774904
51
353.7812217
0
ARC
8
DEFAULT_255_1_388
10
5.7352846
20
28.8831893
40
0.4315926
50
311.4560052
51
340.4420756
0
ARC
8
DEFAULT_255_1_388
10
5.7315385
20
28.8956665
40
0.4434573
50
282.4332229
51
310.7514507
0
ARC
8
DEFAULT_255_1_388
10
5.6821203
20
29.0998703
40
0.6535262
50
269.9358869
51
282.8096729
0
ARC
8
DEFAULT_255_1_388
10
5.6763143
20
29.2511329
40
0.8048043
50
269.9995752
51
270.3612856
0
ARC
8
DEFAULT_255_1_388
10
5.6703633
20
28.9712781
40
0.5249831
50
250.7885263
51
270.6488451
0
ARC
8
DEFAULT_255_1_388
10
5.6514457
20
28.8995853
40
0.4510942
50
219.3628377
51
250.0611024
0
ARC
8
DEFAULT_255_1_388
10
5.7447332
20
28.9788653
40
0.5735046
50
193.5480293
51
219.5755675
0
ARC
8
DEFAULT_255_1_388
10
6.011554
20
29.048152
40
0.849146
50
181.1220183
51
193.8754971
0
ARC
8
DEFAULT_255_1_388
10
6.2438774
20
29.0605914
40
1.0816971
50
179.9914644
51
181.5398227
0
ARC
8
DEFAULT_255_1_388
10
6.0362084
20
29.1914586
40
0.8740384
50
169.5837606
51
180.275782
0
ARC
8
DEFAULT_255_1_388
10
5.8295432
20
29.2296439
40
0.6638751
50
155.0367033
51
169.6002779
0
ARC
8
DEFAULT_255_1_388
10
5.7017891
20
29.2912336
40
0.5220662
50
136.7831557
51
155.2472983
0
ARC
8
DEFAULT_255_1_388
10
5.6579681
20
29.3284577
40
0.4646502
50
121.7633063
51
136.4281161
0
ARC
8
DEFAULT_255_1_388
10
5.6731521
20
29.3004049
40
0.4964979
50
95.6460018
51
121.5489589
0
ARC
8
DEFAULT_255_1_388
10
5.6908495
20
29.1756704
40
0.6223912
50
89.9245727
51
96.1375919
0
ARC
8
DEFAULT_255_1_388
10
5.6965201
20
29.1890721
40
0.6090084
50
76.6779212
51
90.456405
0
ARC
8
DEFAULT_255_1_388
10
5.7408013
20
29.368006
40
0.42469
50
47.4858803
51
76.9287069
0
ARC
8
DEFAULT_255_1_388
10
5.7242627
20
29.3567623
40
0.4441778
50
16.5424081
51
46.8934505
0
ARC
8
DEFAULT_255_1_388
10
5.5433677
20
29.2973265
40
0.6345318
50
5.4072971
51
17.0363711
0
ARC
8
DEFAULT_255_1_388
10
5.3815402
20
29.2713304
40
0.6250632
50
7.8888693
51
15.9242022
0
ARC
8
DEFAULT_255_1_388
10
5.6050387
20
29.3362309
40
0.3923364
50
15.7650676
51
27.9410069
0
ARC
8
DEFAULT_255_1_388
10
5.7292557
20
29.4027317
40
0.2514401
50
27.8167196
51
46.4007942
0
ARC
8
DEFAULT_255_1_388
10
5.7348398
20
29.4020882
40
0.2480958
50
47.4372362
51
75.0695672
0
ARC
8
DEFAULT_255_1_388
10
5.7001234
20
29.2812277
40
0.3738281
50
74.7009379
51
87.8124314
0
ARC
8
DEFAULT_255_1_388
10
5.6918851
20
29.1628659
40
0.4924321
50
87.3802571
51
90.0251599
0
ARC
8
DEFAULT_255_1_388
10
5.6875499
20
29.2948997
40
0.3604218
50
89.3451886
51
108.5744412
0
ARC
8
DEFAULT_255_1_388
10
5.6721491
20
29.3526836
40
0.3007661
50
109.2998307
51
143.3037387
0
ARC
8
DEFAULT_255_1_388
10
5.7578781
20
29.2867584
40
0.4089031
50
143.075267
51
163.1918576
0
ARC
8
DEFAULT_255_1_388
10
5.9774615
20
29.2174652
40
0.6391492
50
162.9375929
51
174.6208776
0
ARC
8
DEFAULT_255_1_388
10
6.2728997
20
29.1850711
40
0.9363344
50
174.342123
51
180.1430283
0
ARC
8
DEFAULT_255_1_388
10
6.1681538
20
29.0507117
40
0.8315986
50
179.6817261
51
189.150555
0
ARC
8
DEFAULT_255_1_388
10
5.8868287
20
29.0038559
40
0.5464044
50
188.9911061
51
203.5772363
0
ARC
8
DEFAULT_255_1_388
10
5.7653579
20
28.9534539
40
0.4149206
50
203.9075402
51
215.1312435
0
ARC
8
DEFAULT_255_1_388
10
5.6615376
20
28.8729907
40
0.2837747
50
213.9071511
51
263.8848919
0
ARC
8
DEFAULT_255_1_388
10
5.675637
20
28.9612519
40
0.3730641
50
263.1757928
51
270.1031044
0
ARC
8
DEFAULT_255_1_388
10
5.6792449
20
29.1015511
40
0.5133712
50
269.6722503
51
279.0606936
0
ARC
8
DEFAULT_255_1_388
10
5.7092605
20
28.920115
40
0.3294739
50
278.8749101
51
293.6349581
0
ARC
8
DEFAULT_255_1_388
10
5.7452808
20
28.8355251
40
0.2375405
50
293.8553806
51
310.0518171
0
ARC
8
DEFAULT_255_1_388
10
5.7458317
20
28.8285021
40
0.2318463
50
311.0644687
51
332.0111037
0
ARC
8
DEFAULT_255_1_388
10
5.6116991
20
28.9024702
40
0.3850112
50
331.6586806
51
343.2877423
0
ARC
8
DEFAULT_255_1_388
10
5.3796456
20
28.9737806
40
0.6277712
50
343.1446576
51
351.0103568
0
ARC
8
DEFAULT_255_1_388
10
5.2163779
20
29.0037873
40
0.7937327
50
350.71248
51
351.1626997
0
LINE
8
DEFAULT_255_1_388
10
7.2177893
20
29.7799898
11
7.2177893
21
29.6860191
0
LINE
8
DEFAULT_255_1_388
10
7.2177893
20
29.6860191
11
6.6729399
21
28.4644
0
LINE
8
DEFAULT_255_1_388
10
6.6729399
20
28.4644
11
6.4976484
21
28.4644
0
LINE
8
DEFAULT_255_1_388
10
6.4976484
20
28.4644
11
7.0406906
21
29.642648
0
LINE
8
DEFAULT_255_1_388
10
7.0406906
20
29.642648
11
6.3286818
21
29.642648
0
LINE
8
DEFAULT_255_1_388
10
6.3286818
20
29.642648
11
6.3286818
21
29.7799898
0
LINE
8
DEFAULT_255_1_388
10
6.3286818
20
29.7799898
11
7.2177893
21
29.7799898
0
LINE
8
DEFAULT_255_1_388
10
7.9035947
20
29.5540987
11
7.9035947
21
29.1700838
0
LINE
8
DEFAULT_255_1_388
10
7.9035947
20
29.1700838
11
8.2704418
21
29.1700838
0
LINE
8
DEFAULT_255_1_388
10
8.2704418
20
29.1700838
11
8.2704418
21
29.0119601
0
LINE
8
DEFAULT_255_1_388
10
8.2704418
20
29.0119601
11
7.9035947
21
29.0119601
0
LINE
8
DEFAULT_255_1_388
10
7.9035947
20
29.0119601
11
7.9035947
21
28.5963204
0
LINE
8
DEFAULT_255_1_388
10
7.9035947
20
28.5963204
11
7.7355317
21
28.5963204
0
LINE
8
DEFAULT_255_1_388
10
7.7355317
20
28.5963204
11
7.7355317
21
29.0119601
0
LINE
8
DEFAULT_255_1_388
10
7.7355317
20
29.0119601
11
7.3686845
21
29.0119601
0
LINE
8
DEFAULT_255_1_388
10
7.3686845
20
29.0119601
11
7.3686845
21
29.1700838
0
LINE
8
DEFAULT_255_1_388
10
7.3686845
20
29.1700838
11
7.7355317
21
29.1700838
0
LINE
8
DEFAULT_255_1_388
10
7.7355317
20
29.1700838
11
7.7355317
21
29.5540987
0
LINE
8
DEFAULT_255_1_388
10
7.7355317
20
29.5540987
11
7.9035947
21
29.5540987
0
LINE
8
DEFAULT_255_1_388
10
5.1738882
20
37.7174898
11
5.1738882
21
37.5747267
0
LINE
8
DEFAULT_255_1_388
10
5.1738882
20
37.5747267
11
4.7510201
21
37.5747267
0
LINE
8
DEFAULT_255_1_388
10
4.7510201
20
37.5747267
11
4.7510201
21
36.4019
0
LINE
8
DEFAULT_255_1_388
10
4.7510201
20
36.4019
11
4.5784393
21
36.4019
0
LINE
8
DEFAULT_255_1_388
10
4.5784393
20
36.4019
11
4.5784393
21
37.5747267
0
LINE
8
DEFAULT_255_1_388
10
4.5784393
20
37.5747267
11
4.1564747
21
37.5747267
0
LINE
8
DEFAULT_255_1_388
10
4.1564747
20
37.5747267
11
4.1564747
21
37.7174898
0
LINE
8
DEFAULT_255_1_388
10
4.1564747
20
37.7174898
11
5.1738882
21
37.7174898
0
LINE
8
DEFAULT_255_1_388
10
6.1370879
20
36.8193468
11
6.3114759
21
36.8193468
0
LINE
8
DEFAULT_255_1_388
10
5.2985801
20
36.9982525
11
5.2985801
21
37.1247516
0
LINE
8
DEFAULT_255_1_388
10
6.3114759
20
37.2946217
11
6.1370879
21
37.2946217
0
LINE
8
DEFAULT_255_1_388
10
5.4729681
20
37.1202337
11
5.4729681
21
36.9928312
0
ARC
8
DEFAULT_255_1_388
10
5.6948993
20
36.8865329
40
0.6202263
50
340.1774904
51
353.7812217
0
ARC
8
DEFAULT_255_1_388
10
5.8716846
20
36.8206893
40
0.4315926
50
311.4560052
51
340.4420756
0
ARC
8
DEFAULT_255_1_388
10
5.8679385
20
36.8331665
40
0.4434573
50
282.4332229
51
310.7514507
0
ARC
8
DEFAULT_255_1_388
10
5.8185203
20
37.0373703
40
0.6535262
50
269.9358869
51
282.8096729
0
ARC
8
DEFAULT_255_1_388
10
5.8127143
20
37.1886329
40
0.8048043
50
269.9995752
51
270.3612856
0
ARC
8
DEFAULT_255_1_388
10
5.8067633
20
36.9087781
40
0.5249831
50
250.7885263
51
270.6488451
0
ARC
8
DEFAULT_255_1_388
10
5.7878457
20
36.8370853
40
0.4510942
50
219.3628377
51
250.0611024
0
ARC
8
DEFAULT_255_1_388
10
5.8811332
20
36.9163653
40
0.5735046
50
193.5480293
51
219.5755675
0
ARC
8
DEFAULT_255_1_388
10
6.147954
20
36.985652
40
0.849146
50
181.1220183
51
193.8754971
0
ARC
8
DEFAULT_255_1_388
10
6.3802774
20
36.9980914
40
1.0816971
50
179.9914644
51
181.5398227
0
ARC
8
DEFAULT_255_1_388
10
6.1726084
20
37.1289586
40
0.8740384
50
169.5837606
51
180.275782
0
ARC
8
DEFAULT_255_1_388
10
5.9659432
20
37.1671439
40
0.6638751
50
155.0367033
51
169.6002779
0
ARC
8
DEFAULT_255_1_388
10
5.8381891
20
37.2287336
40
0.5220662
50
136.7831557
51
155.2472983
0
ARC
8
DEFAULT_255_1_388
10
5.7943681
20
37.2659577
40
0.4646502
50
121.7633063
51
136.4281161
0
ARC
8
DEFAULT_255_1_388
10
5.8095521
20
37.2379049
40
0.4964979
50
95.6460018
51
121.5489589
0
ARC
8
DEFAULT_255_1_388
10
5.8272495
20
37.1131704
40
0.6223912
50
89.9245727
51
96.1375919
0
ARC
8
DEFAULT_255_1_388
10
5.8329201
20
37.1265721
40
0.6090084
50
76.6779212
51
90.456405
0
ARC
8
DEFAULT_255_1_388
10
5.8772013
20
37.305506
40
0.42469
50
47.4858803
51
76.9287069
0
ARC
8
DEFAULT_255_1_388
10
5.8606627
20
37.2942623
40
0.4441778
50
16.5424081
51
46.8934505
0
ARC
8
DEFAULT_255_1_388
10
5.6797677
20
37.2348265
40
0.6345318
50
5.4072971
51
17.0363711
0
ARC
8
DEFAULT_255_1_388
10
5.5179402
20
37.2088304
40
0.6250632
50
7.8888693
51
15.9242022
0
ARC
8
DEFAULT_255_1_388
10
5.7414387
20
37.2737309
40
0.3923364
50
15.7650676
51
27.9410069
0
ARC
8
DEFAULT_255_1_388
10
5.8656557
20
37.3402317
40
0.2514401
50
27.8167196
51
46.4007942
0
ARC
8
DEFAULT_255_1_388
10
5.8712398
20
37.3395882
40
0.2480958
50
47.4372362
51
75.0695672
0
ARC
8
DEFAULT_255_1_388
10
5.8365234
20
37.2187277
40
0.3738281
50
74.7009379
51
87.8124314
0
ARC
8
DEFAULT_255_1_388
10
5.8282851
20
37.1003659
40
0.4924321
50
87.3802571
51
90.0251599
0
ARC
8
DEFAULT_255_1_388
10
5.8239499
20
37.2323997
40
0.3604218
50
89.3451886
51
108.5744412
0
ARC
8
DEFAULT_255_1_388
10
5.8085491
20
37.2901836
40
0.3007661
50
109.2998307
51
143.3037387
0
ARC
8
DEFAULT_255_1_388
10
5.8942781
20
37.2242584
40
0.4089031
50
143.075267
51
163.1918576
0
ARC
8
DEFAULT_255_1_388
10
6.1138615
20
37.1549652
40
0.6391492
50
162.9375929
51
174.6208776
0
ARC
8
DEFAULT_255_1_388
10
6.4092997
20
37.1225711
40
0.9363344
50
174.342123
51
180.1430283
0
ARC
8
DEFAULT_255_1_388
10
6.3045538
20
36.9882117
40
0.8315986
50
179.6817261
51
189.150555
0
ARC
8
DEFAULT_255_1_388
10
6.0232287
20
36.9413559
40
0.5464044
50
188.9911061
51
203.5772363
0
ARC
8
DEFAULT_255_1_388
10
5.9017579
20
36.8909539
40
0.4149206
50
203.9075402
51
215.1312435
0
ARC
8
DEFAULT_255_1_388
10
5.7979376
20
36.8104907
40
0.2837747
50
213.9071511
51
263.8848919
0
ARC
8
DEFAULT_255_1_388
10
5.812037
20
36.8987519
40
0.3730641
50
263.1757928
51
270.1031044
0
ARC
8
DEFAULT_255_1_388
10
5.8156449
20
37.0390511
40
0.5133712
50
269.6722503
51
279.0606936
0
ARC
8
DEFAULT_255_1_388
10
5.8456605
20
36.857615
40
0.3294739
50
278.8749101
51
293.6349581
0
ARC
8
DEFAULT_255_1_388
10
5.8816808
20
36.7730251
40
0.2375405
50
293.8553806
51
310.0518171
0
ARC
8
DEFAULT_255_1_388
10
5.8822317
20
36.7660021
40
0.2318463
50
311.0644687
51
332.0111037
0
ARC
8
DEFAULT_255_1_388
10
5.7480991
20
36.8399702
40
0.3850112
50
331.6586806
51
343.2877423
0
ARC
8
DEFAULT_255_1_388
10
5.5160456
20
36.9112806
40
0.6277712
50
343.1446576
51
351.0103568
0
ARC
8
DEFAULT_255_1_388
10
5.3527779
20
36.9412873
40
0.7937327
50
350.71248
51
351.1626997
0
LINE
8
DEFAULT_255_1_388
10
7.1310088
20
37.7183934
11
7.1608265
21
37.7183934
0
LINE
8
DEFAULT_255_1_388
10
7.1608265
20
37.7183934
11
7.1608265
21
37.5765338
0
LINE
8
DEFAULT_255_1_388
10
7.1608265
20
37.5765338
11
7.1301053
21
37.5765338
0
LINE
8
DEFAULT_255_1_388
10
6.5147779
20
36.9024747
11
6.5147779
21
36.9666278
0
LINE
8
DEFAULT_255_1_388
10
6.6828409
20
36.9449422
11
6.6828409
21
36.8834999
0
ARC
8
DEFAULT_255_1_388
10
7.1359944
20
37.0142826
40
0.562282
50
90.6001079
51
104.5146616
0
ARC
8
DEFAULT_255_1_388
10
7.0922904
20
37.17681
40
0.3939917
50
104.2855758
51
133.8630124
0
ARC
8
DEFAULT_255_1_388
10
7.1107156
20
37.1646243
40
0.4155734
50
134.5304124
51
161.6210222
0
ARC
8
DEFAULT_255_1_388
10
7.2967089
20
37.0990421
40
0.6127682
50
161.2850533
51
174.2074364
0
ARC
8
DEFAULT_255_1_388
10
7.4556655
20
37.0771437
40
0.7731446
50
173.7817938
51
174.9251711
0
ARC
8
DEFAULT_255_1_388
10
6.9430849
20
36.921627
40
0.3412588
50
95.8332067
51
138.995412
0
ARC
8
DEFAULT_255_1_388
10
6.9682129
20
36.7777695
40
0.4870358
50
89.8755506
51
97.0540979
0
ARC
8
DEFAULT_255_1_388
10
6.9735519
20
36.8717841
40
0.3930432
50
71.6407016
51
90.6240821
0
ARC
8
DEFAULT_255_1_388
10
6.9904912
20
36.9341433
40
0.3285421
50
39.6368051
51
71.0190743
0
ARC
8
DEFAULT_255_1_388
10
6.918882
20
36.8722586
40
0.4231706
50
10.6588054
51
39.9044509
0
ARC
8
DEFAULT_255_1_388
10
6.7447365
20
36.8344223
40
0.60133
50
359.6827842
51
11.1326896
0
ARC
8
DEFAULT_255_1_388
10
6.7402701
20
36.8264715
40
0.6058047
50
347.2485908
51
0.4371098
0
ARC
8
DEFAULT_255_1_388
10
6.9278486
20
36.7813379
40
0.4128987
50
318.1408565
51
347.6118497
0
ARC
8
DEFAULT_255_1_388
10
6.9644083
20
36.7512903
40
0.3656244
50
275.6342406
51
317.824739
0
ARC
8
DEFAULT_255_1_388
10
6.9395604
20
36.8974827
40
0.513655
50
269.8872513
51
276.7916069
0
ARC
8
DEFAULT_255_1_388
10
6.9333797
20
36.7821181
40
0.398323
50
246.9139443
51
270.7436787
0
ARC
8
DEFAULT_255_1_388
10
6.9340993
20
36.7661044
40
0.3839368
50
218.1665534
51
245.8780431
0
ARC
8
DEFAULT_255_1_388
10
7.0330365
20
36.8488903
40
0.5128958
50
191.4115343
51
218.6077624
0
ARC
8
DEFAULT_255_1_388
10
7.2510681
20
36.8977777
40
0.7363054
50
179.6344971
51
191.7836758
0
ARC
8
DEFAULT_255_1_388
10
7.8790555
20
36.9741495
40
1.3642984
50
171.4523743
51
180.3158856
0
ARC
8
DEFAULT_255_1_388
10
7.3846282
20
37.0510895
40
0.8639311
50
157.9802296
51
171.6246761
0
ARC
8
DEFAULT_255_1_388
10
7.1355633
20
37.1504038
40
0.5958004
50
141.4299236
51
157.8541251
0
ARC
8
DEFAULT_255_1_388
10
7.0633717
20
37.2014746
40
0.5075416
50
102.871586
51
140.8564533
0
ARC
8
DEFAULT_255_1_388
10
7.1362269
20
36.9269943
40
0.7914163
50
90.377773
51
103.5868422
0
ARC
8
DEFAULT_255_1_388
10
6.940679
20
36.8589543
40
0.2667015
50
89.8751238
51
126.2072139
0
ARC
8
DEFAULT_255_1_388
10
6.9458261
20
36.8415847
40
0.2838229
50
124.9742447
51
144.8960197
0
ARC
8
DEFAULT_255_1_388
10
6.9260506
20
36.8576981
40
0.2583845
50
145.2974778
51
160.2660922
0
ARC
8
DEFAULT_255_1_388
10
7.2716995
20
36.8799151
40
0.5888695
50
179.6512124
51
190.285571
0
ARC
8
DEFAULT_255_1_388
10
7.0811474
20
36.8439968
40
0.3949683
50
190.0944895
51
207.5099647
0
ARC
8
DEFAULT_255_1_388
10
7.0175056
20
36.8137177
40
0.3245464
50
207.9585471
51
216.325377
0
ARC
8
DEFAULT_255_1_388
10
6.9792693
20
36.7822712
40
0.2751259
50
215.7661336
51
232.5457193
0
ARC
8
DEFAULT_255_1_388
10
6.9361809
20
36.7275273
40
0.2054668
50
232.8005815
51
270.6605497
0
ARC
8
DEFAULT_255_1_388
10
6.9413233
20
36.7684853
40
0.2464268
50
269.3550767
51
288.474612
0
ARC
8
DEFAULT_255_1_388
10
6.951774
20
36.7291721
40
0.2058436
50
289.1831976
51
322.9685307
0
ARC
8
DEFAULT_255_1_388
10
6.8829842
20
36.7834279
40
0.2934408
50
322.6007085
51
346.5183319
0
ARC
8
DEFAULT_255_1_388
10
6.7527598
20
36.8166434
40
0.4278249
50
346.2584622
51
358.7739592
0
ARC
8
DEFAULT_255_1_388
10
6.6376173
20
36.8228829
40
0.5430876
50
358.3757628
51
0.0082477
0
ARC
8
DEFAULT_255_1_388
10
6.7232992
20
36.8259856
40
0.4574157
50
359.6211417
51
11.28403
0
ARC
8
DEFAULT_255_1_388
10
6.8669598
20
36.8559535
40
0.3106708
50
11.0483152
51
31.8145585
0
ARC
8
DEFAULT_255_1_388
10
6.9017303
20
36.8748045
40
0.2711963
50
32.3028554
51
38.0820598
0
ARC
8
DEFAULT_255_1_388
10
6.9490536
20
36.9176717
40
0.2075566
50
36.8249851
51
85.741667
0
ARC
8
DEFAULT_255_1_388
10
6.9414949
20
36.8613065
40
0.2643487
50
85.0150021
51
90.050843
0
LINE
8
DEFAULT_255_1_388
10
7.9089778
20
37.0289737
11
7.9089778
21
36.8925355
0
LINE
8
DEFAULT_255_1_388
10
7.9089778
20
36.8925355
11
7.4680384
21
36.8925355
0
LINE
8
DEFAULT_255_1_388
10
7.4680384
20
36.8925355
11
7.4680384
21
37.0289737
0
LINE
8
DEFAULT_255_1_388
10
7.4680384
20
37.0289737
11
7.9089778
21
37.0289737
0
LINE
8
DEFAULT_255_1_388
10
5.0374882
20
45.6549898
11
5.0374882
21
45.5122267
0
LINE
8
DEFAULT_255_1_388
10
5.0374882
20
45.5122267
11
4.6146201
21
45.5122267
0
LINE
8
DEFAULT_255_1_388
10
4.6146201
20
45.5122267
11
4.6146201
21
44.3394
0
LINE
8
DEFAULT_255_1_388
10
4.6146201
20
44.3394
11
4.4420393
21
44.3394
0
LINE
8
DEFAULT_255_1_388
10
4.4420393
20
44.3394
11
4.4420393
21
45.5122267
0
LINE
8
DEFAULT_255_1_388
10
4.4420393
20
45.5122267
11
4.0200747
21
45.5122267
0
LINE
8
DEFAULT_255_1_388
10
4.0200747
20
45.5122267
11
4.0200747
21
45.6549898
0
LINE
8
DEFAULT_255_1_388
10
4.0200747
20
45.6549898
11
5.0374882
21
45.6549898
0
LINE
8
DEFAULT_255_1_388
10
6.0006879
20
44.7568468
11
6.1750759
21
44.7568468
0
LINE
8
DEFAULT_255_1_388
10
5.1621801
20
44.9357525
11
5.1621801
21
45.0622516
0
LINE
8
DEFAULT_255_1_388
10
6.1750759
20
45.2321217
11
6.0006879
21
45.2321217
0
LINE
8
DEFAULT_255_1_388
10
5.3365681
20
45.0577337
11
5.3365681
21
44.9303312
0
ARC
8
DEFAULT_255_1_388
10
5.5584993
20
44.8240329
40
0.6202263
50
340.1774904
51
353.7812217
0
ARC
8
DEFAULT_255_1_388
10
5.7352846
20
44.7581893
40
0.4315926
50
311.4560052
51
340.4420756
0
ARC
8
DEFAULT_255_1_388
10
5.7315385
20
44.7706665
40
0.4434573
50
282.4332229
51
310.7514507
0
ARC
8
DEFAULT_255_1_388
10
5.6821203
20
44.9748703
40
0.6535262
50
269.9358869
51
282.8096729
0
ARC
8
DEFAULT_255_1_388
10
5.6763143
20
45.1261329
40
0.8048043
50
269.9995752
51
270.3612856
0
ARC
8
DEFAULT_255_1_388
10
5.6703633
20
44.8462781
40
0.5249831
50
250.7885263
51
270.6488451
0
ARC
8
DEFAULT_255_1_388
10
5.6514457
20
44.7745853
40
0.4510942
50
219.3628377
51
250.0611024
0
ARC
8
DEFAULT_255_1_388
10
5.7447332
20
44.8538653
40
0.5735046
50
193.5480293
51
219.5755675
0
ARC
8
DEFAULT_255_1_388
10
6.011554
20
44.923152
40
0.849146
50
181.1220183
51
193.8754971
0
ARC
8
DEFAULT_255_1_388
10
6.2438774
20
44.9355914
40
1.0816971
50
179.9914644
51
181.5398227
0
ARC
8
DEFAULT_255_1_388
10
6.0362084
20
45.0664586
40
0.8740384
50
169.5837606
51
180.275782
0
ARC
8
DEFAULT_255_1_388
10
5.8295432
20
45.1046439
40
0.6638751
50
155.0367033
51
169.6002779
0
ARC
8
DEFAULT_255_1_388
10
5.7017891
20
45.1662336
40
0.5220662
50
136.7831557
51
155.2472983
0
ARC
8
DEFAULT_255_1_388
10
5.6579681
20
45.2034577
40
0.4646502
50
121.7633063
51
136.4281161
0
ARC
8
DEFAULT_255_1_388
10
5.6731521
20
45.1754049
40
0.4964979
50
95.6460018
51
121.5489589
0
ARC
8
DEFAULT_255_1_388
10
5.6908495
20
45.0506704
40
0.6223912
50
89.9245727
51
96.1375919
0
ARC
8
DEFAULT_255_1_388
10
5.6965201
20
45.0640721
40
0.6090084
50
76.6779212
51
90.456405
0
ARC
8
DEFAULT_255_1_388
10
5.7408013
20
45.243006
40
0.42469
50
47.4858803
51
76.9287069
0
ARC
8
DEFAULT_255_1_388
10
5.7242627
20
45.2317623
40
0.4441778
50
16.5424081
51
46.8934505
0
ARC
8
DEFAULT_255_1_388
10
5.5433677
20
45.1723265
40
0.6345318
50
5.4072971
51
17.0363711
0
ARC
8
DEFAULT_255_1_388
10
5.3815402
20
45.1463304
40
0.6250632
50
7.8888693
51
15.9242022
0
ARC
8
DEFAULT_255_1_388
10
5.6050387
20
45.2112309
40
0.3923364
50
15.7650676
51
27.9410069
0
ARC
8
DEFAULT_255_1_388
10
5.7292557
20
45.2777317
40
0.2514401
50
27.8167196
51
46.4007942
0
ARC
8
DEFAULT_255_1_388
10
5.7348398
20
45.2770882
40
0.2480958
50
47.4372362
51
75.0695672
0
ARC
8
DEFAULT_255_1_388
10
5.7001234
20
45.1562277
40
0.3738281
50
74.7009379
51
87.8124314
0
ARC
8
DEFAULT_255_1_388
10
5.6918851
20
45.0378659
40
0.4924321
50
87.3802571
51
90.0251599
0
ARC
8
DEFAULT_255_1_388
10
5.6875499
20
45.1698997
40
0.3604218
50
89.3451886
51
108.5744412
0
ARC
8
DEFAULT_255_1_388
10
5.6721491
20
45.2276836
40
0.3007661
50
109.2998307
51
143.3037387
0
ARC
8
DEFAULT_255_1_388
10
5.7578781
20
45.1617584
40
0.4089031
50
143.075267
51
163.1918576
0
ARC
8
DEFAULT_255_1_388
10
5.9774615
20
45.0924652
40
0.6391492
50
162.9375929
51
174.6208776
0
ARC
8
DEFAULT_255_1_388
10
6.2728997
20
45.0600711
40
0.9363344
50
174.342123
51
180.1430283
0
ARC
8
DEFAULT_255_1_388
10
6.1681538
20
44.9257117
40
0.8315986
50
179.6817261
51
189.150555
0
ARC
8
DEFAULT_255_1_388
10
5.8868287
20
44.8788559
40
0.5464044
50
188.9911061
51
203.5772363
0
ARC
8
DEFAULT_255_1_388
10
5.7653579
20
44.8284539
40
0.4149206
50
203.9075402
51
215.1312435
0
ARC
8
DEFAULT_255_1_388
10
5.6615376
20
44.7479907
40
0.2837747
50
213.9071511
51
263.8848919
0
ARC
8
DEFAULT_255_1_388
10
5.675637
20
44.8362519
40
0.3730641
50
263.1757928
51
270.1031044
0
ARC
8
DEFAULT_255_1_388
10
5.6792449
20
44.9765511
40
0.5133712
50
269.6722503
51
279.0606936
0
ARC
8
DEFAULT_255_1_388
10
5.7092605
20
44.795115
40
0.3294739
50
278.8749101
51
293.6349581
0
ARC
8
DEFAULT_255_1_388
10
5.7452808
20
44.7105251
40
0.2375405
50
293.8553806
51
310.0518171
0
ARC
8
DEFAULT_255_1_388
10
5.7458317
20
44.7035021
40
0.2318463
50
311.0644687
51
332.0111037
0
ARC
8
DEFAULT_255_1_388
10
5.6116991
20
44.7774702
40
0.3850112
50
331.6586806
51
343.2877423
0
ARC
8
DEFAULT_255_1_388
10
5.3796456
20
44.8487806
40
0.6277712
50
343.1446576
51
351.0103568
0
ARC
8
DEFAULT_255_1_388
10
5.2163779
20
44.8787873
40
0.7937327
50
350.71248
51
351.1626997
0
LINE
8
DEFAULT_255_1_388
10
6.9946088
20
45.6558934
11
7.0244265
21
45.6558934
0
LINE
8
DEFAULT_255_1_388
10
7.0244265
20
45.6558934
11
7.0244265
21
45.5140338
0
LINE
8
DEFAULT_255_1_388
10
7.0244265
20
45.5140338
11
6.9937053
21
45.5140338
0
LINE
8
DEFAULT_255_1_388
10
6.3783779
20
44.8399747
11
6.3783779
21
44.9041278
0
LINE
8
DEFAULT_255_1_388
10
6.5464409
20
44.8824422
11
6.5464409
21
44.8209999
0
ARC
8
DEFAULT_255_1_388
10
6.9995944
20
44.9517826
40
0.562282
50
90.6001079
51
104.5146616
0
ARC
8
DEFAULT_255_1_388
10
6.9558904
20
45.11431
40
0.3939917
50
104.2855758
51
133.8630124
0
ARC
8
DEFAULT_255_1_388
10
6.9743156
20
45.1021243
40
0.4155734
50
134.5304124
51
161.6210222
0
ARC
8
DEFAULT_255_1_388
10
7.1603089
20
45.0365421
40
0.6127682
50
161.2850533
51
174.2074364
0
ARC
8
DEFAULT_255_1_388
10
7.3192655
20
45.0146437
40
0.7731446
50
173.7817938
51
174.9251711
0
ARC
8
DEFAULT_255_1_388
10
6.8066849
20
44.859127
40
0.3412588
50
95.8332067
51
138.995412
0
ARC
8
DEFAULT_255_1_388
10
6.8318129
20
44.7152695
40
0.4870358
50
89.8755506
51
97.0540979
0
ARC
8
DEFAULT_255_1_388
10
6.8371519
20
44.8092841
40
0.3930432
50
71.6407016
51
90.6240821
0
ARC
8
DEFAULT_255_1_388
10
6.8540912
20
44.8716433
40
0.3285421
50
39.6368051
51
71.0190743
0
ARC
8
DEFAULT_255_1_388
10
6.782482
20
44.8097586
40
0.4231706
50
10.6588054
51
39.9044509
0
ARC
8
DEFAULT_255_1_388
10
6.6083365
20
44.7719223
40
0.60133
50
359.6827842
51
11.1326896
0
ARC
8
DEFAULT_255_1_388
10
6.6038701
20
44.7639715
40
0.6058047
50
347.2485908
51
0.4371098
0
ARC
8
DEFAULT_255_1_388
10
6.7914486
20
44.7188379
40
0.4128987
50
318.1408565
51
347.6118497
0
ARC
8
DEFAULT_255_1_388
10
6.8280083
20
44.6887903
40
0.3656244
50
275.6342406
51
317.824739
0
ARC
8
DEFAULT_255_1_388
10
6.8031604
20
44.8349827
40
0.513655
50
269.8872513
51
276.7916069
0
ARC
8
DEFAULT_255_1_388
10
6.7969797
20
44.7196181
40
0.398323
50
246.9139443
51
270.7436787
0
ARC
8
DEFAULT_255_1_388
10
6.7976993
20
44.7036044
40
0.3839368
50
218.1665534
51
245.8780431
0
ARC
8
DEFAULT_255_1_388
10
6.8966365
20
44.7863903
40
0.5128958
50
191.4115343
51
218.6077624
0
ARC
8
DEFAULT_255_1_388
10
7.1146681
20
44.8352777
40
0.7363054
50
179.6344971
51
191.7836758
0
ARC
8
DEFAULT_255_1_388
10
7.7426555
20
44.9116495
40
1.3642984
50
171.4523743
51
180.3158856
0
ARC
8
DEFAULT_255_1_388
10
7.2482282
20
44.9885895
40
0.8639311
50
157.9802296
51
171.6246761
0
ARC
8
DEFAULT_255_1_388
10
6.9991633
20
45.0879038
40
0.5958004
50
141.4299236
51
157.8541251
0
ARC
8
DEFAULT_255_1_388
10
6.9269717
20
45.1389746
40
0.5075416
50
102.871586
51
140.8564533
0
ARC
8
DEFAULT_255_1_388
10
6.9998269
20
44.8644943
40
0.7914163
50
90.377773
51
103.5868422
0
ARC
8
DEFAULT_255_1_388
10
6.804279
20
44.7964543
40
0.2667015
50
89.8751238
51
126.2072139
0
ARC
8
DEFAULT_255_1_388
10
6.8094261
20
44.7790847
40
0.2838229
50
124.9742447
51
144.8960197
0
ARC
8
DEFAULT_255_1_388
10
6.7896506
20
44.7951981
40
0.2583845
50
145.2974778
51
160.2660922
0
ARC
8
DEFAULT_255_1_388
10
7.1352995
20
44.8174151
40
0.5888695
50
179.6512124
51
190.285571
0
ARC
8
DEFAULT_255_1_388
10
6.9447474
20
44.7814968
40
0.3949683
50
190.0944895
51
207.5099647
0
ARC
8
DEFAULT_255_1_388
10
6.8811056
20
44.7512177
40
0.3245464
50
207.9585471
51
216.325377
0
ARC
8
DEFAULT_255_1_388
10
6.8428693
20
44.7197712
40
0.2751259
50
215.7661336
51
232.5457193
0
ARC
8
DEFAULT_255_1_388
10
6.7997809
20
44.6650273
40
0.2054668
50
232.8005815
51
270.6605497
0
ARC
8
DEFAULT_255_1_388
10
6.8049233
20
44.7059853
40
0.2464268
50
269.3550767
51
288.474612
0
ARC
8
DEFAULT_255_1_388
10
6.815374
20
44.6666721
40
0.2058436
50
289.1831976
51
322.9685307
0
ARC
8
DEFAULT_255_1_388
10
6.7465842
20
44.7209279
40
0.2934408
50
322.6007085
51
346.5183319
0
ARC
8
DEFAULT_255_1_388
10
6.6163598
20
44.7541434
40
0.4278249
50
346.2584622
51
358.7739592
0
ARC
8
DEFAULT_255_1_388
10
6.5012173
20
44.7603829
40
0.5430876
50
358.3757628
51
0.0082477
0
ARC
8
DEFAULT_255_1_388
10
6.5868992
20
44.7634856
40
0.4574157
50
359.6211417
51
11.28403
0
ARC
8
DEFAULT_255_1_388
10
6.7305598
20
44.7934535
40
0.3106708
50
11.0483152
51
31.8145585
0
ARC
8
DEFAULT_255_1_388
10
6.7653303
20
44.8123045
40
0.2711963
50
32.3028554
51
38.0820598
0
ARC
8
DEFAULT_255_1_388
10
6.8126536
20
44.8551717
40
0.2075566
50
36.8249851
51
85.741667
0
ARC
8
DEFAULT_255_1_388
10
6.8050949
20
44.7988065
40
0.2643487
50
85.0150021
51
90.050843
0
LINE
8
DEFAULT_255_1_388
10
7.9035947
20
45.4290987
11
7.9035947
21
45.0450838
0
LINE
8
DEFAULT_255_1_388
10
7.9035947
20
45.0450838
11
8.2704418
21
45.0450838
0
LINE
8
DEFAULT_255_1_388
10
8.2704418
20
45.0450838
11
8.2704418
21
44.8869601
0
LINE
8
DEFAULT_255_1_388
10
8.2704418
20
44.8869601
11
7.9035947
21
44.8869601
0
LINE
8
DEFAULT_255_1_388
10
7.9035947
20
44.8869601
11
7.9035947
21
44.4713204
0
LINE
8
DEFAULT_255_1_388
10
7.9035947
20
44.4713204
11
7.7355317
21
44.4713204
0
LINE
8
DEFAULT_255_1_388
10
7.7355317
20
44.4713204
11
7.7355317
21
44.8869601
0
LINE
8
DEFAULT_255_1_388
10
7.7355317
20
44.8869601
11
7.3686845
21
44.8869601
0
LINE
8
DEFAULT_255_1_388
10
7.3686845
20
44.8869601
11
7.3686845
21
45.0450838
0
LINE
8
DEFAULT_255_1_388
10
7.3686845
20
45.0450838
11
7.7355317
21
45.0450838
0
LINE
8
DEFAULT_255_1_388
10
7.7355317
20
45.0450838
11
7.7355317
21
45.4290987
0
LINE
8
DEFAULT_255_1_388
10
7.7355317
20
45.4290987
11
7.9035947
21
45.4290987
0
LINE
8
DEFAULT_255_1_388
10
5.1738882
20
53.5924898
11
5.1738882
21
53.4497267
0
LINE
8
DEFAULT_255_1_388
10
5.1738882
20
53.4497267
11
4.7510201
21
53.4497267
0
LINE
8
DEFAULT_255_1_388
10
4.7510201
20
53.4497267
11
4.7510201
21
52.2769
0
LINE
8
DEFAULT_255_1_388
10
4.7510201
20
52.2769
11
4.5784393
21
52.2769
0
LINE
8
DEFAULT_255_1_388
10
4.5784393
20
52.2769
11
4.5784393
21
53.4497267
0
LINE
8
DEFAULT_255_1_388
10
4.5784393
20
53.4497267
11
4.1564747
21
53.4497267
0
LINE
8
DEFAULT_255_1_388
10
4.1564747
20
53.4497267
11
4.1564747
21
53.5924898
0
LINE
8
DEFAULT_255_1_388
10
4.1564747
20
53.5924898
11
5.1738882
21
53.5924898
0
LINE
8
DEFAULT_255_1_388
10
6.1370879
20
52.6943468
11
6.3114759
21
52.6943468
0
LINE
8
DEFAULT_255_1_388
10
5.2985801
20
52.8732525
11
5.2985801
21
52.9997516
0
LINE
8
DEFAULT_255_1_388
10
6.3114759
20
53.1696217
11
6.1370879
21
53.1696217
0
LINE
8
DEFAULT_255_1_388
10
5.4729681
20
52.9952337
11
5.4729681
21
52.8678312
0
ARC
8
DEFAULT_255_1_388
10
5.6948993
20
52.7615329
40
0.6202263
50
340.1774904
51
353.7812217
0
ARC
8
DEFAULT_255_1_388
10
5.8716846
20
52.6956893
40
0.4315926
50
311.4560052
51
340.4420756
0
ARC
8
DEFAULT_255_1_388
10
5.8679385
20
52.7081665
40
0.4434573
50
282.4332229
51
310.7514507
0
ARC
8
DEFAULT_255_1_388
10
5.8185203
20
52.9123703
40
0.6535262
50
269.9358869
51
282.8096729
0
ARC
8
DEFAULT_255_1_388
10
5.8127143
20
53.0636329
40
0.8048043
50
269.9995752
51
270.3612856
0
ARC
8
DEFAULT_255_1_388
10
5.8067633
20
52.7837781
40
0.5249831
50
250.7885263
51
270.6488451
0
ARC
8
DEFAULT_255_1_388
10
5.7878457
20
52.7120853
40
0.4510942
50
219.3628377
51
250.0611024
0
ARC
8
DEFAULT_255_1_388
10
5.8811332
20
52.7913653
40
0.5735046
50
193.5480293
51
219.5755675
0
ARC
8
DEFAULT_255_1_388
10
6.147954
20
52.860652
40
0.849146
50
181.1220183
51
193.8754971
0
ARC
8
DEFAULT_255_1_388
10
6.3802774
20
52.8730914
40
1.0816971
50
179.9914644
51
181.5398227
0
ARC
8
DEFAULT_255_1_388
10
6.1726084
20
53.0039586
40
0.8740384
50
169.5837606
51
180.275782
0
ARC
8
DEFAULT_255_1_388
10
5.9659432
20
53.0421439
40
0.6638751
50
155.0367033
51
169.6002779
0
ARC
8
DEFAULT_255_1_388
10
5.8381891
20
53.1037336
40
0.5220662
50
136.7831557
51
155.2472983
0
ARC
8
DEFAULT_255_1_388
10
5.7943681
20
53.1409577
40
0.4646502
50
121.7633063
51
136.4281161
0
ARC
8
DEFAULT_255_1_388
10
5.8095521
20
53.1129049
40
0.4964979
50
95.6460018
51
121.5489589
0
ARC
8
DEFAULT_255_1_388
10
5.8272495
20
52.9881704
40
0.6223912
50
89.9245727
51
96.1375919
0
ARC
8
DEFAULT_255_1_388
10
5.8329201
20
53.0015721
40
0.6090084
50
76.6779212
51
90.456405
0
ARC
8
DEFAULT_255_1_388
10
5.8772013
20
53.180506
40
0.42469
50
47.4858803
51
76.9287069
0
ARC
8
DEFAULT_255_1_388
10
5.8606627
20
53.1692623
40
0.4441778
50
16.5424081
51
46.8934505
0
ARC
8
DEFAULT_255_1_388
10
5.6797677
20
53.1098265
40
0.6345318
50
5.4072971
51
17.0363711
0
ARC
8
DEFAULT_255_1_388
10
5.5179402
20
53.0838304
40
0.6250632
50
7.8888693
51
15.9242022
0
ARC
8
DEFAULT_255_1_388
10
5.7414387
20
53.1487309
40
0.3923364
50
15.7650676
51
27.9410069
0
ARC
8
DEFAULT_255_1_388
10
5.8656557
20
53.2152317
40
0.2514401
50
27.8167196
51
46.4007942
0
ARC
8
DEFAULT_255_1_388
10
5.8712398
20
53.2145882
40
0.2480958
50
47.4372362
51
75.0695672
0
ARC
8
DEFAULT_255_1_388
10
5.8365234
20
53.0937277
40
0.3738281
50
74.7009379
51
87.8124314
0
ARC
8
DEFAULT_255_1_388
10
5.8282851
20
52.9753659
40
0.4924321
50
87.3802571
51
90.0251599
0
ARC
8
DEFAULT_255_1_388
10
5.8239499
20
53.1073997
40
0.3604218
50
89.3451886
51
108.5744412
0
ARC
8
DEFAULT_255_1_388
10
5.8085491
20
53.1651836
40
0.3007661
50
109.2998307
51
143.3037387
0
ARC
8
DEFAULT_255_1_388
10
5.8942781
20
53.0992584
40
0.4089031
50
143.075267
51
163.1918576
0
ARC
8
DEFAULT_255_1_388
10
6.1138615
20
53.0299652
40
0.6391492
50
162.9375929
51
174.6208776
0
ARC
8
DEFAULT_255_1_388
10
6.4092997
20
52.9975711
40
0.9363344
50
174.342123
51
180.1430283
0
ARC
8
DEFAULT_255_1_388
10
6.3045538
20
52.8632117
40
0.8315986
50
179.6817261
51
189.150555
0
ARC
8
DEFAULT_255_1_388
10
6.0232287
20
52.8163559
40
0.5464044
50
188.9911061
51
203.5772363
0
ARC
8
DEFAULT_255_1_388
10
5.9017579
20
52.7659539
40
0.4149206
50
203.9075402
51
215.1312435
0
ARC
8
DEFAULT_255_1_388
10
5.7979376
20
52.6854907
40
0.2837747
50
213.9071511
51
263.8848919
0
ARC
8
DEFAULT_255_1_388
10
5.812037
20
52.7737519
40
0.3730641
50
263.1757928
51
270.1031044
0
ARC
8
DEFAULT_255_1_388
10
5.8156449
20
52.9140511
40
0.5133712
50
269.6722503
51
279.0606936
0
ARC
8
DEFAULT_255_1_388
10
5.8456605
20
52.732615
40
0.3294739
50
278.8749101
51
293.6349581
0
ARC
8
DEFAULT_255_1_388
10
5.8816808
20
52.6480251
40
0.2375405
50
293.8553806
51
310.0518171
0
ARC
8
DEFAULT_255_1_388
10
5.8822317
20
52.6410021
40
0.2318463
50
311.0644687
51
332.0111037
0
ARC
8
DEFAULT_255_1_388
10
5.7480991
20
52.7149702
40
0.3850112
50
331.6586806
51
343.2877423
0
ARC
8
DEFAULT_255_1_388
10
5.5160456
20
52.7862806
40
0.6277712
50
343.1446576
51
351.0103568
0
ARC
8
DEFAULT_255_1_388
10
5.3527779
20
52.8162873
40
0.7937327
50
350.71248
51
351.1626997
0
LINE
8
DEFAULT_255_1_388
10
6.7153692
20
52.9021666
11
6.5816417
21
52.9365021
0
LINE
8
DEFAULT_255_1_388
10
6.5816417
20
52.9365021
11
6.6485054
21
53.5924898
0
LINE
8
DEFAULT_255_1_388
10
6.6485054
20
53.5924898
11
7.3225645
21
53.5924898
0
LINE
8
DEFAULT_255_1_388
10
7.3225645
20
53.5924898
11
7.3225645
21
53.4379803
0
LINE
8
DEFAULT_255_1_388
10
7.3225645
20
53.4379803
11
6.790365
21
53.4379803
0
LINE
8
DEFAULT_255_1_388
10
6.790365
20
53.4379803
11
6.7506082
21
53.0792652
0
LINE
8
DEFAULT_255_1_388
10
6.5346563
20
52.6229652
11
6.6927801
21
52.6229652
0
LINE
8
DEFAULT_255_1_388
10
6.7596438
20
52.9383092
11
6.7153692
21
52.9021666
0
ARC
8
DEFAULT_255_1_388
10
6.9592696
20
52.7215241
40
0.4141476
50
93.7181681
51
120.253934
0
ARC
8
DEFAULT_255_1_388
10
6.9698748
20
52.6306284
40
0.5055616
50
89.9660471
51
94.2495185
0
ARC
8
DEFAULT_255_1_388
10
6.974457
20
52.6969154
40
0.4392953
50
73.8045384
51
90.5585736
0
ARC
8
DEFAULT_255_1_388
10
7.0008827
20
52.793452
40
0.3392225
50
41.3071072
51
73.543002
0
ARC
8
DEFAULT_255_1_388
10
6.9540647
20
52.7531461
40
0.4009977
50
13.5075837
51
41.2174839
0
ARC
8
DEFAULT_255_1_388
10
6.7693745
20
52.7047907
40
0.5918864
50
1.1330171
51
13.8830737
0
ARC
8
DEFAULT_255_1_388
10
6.6097391
20
52.6962522
40
0.7516787
50
359.9925091
51
1.5431298
0
ARC
8
DEFAULT_255_1_388
10
6.7542005
20
52.6916027
40
0.6072343
50
347.8572712
51
0.4294349
0
ARC
8
DEFAULT_255_1_388
10
6.951114
20
52.6469898
40
0.4053482
50
323.6727442
51
348.1674594
0
ARC
8
DEFAULT_255_1_388
10
6.9842105
20
52.6268175
40
0.3667495
50
316.8171818
51
323.1486802
0
ARC
8
DEFAULT_255_1_388
10
6.9911228
20
52.6226612
40
0.358869
50
281.839603
51
316.5458142
0
ARC
8
DEFAULT_255_1_388
10
6.9488516
20
52.7976363
40
0.5388223
50
269.5770964
51
282.4214641
0
ARC
8
DEFAULT_255_1_388
10
6.9408437
20
52.773593
40
0.5147801
50
256.2425863
51
270.4486481
0
ARC
8
DEFAULT_255_1_388
10
6.9071964
20
52.6386124
40
0.3756708
50
228.9024379
51
256.33135
0
ARC
8
DEFAULT_255_1_388
10
6.8988945
20
52.6255054
40
0.360344
50
193.7536029
51
228.5272638
0
ARC
8
DEFAULT_255_1_388
10
7.038151
20
52.6663463
40
0.5053599
50
184.9244437
51
194.4976052
0
ARC
8
DEFAULT_255_1_388
10
7.0598151
20
52.6703722
40
0.3700839
50
187.3596909
51
198.6733728
0
ARC
8
DEFAULT_255_1_388
10
6.9417394
20
52.6294373
40
0.2451195
50
198.4453795
51
217.7945479
0
ARC
8
DEFAULT_255_1_388
10
6.9084567
20
52.6058563
40
0.2043754
50
218.2887146
51
228.5613203
0
ARC
8
DEFAULT_255_1_388
10
6.9194574
20
52.6206902
40
0.2227819
50
228.9652423
51
258.1237049
0
ARC
8
DEFAULT_255_1_388
10
6.9426011
20
52.7197964
40
0.3245374
50
257.7260585
51
270.4013717
0
ARC
8
DEFAULT_255_1_388
10
6.9476509
20
52.6697255
40
0.2744726
50
269.4204315
51
286.420998
0
ARC
8
DEFAULT_255_1_388
10
6.9643565
20
52.6090705
40
0.2115721
50
286.7250065
51
320.6004665
0
ARC
8
DEFAULT_255_1_388
10
6.921248
20
52.6440527
40
0.2670878
50
320.6712228
51
344.5440474
0
ARC
8
DEFAULT_255_1_388
10
6.7911194
20
52.6822394
40
0.4026927
50
344.241448
51
356.735803
0
ARC
8
DEFAULT_255_1_388
10
6.6507501
20
52.6938656
40
0.5435085
50
356.3547471
51
0.0507222
0
ARC
8
DEFAULT_255_1_388
10
6.8009766
20
52.6973812
40
0.3932934
50
359.5579289
51
12.9534322
0
ARC
8
DEFAULT_255_1_388
10
6.9196606
20
52.7261586
40
0.2711827
50
12.6489751
51
41.608121
0
ARC
8
DEFAULT_255_1_388
10
6.9455766
20
52.7481946
40
0.2371737
50
41.7851122
51
85.9892156
0
ARC
8
DEFAULT_255_1_388
10
6.9317077
20
52.6566738
40
0.3295244
50
84.6965848
51
90.0672125
0
ARC
8
DEFAULT_255_1_388
10
6.9290644
20
52.5815118
40
0.4046926
50
89.6804991
51
99.161352
0
ARC
8
DEFAULT_255_1_388
10
6.9059653
20
52.7195848
40
0.2647044
50
98.9836248
51
113.8905702
0
ARC
8
DEFAULT_255_1_388
10
6.8801328
20
52.7805118
40
0.1985386
50
114.195234
51
127.3641866
0
LINE
8
DEFAULT_255_1_388
10
7.9089778
20
52.9039737
11
7.9089778
21
52.7675355
0
LINE
8
DEFAULT_255_1_388
10
7.9089778
20
52.7675355
11
7.4680384
21
52.7675355
0
LINE
8
DEFAULT_255_1_388
10
7.4680384
20
52.7675355
11
7.4680384
21
52.9039737
0
LINE
8
DEFAULT_255_1_388
10
7.4680384
20
52.9039737
11
7.9089778
21
52.9039737
0
LINE
8
DEFAULT_255_1_388
10
5.0374882
20
61.5299898
11
5.0374882
21
61.3872267
0
LINE
8
DEFAULT_255_1_388
10
5.0374882
20
61.3872267
11
4.6146201
21
61.3872267
0
LINE
8
DEFAULT_255_1_388
10
4.6146201
20
61.3872267
11
4.6146201
21
60.2144
0
LINE
8
DEFAULT_255_1_388
10
4.6146201
20
60.2144
11
4.4420393
21
60.2144
0
LINE
8
DEFAULT_255_1_388
10
4.4420393
20
60.2144
11
4.4420393
21
61.3872267
0
LINE
8
DEFAULT_255_1_388
10
4.4420393
20
61.3872267
11
4.0200747
21
61.3872267
0
LINE
8
DEFAULT_255_1_388
10
4.0200747
20
61.3872267
11
4.0200747
21
61.5299898
0
LINE
8
DEFAULT_255_1_388
10
4.0200747
20
61.5299898
11
5.0374882
21
61.5299898
0
LINE
8
DEFAULT_255_1_388
10
6.0006879
20
60.6318468
11
6.1750759
21
60.6318468
0
LINE
8
DEFAULT_255_1_388
10
5.1621801
20
60.8107525
11
5.1621801
21
60.9372516
0
LINE
8
DEFAULT_255_1_388
10
6.1750759
20
61.1071217
11
6.0006879
21
61.1071217
0
LINE
8
DEFAULT_255_1_388
10
5.3365681
20
60.9327337
11
5.3365681
21
60.8053312
0
ARC
8
DEFAULT_255_1_388
10
5.5584993
20
60.6990329
40
0.6202263
50
340.1774904
51
353.7812217
0
ARC
8
DEFAULT_255_1_388
10
5.7352846
20
60.6331893
40
0.4315926
50
311.4560052
51
340.4420756
0
ARC
8
DEFAULT_255_1_388
10
5.7315385
20
60.6456665
40
0.4434573
50
282.4332229
51
310.7514507
0
ARC
8
DEFAULT_255_1_388
10
5.6821203
20
60.8498703
40
0.6535262
50
269.9358869
51
282.8096729
0
ARC
8
DEFAULT_255_1_388
10
5.6763143
20
61.0011329
40
0.8048043
50
269.9995752
51
270.3612856
0
ARC
8
DEFAULT_255_1_388
10
5.6703633
20
60.7212781
40
0.5249831
50
250.7885263
51
270.6488451
0
ARC
8
DEFAULT_255_1_388
10
5.6514457
20
60.6495853
40
0.4510942
50
219.3628377
51
250.0611024
0
ARC
8
DEFAULT_255_1_388
10
5.7447332
20
60.7288653
40
0.5735046
50
193.5480293
51
219.5755675
0
ARC
8
DEFAULT_255_1_388
10
6.011554
20
60.798152
40
0.849146
50
181.1220183
51
193.8754971
0
ARC
8
DEFAULT_255_1_388
10
6.2438774
20
60.8105914
40
1.0816971
50
179.9914644
51
181.5398227
0
ARC
8
DEFAULT_255_1_388
10
6.0362084
20
60.9414586
40
0.8740384
50
169.5837606
51
180.275782
0
ARC
8
DEFAULT_255_1_388
10
5.8295432
20
60.9796439
40
0.6638751
50
155.0367033
51
169.6002779
0
ARC
8
DEFAULT_255_1_388
10
5.7017891
20
61.0412336
40
0.5220662
50
136.7831557
51
155.2472983
0
ARC
8
DEFAULT_255_1_388
10
5.6579681
20
61.0784577
40
0.4646502
50
121.7633063
51
136.4281161
0
ARC
8
DEFAULT_255_1_388
10
5.6731521
20
61.0504049
40
0.4964979
50
95.6460018
51
121.5489589
0
ARC
8
DEFAULT_255_1_388
10
5.6908495
20
60.9256704
40
0.6223912
50
89.9245727
51
96.1375919
0
ARC
8
DEFAULT_255_1_388
10
5.6965201
20
60.9390721
40
0.6090084
50
76.6779212
51
90.456405
0
ARC
8
DEFAULT_255_1_388
10
5.7408013
20
61.118006
40
0.42469
50
47.4858803
51
76.9287069
0
ARC
8
DEFAULT_255_1_388
10
5.7242627
20
61.1067623
40
0.4441778
50
16.5424081
51
46.8934505
0
ARC
8
DEFAULT_255_1_388
10
5.5433677
20
61.0473265
40
0.6345318
50
5.4072971
51
17.0363711
0
ARC
8
DEFAULT_255_1_388
10
5.3815402
20
61.0213304
40
0.6250632
50
7.8888693
51
15.9242022
0
ARC
8
DEFAULT_255_1_388
10
5.6050387
20
61.0862309
40
0.3923364
50
15.7650676
51
27.9410069
0
ARC
8
DEFAULT_255_1_388
10
5.7292557
20
61.1527317
40
0.2514401
50
27.8167196
51
46.4007942
0
ARC
8
DEFAULT_255_1_388
10
5.7348398
20
61.1520882
40
0.2480958
50
47.4372362
51
75.0695672
0
ARC
8
DEFAULT_255_1_388
10
5.7001234
20
61.0312277
40
0.3738281
50
74.7009379
51
87.8124314
0
ARC
8
DEFAULT_255_1_388
10
5.6918851
20
60.9128659
40
0.4924321
50
87.3802571
51
90.0251599
0
ARC
8
DEFAULT_255_1_388
10
5.6875499
20
61.0448997
40
0.3604218
50
89.3451886
51
108.5744412
0
ARC
8
DEFAULT_255_1_388
10
5.6721491
20
61.1026836
40
0.3007661
50
109.2998307
51
143.3037387
0
ARC
8
DEFAULT_255_1_388
10
5.7578781
20
61.0367584
40
0.4089031
50
143.075267
51
163.1918576
0
ARC
8
DEFAULT_255_1_388
10
5.9774615
20
60.9674652
40
0.6391492
50
162.9375929
51
174.6208776
0
ARC
8
DEFAULT_255_1_388
10
6.2728997
20
60.9350711
40
0.9363344
50
174.342123
51
180.1430283
0
ARC
8
DEFAULT_255_1_388
10
6.1681538
20
60.8007117
40
0.8315986
50
179.6817261
51
189.150555
0
ARC
8
DEFAULT_255_1_388
10
5.8868287
20
60.7538559
40
0.5464044
50
188.9911061
51
203.5772363
0
ARC
8
DEFAULT_255_1_388
10
5.7653579
20
60.7034539
40
0.4149206
50
203.9075402
51
215.1312435
0
ARC
8
DEFAULT_255_1_388
10
5.6615376
20
60.6229907
40
0.2837747
50
213.9071511
51
263.8848919
0
ARC
8
DEFAULT_255_1_388
10
5.675637
20
60.7112519
40
0.3730641
50
263.1757928
51
270.1031044
0
ARC
8
DEFAULT_255_1_388
10
5.6792449
20
60.8515511
40
0.5133712
50
269.6722503
51
279.0606936
0
ARC
8
DEFAULT_255_1_388
10
5.7092605
20
60.670115
40
0.3294739
50
278.8749101
51
293.6349581
0
ARC
8
DEFAULT_255_1_388
10
5.7452808
20
60.5855251
40
0.2375405
50
293.8553806
51
310.0518171
0
ARC
8
DEFAULT_255_1_388
10
5.7458317
20
60.5785021
40
0.2318463
50
311.0644687
51
332.0111037
0
ARC
8
DEFAULT_255_1_388
10
5.6116991
20
60.6524702
40
0.3850112
50
331.6586806
51
343.2877423
0
ARC
8
DEFAULT_255_1_388
10
5.3796456
20
60.7237806
40
0.6277712
50
343.1446576
51
351.0103568
0
ARC
8
DEFAULT_255_1_388
10
5.2163779
20
60.7537873
40
0.7937327
50
350.71248
51
351.1626997
0
LINE
8
DEFAULT_255_1_388
10
6.5789692
20
60.8396666
11
6.4452417
21
60.8740021
0
LINE
8
DEFAULT_255_1_388
10
6.4452417
20
60.8740021
11
6.5121054
21
61.5299898
0
LINE
8
DEFAULT_255_1_388
10
6.5121054
20
61.5299898
11
7.1861645
21
61.5299898
0
LINE
8
DEFAULT_255_1_388
10
7.1861645
20
61.5299898
11
7.1861645
21
61.3754803
0
LINE
8
DEFAULT_255_1_388
10
7.1861645
20
61.3754803
11
6.653965
21
61.3754803
0
LINE
8
DEFAULT_255_1_388
10
6.653965
20
61.3754803
11
6.6142082
21
61.0167652
0
LINE
8
DEFAULT_255_1_388
10
6.3982563
20
60.5604652
11
6.5563801
21
60.5604652
0
LINE
8
DEFAULT_255_1_388
10
6.6232438
20
60.8758092
11
6.5789692
21
60.8396666
0
ARC
8
DEFAULT_255_1_388
10
6.8228696
20
60.6590241
40
0.4141476
50
93.7181681
51
120.253934
0
ARC
8
DEFAULT_255_1_388
10
6.8334748
20
60.5681284
40
0.5055616
50
89.9660471
51
94.2495185
0
ARC
8
DEFAULT_255_1_388
10
6.838057
20
60.6344154
40
0.4392953
50
73.8045384
51
90.5585736
0
ARC
8
DEFAULT_255_1_388
10
6.8644827
20
60.730952
40
0.3392225
50
41.3071072
51
73.543002
0
ARC
8
DEFAULT_255_1_388
10
6.8176647
20
60.6906461
40
0.4009977
50
13.5075837
51
41.2174839
0
ARC
8
DEFAULT_255_1_388
10
6.6329745
20
60.6422907
40
0.5918864
50
1.1330171
51
13.8830737
0
ARC
8
DEFAULT_255_1_388
10
6.4733391
20
60.6337522
40
0.7516787
50
359.9925091
51
1.5431298
0
ARC
8
DEFAULT_255_1_388
10
6.6178005
20
60.6291027
40
0.6072343
50
347.8572712
51
0.4294349
0
ARC
8
DEFAULT_255_1_388
10
6.814714
20
60.5844898
40
0.4053482
50
323.6727442
51
348.1674594
0
ARC
8
DEFAULT_255_1_388
10
6.8478105
20
60.5643175
40
0.3667495
50
316.8171818
51
323.1486802
0
ARC
8
DEFAULT_255_1_388
10
6.8547228
20
60.5601612
40
0.358869
50
281.839603
51
316.5458142
0
ARC
8
DEFAULT_255_1_388
10
6.8124516
20
60.7351363
40
0.5388223
50
269.5770964
51
282.4214641
0
ARC
8
DEFAULT_255_1_388
10
6.8044437
20
60.711093
40
0.5147801
50
256.2425863
51
270.4486481
0
ARC
8
DEFAULT_255_1_388
10
6.7707964
20
60.5761124
40
0.3756708
50
228.9024379
51
256.33135
0
ARC
8
DEFAULT_255_1_388
10
6.7624945
20
60.5630054
40
0.360344
50
193.7536029
51
228.5272638
0
ARC
8
DEFAULT_255_1_388
10
6.901751
20
60.6038463
40
0.5053599
50
184.9244437
51
194.4976052
0
ARC
8
DEFAULT_255_1_388
10
6.9234151
20
60.6078722
40
0.3700839
50
187.3596909
51
198.6733728
0
ARC
8
DEFAULT_255_1_388
10
6.8053394
20
60.5669373
40
0.2451195
50
198.4453795
51
217.7945479
0
ARC
8
DEFAULT_255_1_388
10
6.7720567
20
60.5433563
40
0.2043754
50
218.2887146
51
228.5613203
0
ARC
8
DEFAULT_255_1_388
10
6.7830574
20
60.5581902
40
0.2227819
50
228.9652423
51
258.1237049
0
ARC
8
DEFAULT_255_1_388
10
6.8062011
20
60.6572964
40
0.3245374
50
257.7260585
51
270.4013717
0
ARC
8
DEFAULT_255_1_388
10
6.8112509
20
60.6072255
40
0.2744726
50
269.4204315
51
286.420998
0
ARC
8
DEFAULT_255_1_388
10
6.8279565
20
60.5465705
40
0.2115721
50
286.7250065
51
320.6004665
0
ARC
8
DEFAULT_255_1_388
10
6.784848
20
60.5815527
40
0.2670878
50
320.6712228
51
344.5440474
0
ARC
8
DEFAULT_255_1_388
10
6.6547194
20
60.6197394
40
0.4026927
50
344.241448
51
356.735803
0
ARC
8
DEFAULT_255_1_388
10
6.5143501
20
60.6313656
40
0.5435085
50
356.3547471
51
0.0507222
0
ARC
8
DEFAULT_255_1_388
10
6.6645766
20
60.6348812
40
0.3932934
50
359.5579289
51
12.9534322
0
ARC
8
DEFAULT_255_1_388
10
6.7832606
20
60.6636586
40
0.2711827
50
12.6489751
51
41.608121
0
ARC
8
DEFAULT_255_1_388
10
6.8091766
20
60.6856946
40
0.2371737
50
41.7851122
51
85.9892156
0
ARC
8
DEFAULT_255_1_388
10
6.7953077
20
60.5941738
40
0.3295244
50
84.6965848
51
90.0672125
0
ARC
8
DEFAULT_255_1_388
10
6.7926644
20
60.5190118
40
0.4046926
50
89.6804991
51
99.161352
0
ARC
8
DEFAULT_255_1_388
10
6.7695653
20
60.6570848
40
0.2647044
50
98.9836248
51
113.8905702
0
ARC
8
DEFAULT_255_1_388
10
6.7437328
20
60.7180118
40
0.1985386
50
114.195234
51
127.3641866
0
LINE
8
DEFAULT_255_1_388
10
7.9035947
20
61.3040987
11
7.9035947
21
60.9200838
0
LINE
8
DEFAULT_255_1_388
10
7.9035947
20
60.9200838
11
8.2704418
21
60.9200838
0
LINE
8
DEFAULT_255_1_388
10
8.2704418
20
60.9200838
11
8.2704418
21
60.7619601
0
LINE
8
DEFAULT_255_1_388
10
8.2704418
20
60.7619601
11
7.9035947
21
60.7619601
0
LINE
8
DEFAULT_255_1_388
10
7.9035947
20
60.7619601
11
7.9035947
21
60.3463204
0
LINE
8
DEFAULT_255_1_388
10
7.9035947
20
60.3463204
11
7.7355317
21
60.3463204
0
LINE
8
DEFAULT_255_1_388
10
7.7355317
20
60.3463204
11
7.7355317
21
60.7619601
0
LINE
8
DEFAULT_255_1_388
10
7.7355317
20
60.7619601
11
7.3686845
21
60.7619601
0
LINE
8
DEFAULT_255_1_388
10
7.3686845
20
60.7619601
11
7.3686845
21
60.9200838
0
LINE
8
DEFAULT_255_1_388
10
7.3686845
20
60.9200838
11
7.7355317
21
60.9200838
0
LINE
8
DEFAULT_255_1_388
10
7.7355317
20
60.9200838
11
7.7355317
21
61.3040987
0
LINE
8
DEFAULT_255_1_388
10
7.7355317
20
61.3040987
11
7.9035947
21
61.3040987
0
LINE
8
DEFAULT_255_1_388
10
5.1738882
20
69.4674898
11
5.1738882
21
69.3247267
0
LINE
8
DEFAULT_255_1_388
10
5.1738882
20
69.3247267
11
4.7510201
21
69.3247267
0
LINE
8
DEFAULT_255_1_388
10
4.7510201
20
69.3247267
11
4.7510201
21
68.1519
0
LINE
8
DEFAULT_255_1_388
10
4.7510201
20
68.1519
11
4.5784393
21
68.1519
0
LINE
8
DEFAULT_255_1_388
10
4.5784393
20
68.1519
11
4.5784393
21
69.3247267
0
LINE
8
DEFAULT_255_1_388
10
4.5784393
20
69.3247267
11
4.1564747
21
69.3247267
0
LINE
8
DEFAULT_255_1_388
10
4.1564747
20
69.3247267
11
4.1564747
21
69.4674898
0
LINE
8
DEFAULT_255_1_388
10
4.1564747
20
69.4674898
11
5.1738882
21
69.4674898
0
LINE
8
DEFAULT_255_1_388
10
6.1370879
20
68.5693468
11
6.3114759
21
68.5693468
0
LINE
8
DEFAULT_255_1_388
10
5.2985801
20
68.7482525
11
5.2985801
21
68.8747516
0
LINE
8
DEFAULT_255_1_388
10
6.3114759
20
69.0446217
11
6.1370879
21
69.0446217
0
LINE
8
DEFAULT_255_1_388
10
5.4729681
20
68.8702337
11
5.4729681
21
68.7428312
0
ARC
8
DEFAULT_255_1_388
10
5.6948993
20
68.6365329
40
0.6202263
50
340.1774904
51
353.7812217
0
ARC
8
DEFAULT_255_1_388
10
5.8716846
20
68.5706893
40
0.4315926
50
311.4560052
51
340.4420756
0
ARC
8
DEFAULT_255_1_388
10
5.8679385
20
68.5831665
40
0.4434573
50
282.4332229
51
310.7514507
0
ARC
8
DEFAULT_255_1_388
10
5.8185203
20
68.7873703
40
0.6535262
50
269.9358869
51
282.8096729
0
ARC
8
DEFAULT_255_1_388
10
5.8127143
20
68.9386329
40
0.8048043
50
269.9995752
51
270.3612856
0
ARC
8
DEFAULT_255_1_388
10
5.8067633
20
68.6587781
40
0.5249831
50
250.7885263
51
270.6488451
0
ARC
8
DEFAULT_255_1_388
10
5.7878457
20
68.5870853
40
0.4510942
50
219.3628377
51
250.0611024
0
ARC
8
DEFAULT_255_1_388
10
5.8811332
20
68.6663653
40
0.5735046
50
193.5480293
51
219.5755675
0
ARC
8
DEFAULT_255_1_388
10
6.147954
20
68.735652
40
0.849146
50
181.1220183
51
193.8754971
0
ARC
8
DEFAULT_255_1_388
10
6.3802774
20
68.7480914
40
1.0816971
50
179.9914644
51
181.5398227
0
ARC
8
DEFAULT_255_1_388
10
6.1726084
20
68.8789586
40
0.8740384
50
169.5837606
51
180.275782
0
ARC
8
DEFAULT_255_1_388
10
5.9659432
20
68.9171439
40
0.6638751
50
155.0367033
51
169.6002779
0
ARC
8
DEFAULT_255_1_388
10
5.8381891
20
68.9787336
40
0.5220662
50
136.7831557
51
155.2472983
0
ARC
8
DEFAULT_255_1_388
10
5.7943681
20
69.0159577
40
0.4646502
50
121.7633063
51
136.4281161
0
ARC
8
DEFAULT_255_1_388
10
5.8095521
20
68.9879049
40
0.4964979
50
95.6460018
51
121.5489589
0
ARC
8
DEFAULT_255_1_388
10
5.8272495
20
68.8631704
40
0.6223912
50
89.9245727
51
96.1375919
0
ARC
8
DEFAULT_255_1_388
10
5.8329201
20
68.8765721
40
0.6090084
50
76.6779212
51
90.456405
0
ARC
8
DEFAULT_255_1_388
10
5.8772013
20
69.055506
40
0.42469
50
47.4858803
51
76.9287069
0
ARC
8
DEFAULT_255_1_388
10
5.8606627
20
69.0442623
40
0.4441778
50
16.5424081
51
46.8934505
0
ARC
8
DEFAULT_255_1_388
10
5.6797677
20
68.9848265
40
0.6345318
50
5.4072971
51
17.0363711
0
ARC
8
DEFAULT_255_1_388
10
5.5179402
20
68.9588304
40
0.6250632
50
7.8888693
51
15.9242022
0
ARC
8
DEFAULT_255_1_388
10
5.7414387
20
69.0237309
40
0.3923364
50
15.7650676
51
27.9410069
0
ARC
8
DEFAULT_255_1_388
10
5.8656557
20
69.0902317
40
0.2514401
50
27.8167196
51
46.4007942
0
ARC
8
DEFAULT_255_1_388
10
5.8712398
20
69.0895882
40
0.2480958
50
47.4372362
51
75.0695672
0
ARC
8
DEFAULT_255_1_388
10
5.8365234
20
68.9687277
40
0.3738281
50
74.7009379
51
87.8124314
0
ARC
8
DEFAULT_255_1_388
10
5.8282851
20
68.8503659
40
0.4924321
50
87.3802571
51
90.0251599
0
ARC
8
DEFAULT_255_1_388
10
5.8239499
20
68.9823997
40
0.3604218
50
89.3451886
51
108.5744412
0
ARC
8
DEFAULT_255_1_388
10
5.8085491
20
69.0401836
40
0.3007661
50
109.2998307
51
143.3037387
0
ARC
8
DEFAULT_255_1_388
10
5.8942781
20
68.9742584
40
0.4089031
50
143.075267
51
163.1918576
0
ARC
8
DEFAULT_255_1_388
10
6.1138615
20
68.9049652
40
0.6391492
50
162.9375929
51
174.6208776
0
ARC
8
DEFAULT_255_1_388
10
6.4092997
20
68.8725711
40
0.9363344
50
174.342123
51
180.1430283
0
ARC
8
DEFAULT_255_1_388
10
6.3045538
20
68.7382117
40
0.8315986
50
179.6817261
51
189.150555
0
ARC
8
DEFAULT_255_1_388
10
6.0232287
20
68.6913559
40
0.5464044
50
188.9911061
51
203.5772363
0
ARC
8
DEFAULT_255_1_388
10
5.9017579
20
68.6409539
40
0.4149206
50
203.9075402
51
215.1312435
0
ARC
8
DEFAULT_255_1_388
10
5.7979376
20
68.5604907
40
0.2837747
50
213.9071511
51
263.8848919
0
ARC
8
DEFAULT_255_1_388
10
5.812037
20
68.6487519
40
0.3730641
50
263.1757928
51
270.1031044
0
ARC
8
DEFAULT_255_1_388
10
5.8156449
20
68.7890511
40
0.5133712
50
269.6722503
51
279.0606936
0
ARC
8
DEFAULT_255_1_388
10
5.8456605
20
68.607615
40
0.3294739
50
278.8749101
51
293.6349581
0
ARC
8
DEFAULT_255_1_388
10
5.8816808
20
68.5230251
40
0.2375405
50
293.8553806
51
310.0518171
0
ARC
8
DEFAULT_255_1_388
10
5.8822317
20
68.5160021
40
0.2318463
50
311.0644687
51
332.0111037
0
ARC
8
DEFAULT_255_1_388
10
5.7480991
20
68.5899702
40
0.3850112
50
331.6586806
51
343.2877423
0
ARC
8
DEFAULT_255_1_388
10
5.5160456
20
68.6612806
40
0.6277712
50
343.1446576
51
351.0103568
0
ARC
8
DEFAULT_255_1_388
10
5.3527779
20
68.6912873
40
0.7937327
50
350.71248
51
351.1626997
0
LINE
8
DEFAULT_255_1_388
10
7.2105225
20
69.4674898
11
7.2105225
21
68.593743
0
LINE
8
DEFAULT_255_1_388
10
7.2105225
20
68.593743
11
7.3930425
21
68.593743
0
LINE
8
DEFAULT_255_1_388
10
7.3930425
20
68.593743
11
7.3930425
21
68.4573048
0
LINE
8
DEFAULT_255_1_388
10
7.3930425
20
68.4573048
11
7.2105225
21
68.4573048
0
LINE
8
DEFAULT_255_1_388
10
7.2105225
20
68.4573048
11
7.2105225
21
68.1519
0
LINE
8
DEFAULT_255_1_388
10
7.2105225
20
68.1519
11
7.0424595
21
68.1519
0
LINE
8
DEFAULT_255_1_388
10
7.0424595
20
68.1519
11
7.0424595
21
68.4573048
0
LINE
8
DEFAULT_255_1_388
10
7.0424595
20
68.4573048
11
6.4433963
21
68.4573048
0
LINE
8
DEFAULT_255_1_388
10
6.4433963
20
68.4573048
11
6.4433963
21
68.5557933
0
LINE
8
DEFAULT_255_1_388
10
6.4433963
20
68.5557933
11
7.0325203
21
69.4674898
0
LINE
8
DEFAULT_255_1_388
10
7.0325203
20
69.4674898
11
7.2105225
21
69.4674898
0
LINE
8
DEFAULT_255_1_388
10
7.0225811
20
69.2027455
11
6.6331448
21
68.593743
0
LINE
8
DEFAULT_255_1_388
10
6.6331448
20
68.593743
11
7.0424595
21
68.593743
0
LINE
8
DEFAULT_255_1_388
10
7.0424595
20
68.593743
11
7.0424595
21
69.238888
0
LINE
8
DEFAULT_255_1_388
10
7.0424595
20
69.238888
11
7.0225811
21
69.2027455
0
LINE
8
DEFAULT_255_1_388
10
7.9089778
20
68.7789737
11
7.9089778
21
68.6425355
0
LINE
8
DEFAULT_255_1_388
10
7.9089778
20
68.6425355
11
7.4680384
21
68.6425355
0
LINE
8
DEFAULT_255_1_388
10
7.4680384
20
68.6425355
11
7.4680384
21
68.7789737
0
LINE
8
DEFAULT_255_1_388
10
7.4680384
20
68.7789737
11
7.9089778
21
68.7789737
0
LINE
8
DEFAULT_255_1_388
10
5.0374882
20
77.4049898
11
5.0374882
21
77.2622267
0
LINE
8
DEFAULT_255_1_388
10
5.0374882
20
77.2622267
11
4.6146201
21
77.2622267
0
LINE
8
DEFAULT_255_1_388
10
4.6146201
20
77.2622267
11
4.6146201
21
76.0894
0
LINE
8
DEFAULT_255_1_388
10
4.6146201
20
76.0894
11
4.4420393
21
76.0894
0
LINE
8
DEFAULT_255_1_388
10
4.4420393
20
76.0894
11
4.4420393
21
77.2622267
0
LINE
8
DEFAULT_255_1_388
10
4.4420393
20
77.2622267
11
4.0200747
21
77.2622267
0
LINE
8
DEFAULT_255_1_388
10
4.0200747
20
77.2622267
11
4.0200747
21
77.4049898
0
LINE
8
DEFAULT_255_1_388
10
4.0200747
20
77.4049898
11
5.0374882
21
77.4049898
0
LINE
8
DEFAULT_255_1_388
10
6.0006879
20
76.5068468
11
6.1750759
21
76.5068468
0
LINE
8
DEFAULT_255_1_388
10
5.1621801
20
76.6857525
11
5.1621801
21
76.8122516
0
LINE
8
DEFAULT_255_1_388
10
6.1750759
20
76.9821217
11
6.0006879
21
76.9821217
0
LINE
8
DEFAULT_255_1_388
10
5.3365681
20
76.8077337
11
5.3365681
21
76.6803312
0
ARC
8
DEFAULT_255_1_388
10
5.5584993
20
76.5740329
40
0.6202263
50
340.1774904
51
353.7812217
0
ARC
8
DEFAULT_255_1_388
10
5.7352846
20
76.5081893
40
0.4315926
50
311.4560052
51
340.4420756
0
ARC
8
DEFAULT_255_1_388
10
5.7315385
20
76.5206665
40
0.4434573
50
282.4332229
51
310.7514507
0
ARC
8
DEFAULT_255_1_388
10
5.6821203
20
76.7248703
40
0.6535262
50
269.9358869
51
282.8096729
0
ARC
8
DEFAULT_255_1_388
10
5.6763143
20
76.8761329
40
0.8048043
50
269.9995752
51
270.3612856
0
ARC
8
DEFAULT_255_1_388
10
5.6703633
20
76.5962781
40
0.5249831
50
250.7885263
51
270.6488451
0
ARC
8
DEFAULT_255_1_388
10
5.6514457
20
76.5245853
40
0.4510942
50
219.3628377
51
250.0611024
0
ARC
8
DEFAULT_255_1_388
10
5.7447332
20
76.6038653
40
0.5735046
50
193.5480293
51
219.5755675
0
ARC
8
DEFAULT_255_1_388
10
6.011554
20
76.673152
40
0.849146
50
181.1220183
51
193.8754971
0
ARC
8
DEFAULT_255_1_388
10
6.2438774
20
76.6855914
40
1.0816971
50
179.9914644
51
181.5398227
0
ARC
8
DEFAULT_255_1_388
10
6.0362084
20
76.8164586
40
0.8740384
50
169.5837606
51
180.275782
0
ARC
8
DEFAULT_255_1_388
10
5.8295432
20
76.8546439
40
0.6638751
50
155.0367033
51
169.6002779
0
ARC
8
DEFAULT_255_1_388
10
5.7017891
20
76.9162336
40
0.5220662
50
136.7831557
51
155.2472983
0
ARC
8
DEFAULT_255_1_388
10
5.6579681
20
76.9534577
40
0.4646502
50
121.7633063
51
136.4281161
0
ARC
8
DEFAULT_255_1_388
10
5.6731521
20
76.9254049
40
0.4964979
50
95.6460018
51
121.5489589
0
ARC
8
DEFAULT_255_1_388
10
5.6908495
20
76.8006704
40
0.6223912
50
89.9245727
51
96.1375919
0
ARC
8
DEFAULT_255_1_388
10
5.6965201
20
76.8140721
40
0.6090084
50
76.6779212
51
90.456405
0
ARC
8
DEFAULT_255_1_388
10
5.7408013
20
76.993006
40
0.42469
50
47.4858803
51
76.9287069
0
ARC
8
DEFAULT_255_1_388
10
5.7242627
20
76.9817623
40
0.4441778
50
16.5424081
51
46.8934505
0
ARC
8
DEFAULT_255_1_388
10
5.5433677
20
76.9223265
40
0.6345318
50
5.4072971
51
17.0363711
0
ARC
8
DEFAULT_255_1_388
10
5.3815402
20
76.8963304
40
0.6250632
50
7.8888693
51
15.9242022
0
ARC
8
DEFAULT_255_1_388
10
5.6050387
20
76.9612309
40
0.3923364
50
15.7650676
51
27.9410069
0
ARC
8
DEFAULT_255_1_388
10
5.7292557
20
77.0277317
40
0.2514401
50
27.8167196
51
46.4007942
0
ARC
8
DEFAULT_255_1_388
10
5.7348398
20
77.0270882
40
0.2480958
50
47.4372362
51
75.0695672
0
ARC
8
DEFAULT_255_1_388
10
5.7001234
20
76.9062277
40
0.3738281
50
74.7009379
51
87.8124314
0
ARC
8
DEFAULT_255_1_388
10
5.6918851
20
76.7878659
40
0.4924321
50
87.3802571
51
90.0251599
0
ARC
8
DEFAULT_255_1_388
10
5.6875499
20
76.9198997
40
0.3604218
50
89.3451886
51
108.5744412
0
ARC
8
DEFAULT_255_1_388
10
5.6721491
20
76.9776836
40
0.3007661
50
109.2998307
51
143.3037387
0
ARC
8
DEFAULT_255_1_388
10
5.7578781
20
76.9117584
40
0.4089031
50
143.075267
51
163.1918576
0
ARC
8
DEFAULT_255_1_388
10
5.9774615
20
76.8424652
40
0.6391492
50
162.9375929
51
174.6208776
0
ARC
8
DEFAULT_255_1_388
10
6.2728997
20
76.8100711
40
0.9363344
50
174.342123
51
180.1430283
0
ARC
8
DEFAULT_255_1_388
10
6.1681538
20
76.6757117
40
0.8315986
50
179.6817261
51
189.150555
0
ARC
8
DEFAULT_255_1_388
10
5.8868287
20
76.6288559
40
0.5464044
50
188.9911061
51
203.5772363
0
ARC
8
DEFAULT_255_1_388
10
5.7653579
20
76.5784539
40
0.4149206
50
203.9075402
51
215.1312435
0
ARC
8
DEFAULT_255_1_388
10
5.6615376
20
76.4979907
40
0.2837747
50
213.9071511
51
263.8848919
0
ARC
8
DEFAULT_255_1_388
10
5.675637
20
76.5862519
40
0.3730641
50
263.1757928
51
270.1031044
0
ARC
8
DEFAULT_255_1_388
10
5.6792449
20
76.7265511
40
0.5133712
50
269.6722503
51
279.0606936
0
ARC
8
DEFAULT_255_1_388
10
5.7092605
20
76.545115
40
0.3294739
50
278.8749101
51
293.6349581
0
ARC
8
DEFAULT_255_1_388
10
5.7452808
20
76.4605251
40
0.2375405
50
293.8553806
51
310.0518171
0
ARC
8
DEFAULT_255_1_388
10
5.7458317
20
76.4535021
40
0.2318463
50
311.0644687
51
332.0111037
0
ARC
8
DEFAULT_255_1_388
10
5.6116991
20
76.5274702
40
0.3850112
50
331.6586806
51
343.2877423
0
ARC
8
DEFAULT_255_1_388
10
5.3796456
20
76.5987806
40
0.6277712
50
343.1446576
51
351.0103568
0
ARC
8
DEFAULT_255_1_388
10
5.2163779
20
76.6287873
40
0.7937327
50
350.71248
51
351.1626997
0
LINE
8
DEFAULT_255_1_388
10
7.0741225
20
77.4049898
11
7.0741225
21
76.531243
0
LINE
8
DEFAULT_255_1_388
10
7.0741225
20
76.531243
11
7.2566425
21
76.531243
0
LINE
8
DEFAULT_255_1_388
10
7.2566425
20
76.531243
11
7.2566425
21
76.3948048
0
LINE
8
DEFAULT_255_1_388
10
7.2566425
20
76.3948048
11
7.0741225
21
76.3948048
0
LINE
8
DEFAULT_255_1_388
10
7.0741225
20
76.3948048
11
7.0741225
21
76.0894
0
LINE
8
DEFAULT_255_1_388
10
7.0741225
20
76.0894
11
6.9060595
21
76.0894
0
LINE
8
DEFAULT_255_1_388
10
6.9060595
20
76.0894
11
6.9060595
21
76.3948048
0
LINE
8
DEFAULT_255_1_388
10
6.9060595
20
76.3948048
11
6.3069963
21
76.3948048
0
LINE
8
DEFAULT_255_1_388
10
6.3069963
20
76.3948048
11
6.3069963
21
76.4932933
0
LINE
8
DEFAULT_255_1_388
10
6.3069963
20
76.4932933
11
6.8961203
21
77.4049898
0
LINE
8
DEFAULT_255_1_388
10
6.8961203
20
77.4049898
11
7.0741225
21
77.4049898
0
LINE
8
DEFAULT_255_1_388
10
6.8861811
20
77.1402455
11
6.4967448
21
76.531243
0
LINE
8
DEFAULT_255_1_388
10
6.4967448
20
76.531243
11
6.9060595
21
76.531243
0
LINE
8
DEFAULT_255_1_388
10
6.9060595
20
76.531243
11
6.9060595
21
77.176388
0
LINE
8
DEFAULT_255_1_388
10
6.9060595
20
77.176388
11
6.8861811
21
77.1402455
0
LINE
8
DEFAULT_255_1_388
10
7.9035947
20
77.1790987
11
7.9035947
21
76.7950838
0
LINE
8
DEFAULT_255_1_388
10
7.9035947
20
76.7950838
11
8.2704418
21
76.7950838
0
LINE
8
DEFAULT_255_1_388
10
8.2704418
20
76.7950838
11
8.2704418
21
76.6369601
0
LINE
8
DEFAULT_255_1_388
10
8.2704418
20
76.6369601
11
7.9035947
21
76.6369601
0
LINE
8
DEFAULT_255_1_388
10
7.9035947
20
76.6369601
11
7.9035947
21
76.2213204
0
LINE
8
DEFAULT_255_1_388
10
7.9035947
20
76.2213204
11
7.7355317
21
76.2213204
0
LINE
8
DEFAULT_255_1_388
10
7.7355317
20
76.2213204
11
7.7355317
21
76.6369601
0
LINE
8
DEFAULT_255_1_388
10
7.7355317
20
76.6369601
11
7.3686845
21
76.6369601
0
LINE
8
DEFAULT_255_1_388
10
7.3686845
20
76.6369601
11
7.3686845
21
76.7950838
0
LINE
8
DEFAULT_255_1_388
10
7.3686845
20
76.7950838
11
7.7355317
21
76.7950838
0
LINE
8
DEFAULT_255_1_388
10
7.7355317
20
76.7950838
11
7.7355317
21
77.1790987
0
LINE
8
DEFAULT_255_1_388
10
7.7355317
20
77.1790987
11
7.9035947
21
77.1790987
0
LINE
8
DEFAULT_255_1_388
10
5.1738882
20
85.3424898
11
5.1738882
21
85.1997267
0
LINE
8
DEFAULT_255_1_388
10
5.1738882
20
85.1997267
11
4.7510201
21
85.1997267
0
LINE
8
DEFAULT_255_1_388
10
4.7510201
20
85.1997267
11
4.7510201
21
84.0269
0
LINE
8
DEFAULT_255_1_388
10
4.7510201
20
84.0269
11
4.5784393
21
84.0269
0
LINE
8
DEFAULT_255_1_388
10
4.5784393
20
84.0269
11
4.5784393
21
85.1997267
0
LINE
8
DEFAULT_255_1_388
10
4.5784393
20
85.1997267
11
4.1564747
21
85.1997267
0
LINE
8
DEFAULT_255_1_388
10
4.1564747
20
85.1997267
11
4.1564747
21
85.3424898
0
LINE
8
DEFAULT_255_1_388
10
4.1564747
20
85.3424898
11
5.1738882
21
85.3424898
0
LINE
8
DEFAULT_255_1_388
10
6.1370879
20
84.4443468
11
6.3114759
21
84.4443468
0
LINE
8
DEFAULT_255_1_388
10
5.2985801
20
84.6232525
11
5.2985801
21
84.7497516
0
LINE
8
DEFAULT_255_1_388
10
6.3114759
20
84.9196217
11
6.1370879
21
84.9196217
0
LINE
8
DEFAULT_255_1_388
10
5.4729681
20
84.7452337
11
5.4729681
21
84.6178312
0
ARC
8
DEFAULT_255_1_388
10
5.6948993
20
84.5115329
40
0.6202263
50
340.1774904
51
353.7812217
0
ARC
8
DEFAULT_255_1_388
10
5.8716846
20
84.4456893
40
0.4315926
50
311.4560052
51
340.4420756
0
ARC
8
DEFAULT_255_1_388
10
5.8679385
20
84.4581665
40
0.4434573
50
282.4332229
51
310.7514507
0
ARC
8
DEFAULT_255_1_388
10
5.8185203
20
84.6623703
40
0.6535262
50
269.9358869
51
282.8096729
0
ARC
8
DEFAULT_255_1_388
10
5.8127143
20
84.8136329
40
0.8048043
50
269.9995752
51
270.3612856
0
ARC
8
DEFAULT_255_1_388
10
5.8067633
20
84.5337781
40
0.5249831
50
250.7885263
51
270.6488451
0
ARC
8
DEFAULT_255_1_388
10
5.7878457
20
84.4620853
40
0.4510942
50
219.3628377
51
250.0611024
0
ARC
8
DEFAULT_255_1_388
10
5.8811332
20
84.5413653
40
0.5735046
50
193.5480293
51
219.5755675
0
ARC
8
DEFAULT_255_1_388
10
6.147954
20
84.610652
40
0.849146
50
181.1220183
51
193.8754971
0
ARC
8
DEFAULT_255_1_388
10
6.3802774
20
84.6230914
40
1.0816971
50
179.9914644
51
181.5398227
0
ARC
8
DEFAULT_255_1_388
10
6.1726084
20
84.7539586
40
0.8740384
50
169.5837606
51
180.275782
0
ARC
8
DEFAULT_255_1_388
10
5.9659432
20
84.7921439
40
0.6638751
50
155.0367033
51
169.6002779
0
ARC
8
DEFAULT_255_1_388
10
5.8381891
20
84.8537336
40
0.5220662
50
136.7831557
51
155.2472983
0
ARC
8
DEFAULT_255_1_388
10
5.7943681
20
84.8909577
40
0.4646502
50
121.7633063
51
136.4281161
0
ARC
8
DEFAULT_255_1_388
10
5.8095521
20
84.8629049
40
0.4964979
50
95.6460018
51
121.5489589
0
ARC
8
DEFAULT_255_1_388
10
5.8272495
20
84.7381704
40
0.6223912
50
89.9245727
51
96.1375919
0
ARC
8
DEFAULT_255_1_388
10
5.8329201
20
84.7515721
40
0.6090084
50
76.6779212
51
90.456405
0
ARC
8
DEFAULT_255_1_388
10
5.8772013
20
84.930506
40
0.42469
50
47.4858803
51
76.9287069
0
ARC
8
DEFAULT_255_1_388
10
5.8606627
20
84.9192623
40
0.4441778
50
16.5424081
51
46.8934505
0
ARC
8
DEFAULT_255_1_388
10
5.6797677
20
84.8598265
40
0.6345318
50
5.4072971
51
17.0363711
0
ARC
8
DEFAULT_255_1_388
10
5.5179402
20
84.8338304
40
0.6250632
50
7.8888693
51
15.9242022
0
ARC
8
DEFAULT_255_1_388
10
5.7414387
20
84.8987309
40
0.3923364
50
15.7650676
51
27.9410069
0
ARC
8
DEFAULT_255_1_388
10
5.8656557
20
84.9652317
40
0.2514401
50
27.8167196
51
46.4007942
0
ARC
8
DEFAULT_255_1_388
10
5.8712398
20
84.9645882
40
0.2480958
50
47.4372362
51
75.0695672
0
ARC
8
DEFAULT_255_1_388
10
5.8365234
20
84.8437277
40
0.3738281
50
74.7009379
51
87.8124314
0
ARC
8
DEFAULT_255_1_388
10
5.8282851
20
84.7253659
40
0.4924321
50
87.3802571
51
90.0251599
0
ARC
8
DEFAULT_255_1_388
10
5.8239499
20
84.8573997
40
0.3604218
50
89.3451886
51
108.5744412
0
ARC
8
DEFAULT_255_1_388
10
5.8085491
20
84.9151836
40
0.3007661
50
109.2998307
51
143.3037387
0
ARC
8
DEFAULT_255_1_388
10
5.8942781
20
84.8492584
40
0.4089031
50
143.075267
51
163.1918576
0
ARC
8
DEFAULT_255_1_388
10
6.1138615
20
84.7799652
40
0.6391492
50
162.9375929
51
174.6208776
0
ARC
8
DEFAULT_255_1_388
10
6.4092997
20
84.7475711
40
0.9363344
50
174.342123
51
180.1430283
0
ARC
8
DEFAULT_255_1_388
10
6.3045538
20
84.6132117
40
0.8315986
50
179.6817261
51
189.150555
0
ARC
8
DEFAULT_255_1_388
10
6.0232287
20
84.5663559
40
0.5464044
50
188.9911061
51
203.5772363
0
ARC
8
DEFAULT_255_1_388
10
5.9017579
20
84.5159539
40
0.4149206
50
203.9075402
51
215.1312435
0
ARC
8
DEFAULT_255_1_388
10
5.7979376
20
84.4354907
40
0.2837747
50
213.9071511
51
263.8848919
0
ARC
8
DEFAULT_255_1_388
10
5.812037
20
84.5237519
40
0.3730641
50
263.1757928
51
270.1031044
0
ARC
8
DEFAULT_255_1_388
10
5.8156449
20
84.6640511
40
0.5133712
50
269.6722503
51
279.0606936
0
ARC
8
DEFAULT_255_1_388
10
5.8456605
20
84.482615
40
0.3294739
50
278.8749101
51
293.6349581
0
ARC
8
DEFAULT_255_1_388
10
5.8816808
20
84.3980251
40
0.2375405
50
293.8553806
51
310.0518171
0
ARC
8
DEFAULT_255_1_388
10
5.8822317
20
84.3910021
40
0.2318463
50
311.0644687
51
332.0111037
0
ARC
8
DEFAULT_255_1_388
10
5.7480991
20
84.4649702
40
0.3850112
50
331.6586806
51
343.2877423
0
ARC
8
DEFAULT_255_1_388
10
5.5160456
20
84.5362806
40
0.6277712
50
343.1446576
51
351.0103568
0
ARC
8
DEFAULT_255_1_388
10
5.3527779
20
84.5662873
40
0.7937327
50
350.71248
51
351.1626997
0
LINE
8
DEFAULT_255_1_388
10
6.7478975
20
84.6295775
11
6.7478975
21
84.7660157
0
LINE
8
DEFAULT_255_1_388
10
6.7478975
20
84.7660157
11
6.873493
21
84.7660157
0
LINE
8
DEFAULT_255_1_388
10
6.6593482
20
84.9973282
11
6.4921888
21
84.9973282
0
LINE
8
DEFAULT_255_1_388
10
6.4804424
20
84.3738688
11
6.6485054
21
84.3738688
0
LINE
8
DEFAULT_255_1_388
10
6.873493
20
84.6295775
11
6.7478975
21
84.6295775
0
ARC
8
DEFAULT_255_1_388
10
6.8702156
20
85.1476922
40
0.3816905
50
270.491971
51
281.8953028
0
ARC
8
DEFAULT_255_1_388
10
6.8973583
20
85.0237199
40
0.2547877
50
281.6690378
51
301.2943765
0
ARC
8
DEFAULT_255_1_388
10
6.9165034
20
84.9886926
40
0.2149197
50
301.7834992
51
311.754567
0
ARC
8
DEFAULT_255_1_388
10
6.9268076
20
84.977265
40
0.1995326
50
311.7325027
51
354.2803031
0
ARC
8
DEFAULT_255_1_388
10
6.8450492
20
84.991328
40
0.2823461
50
353.0941646
51
0.1174696
0
ARC
8
DEFAULT_255_1_388
10
6.793205
20
84.9966874
40
0.3342238
50
359.1804452
51
15.0452323
0
ARC
8
DEFAULT_255_1_388
10
6.9446108
20
85.0408546
40
0.1765747
50
13.957816
51
77.6713812
0
ARC
8
DEFAULT_255_1_388
10
6.9011344
20
84.8850464
40
0.3381982
50
76.111571
51
90.7028736
0
ARC
8
DEFAULT_255_1_388
10
6.8944756
20
84.915825
40
0.3074046
50
89.5321574
51
103.5319393
0
ARC
8
DEFAULT_255_1_388
10
6.871914
20
85.0057443
40
0.2147041
50
103.2930114
51
133.5619756
0
ARC
8
DEFAULT_255_1_388
10
6.8669081
20
85.0124351
40
0.2064084
50
133.8349761
51
173.5343225
0
ARC
8
DEFAULT_255_1_388
10
6.9482739
20
84.9980144
40
0.2889266
50
172.5097183
51
180.1360699
0
ARC
8
DEFAULT_255_1_388
10
6.8412503
20
85.001888
40
0.3490913
50
155.3483706
51
180.7484035
0
ARC
8
DEFAULT_255_1_388
10
6.8357478
20
84.9986519
40
0.3454798
50
131.5745177
51
154.4799474
0
ARC
8
DEFAULT_255_1_388
10
6.8709761
20
84.9630422
40
0.3955058
50
96.9874487
51
131.9690874
0
ARC
8
DEFAULT_255_1_388
10
6.8956653
20
84.8229407
40
0.537622
50
89.8592909
51
97.7827481
0
ARC
8
DEFAULT_255_1_388
10
6.9010762
20
84.793436
40
0.5671399
50
78.3654493
51
90.4132586
0
ARC
8
DEFAULT_255_1_388
10
6.9413403
20
84.9800918
40
0.3762034
50
56.6229818
51
78.6387103
0
ARC
8
DEFAULT_255_1_388
10
6.9655233
20
85.0223846
40
0.3275964
50
47.0254604
51
56.085558
0
ARC
8
DEFAULT_255_1_388
10
6.9677484
20
85.0268189
40
0.3228382
50
10.9207523
51
46.777927
0
ARC
8
DEFAULT_255_1_388
10
6.8143078
20
84.9913401
40
0.4802559
50
359.6364235
51
11.6087615
0
ARC
8
DEFAULT_255_1_388
10
7.0207243
20
84.9896404
40
0.273833
50
332.3549969
51
359.7179765
0
ARC
8
DEFAULT_255_1_388
10
6.9475644
20
85.0243285
40
0.3547505
50
325.2332381
51
332.8746682
0
ARC
8
DEFAULT_255_1_388
10
6.9647227
20
85.0123763
40
0.3338396
50
292.9803892
51
325.2391113
0
ARC
8
DEFAULT_255_1_388
10
6.9336423
20
85.0728679
40
0.4016959
50
292.542178
51
293.6931461
0
ARC
8
DEFAULT_255_1_388
10
6.9779995
20
84.3463036
40
0.372079
50
57.643292
51
72.8626085
0
ARC
8
DEFAULT_255_1_388
10
7.0178829
20
84.4109273
40
0.2961455
50
36.7246661
51
57.4701329
0
ARC
8
DEFAULT_255_1_388
10
7.0165986
20
84.412347
40
0.2963321
50
8.054535
51
36.3561529
0
ARC
8
DEFAULT_255_1_388
10
6.9195658
20
84.3949073
40
0.3948682
50
359.8316595
51
8.5873361
0
ARC
8
DEFAULT_255_1_388
10
6.8773133
20
84.389497
40
0.4371398
50
343.9831631
51
0.557075
0
ARC
8
DEFAULT_255_1_388
10
6.9770182
20
84.3621963
40
0.3337749
50
311.6358204
51
343.7652116
0
ARC
8
DEFAULT_255_1_388
10
6.9344436
20
84.4101955
40
0.3979351
50
279.7829743
51
311.625622
0
ARC
8
DEFAULT_255_1_388
10
6.9005571
20
84.5718642
40
0.5630417
50
269.7285092
51
280.3857694
0
ARC
8
DEFAULT_255_1_388
10
6.8935884
20
84.5672241
40
0.5584119
50
256.6827433
51
270.4412869
0
ARC
8
DEFAULT_255_1_388
10
6.8554871
20
84.4114698
40
0.3980715
50
229.4223821
51
256.8554507
0
ARC
8
DEFAULT_255_1_388
10
6.8088424
20
84.3589683
40
0.3278564
50
181.8183354
51
229.6455015
0
ARC
8
DEFAULT_255_1_388
10
6.9258034
20
84.3736825
40
0.4453611
50
179.9760419
51
183.2330638
0
ARC
8
DEFAULT_255_1_388
10
6.9064586
20
84.3713781
40
0.2579652
50
179.4467996
51
196.2871626
0
ARC
8
DEFAULT_255_1_388
10
6.851604
20
84.3563709
40
0.2011057
50
196.5661293
51
227.7059371
0
ARC
8
DEFAULT_255_1_388
10
6.8700647
20
84.3770155
40
0.2287994
50
227.7653015
51
257.8763321
0
ARC
8
DEFAULT_255_1_388
10
6.895373
20
84.4830961
40
0.3378385
50
257.4583525
51
270.4267406
0
ARC
8
DEFAULT_255_1_388
10
6.9004979
20
84.515723
40
0.3704652
50
269.5965319
51
280.8788143
0
ARC
8
DEFAULT_255_1_388
10
6.9263208
20
84.3867529
40
0.2389415
50
280.6347277
51
299.8594068
0
ARC
8
DEFAULT_255_1_388
10
6.9477977
20
84.3459736
40
0.19289
50
300.3575552
51
314.5515667
0
ARC
8
DEFAULT_255_1_388
10
6.9384653
20
84.3528025
40
0.204312
50
315.0730962
51
345.0429362
0
ARC
8
DEFAULT_255_1_388
10
6.834616
20
84.3830539
40
0.31246
50
344.598526
51
357.9270698
0
ARC
8
DEFAULT_255_1_388
10
6.7336465
20
84.3899705
40
0.4136265
50
357.4755098
51
0.0224936
0
ARC
8
DEFAULT_255_1_388
10
6.8489343
20
84.3927099
40
0.2983498
50
359.5051035
51
13.4236939
0
ARC
8
DEFAULT_255_1_388
10
6.9464433
20
84.4176637
40
0.1977186
50
12.9497905
51
48.7550905
0
ARC
8
DEFAULT_255_1_388
10
6.9259355
20
84.3896373
40
0.2323321
50
49.509109
51
72.1832965
0
ARC
8
DEFAULT_255_1_388
10
6.8856823
20
84.2701632
40
0.358397
50
71.9008458
51
84.3555134
0
ARC
8
DEFAULT_255_1_388
10
6.8675218
20
84.1169712
40
0.512641
50
84.019632
51
89.3326067
0
LINE
8
DEFAULT_255_1_388
10
7.9089778
20
84.6539737
11
7.9089778
21
84.5175355
0
LINE
8
DEFAULT_255_1_388
10
7.9089778
20
84.5175355
11
7.4680384
21
84.5175355
0
LINE
8
DEFAULT_255_1_388
10
7.4680384
20
84.5175355
11
7.4680384
21
84.6539737
0
LINE
8
DEFAULT_255_1_388
10
7.4680384
20
84.6539737
11
7.9089778
21
84.6539737
0
LINE
8
DEFAULT_255_1_388
10
5.0374882
20
93.2799898
11
5.0374882
21
93.1372267
0
LINE
8
DEFAULT_255_1_388
10
5.0374882
20
93.1372267
11
4.6146201
21
93.1372267
0
LINE
8
DEFAULT_255_1_388
10
4.6146201
20
93.1372267
11
4.6146201
21
91.9644
0
LINE
8
DEFAULT_255_1_388
10
4.6146201
20
91.9644
11
4.4420393
21
91.9644
0
LINE
8
DEFAULT_255_1_388
10
4.4420393
20
91.9644
11
4.4420393
21
93.1372267
0
LINE
8
DEFAULT_255_1_388
10
4.4420393
20
93.1372267
11
4.0200747
21
93.1372267
0
LINE
8
DEFAULT_255_1_388
10
4.0200747
20
93.1372267
11
4.0200747
21
93.2799898
0
LINE
8
DEFAULT_255_1_388
10
4.0200747
20
93.2799898
11
5.0374882
21
93.2799898
0
LINE
8
DEFAULT_255_1_388
10
6.0006879
20
92.3818468
11
6.1750759
21
92.3818468
0
LINE
8
DEFAULT_255_1_388
10
5.1621801
20
92.5607525
11
5.1621801
21
92.6872516
0
LINE
8
DEFAULT_255_1_388
10
6.1750759
20
92.8571217
11
6.0006879
21
92.8571217
0
LINE
8
DEFAULT_255_1_388
10
5.3365681
20
92.6827337
11
5.3365681
21
92.5553312
0
ARC
8
DEFAULT_255_1_388
10
5.5584993
20
92.4490329
40
0.6202263
50
340.1774904
51
353.7812217
0
ARC
8
DEFAULT_255_1_388
10
5.7352846
20
92.3831893
40
0.4315926
50
311.4560052
51
340.4420756
0
ARC
8
DEFAULT_255_1_388
10
5.7315385
20
92.3956665
40
0.4434573
50
282.4332229
51
310.7514507
0
ARC
8
DEFAULT_255_1_388
10
5.6821203
20
92.5998703
40
0.6535262
50
269.9358869
51
282.8096729
0
ARC
8
DEFAULT_255_1_388
10
5.6763143
20
92.7511329
40
0.8048043
50
269.9995752
51
270.3612856
0
ARC
8
DEFAULT_255_1_388
10
5.6703633
20
92.4712781
40
0.5249831
50
250.7885263
51
270.6488451
0
ARC
8
DEFAULT_255_1_388
10
5.6514457
20
92.3995853
40
0.4510942
50
219.3628377
51
250.0611024
0
ARC
8
DEFAULT_255_1_388
10
5.7447332
20
92.4788653
40
0.5735046
50
193.5480293
51
219.5755675
0
ARC
8
DEFAULT_255_1_388
10
6.011554
20
92.548152
40
0.849146
50
181.1220183
51
193.8754971
0
ARC
8
DEFAULT_255_1_388
10
6.2438774
20
92.5605914
40
1.0816971
50
179.9914644
51
181.5398227
0
ARC
8
DEFAULT_255_1_388
10
6.0362084
20
92.6914586
40
0.8740384
50
169.5837606
51
180.275782
0
ARC
8
DEFAULT_255_1_388
10
5.8295432
20
92.7296439
40
0.6638751
50
155.0367033
51
169.6002779
0
ARC
8
DEFAULT_255_1_388
10
5.7017891
20
92.7912336
40
0.5220662
50
136.7831557
51
155.2472983
0
ARC
8
DEFAULT_255_1_388
10
5.6579681
20
92.8284577
40
0.4646502
50
121.7633063
51
136.4281161
0
ARC
8
DEFAULT_255_1_388
10
5.6731521
20
92.8004049
40
0.4964979
50
95.6460018
51
121.5489589
0
ARC
8
DEFAULT_255_1_388
10
5.6908495
20
92.6756704
40
0.6223912
50
89.9245727
51
96.1375919
0
ARC
8
DEFAULT_255_1_388
10
5.6965201
20
92.6890721
40
0.6090084
50
76.6779212
51
90.456405
0
ARC
8
DEFAULT_255_1_388
10
5.7408013
20
92.868006
40
0.42469
50
47.4858803
51
76.9287069
0
ARC
8
DEFAULT_255_1_388
10
5.7242627
20
92.8567623
40
0.4441778
50
16.5424081
51
46.8934505
0
ARC
8
DEFAULT_255_1_388
10
5.5433677
20
92.7973265
40
0.6345318
50
5.4072971
51
17.0363711
0
ARC
8
DEFAULT_255_1_388
10
5.3815402
20
92.7713304
40
0.6250632
50
7.8888693
51
15.9242022
0
ARC
8
DEFAULT_255_1_388
10
5.6050387
20
92.8362309
40
0.3923364
50
15.7650676
51
27.9410069
0
ARC
8
DEFAULT_255_1_388
10
5.7292557
20
92.9027317
40
0.2514401
50
27.8167196
51
46.4007942
0
ARC
8
DEFAULT_255_1_388
10
5.7348398
20
92.9020882
40
0.2480958
50
47.4372362
51
75.0695672
0
ARC
8
DEFAULT_255_1_388
10
5.7001234
20
92.7812277
40
0.3738281
50
74.7009379
51
87.8124314
0
ARC
8
DEFAULT_255_1_388
10
5.6918851
20
92.6628659
40
0.4924321
50
87.3802571
51
90.0251599
0
ARC
8
DEFAULT_255_1_388
10
5.6875499
20
92.7948997
40
0.3604218
50
89.3451886
51
108.5744412
0
ARC
8
DEFAULT_255_1_388
10
5.6721491
20
92.8526836
40
0.3007661
50
109.2998307
51
143.3037387
0
ARC
8
DEFAULT_255_1_388
10
5.7578781
20
92.7867584
40
0.4089031
50
143.075267
51
163.1918576
0
ARC
8
DEFAULT_255_1_388
10
5.9774615
20
92.7174652
40
0.6391492
50
162.9375929
51
174.6208776
0
ARC
8
DEFAULT_255_1_388
10
6.2728997
20
92.6850711
40
0.9363344
50
174.342123
51
180.1430283
0
ARC
8
DEFAULT_255_1_388
10
6.1681538
20
92.5507117
40
0.8315986
50
179.6817261
51
189.150555
0
ARC
8
DEFAULT_255_1_388
10
5.8868287
20
92.5038559
40
0.5464044
50
188.9911061
51
203.5772363
0
ARC
8
DEFAULT_255_1_388
10
5.7653579
20
92.4534539
40
0.4149206
50
203.9075402
51
215.1312435
0
ARC
8
DEFAULT_255_1_388
10
5.6615376
20
92.3729907
40
0.2837747
50
213.9071511
51
263.8848919
0
ARC
8
DEFAULT_255_1_388
10
5.675637
20
92.4612519
40
0.3730641
50
263.1757928
51
270.1031044
0
ARC
8
DEFAULT_255_1_388
10
5.6792449
20
92.6015511
40
0.5133712
50
269.6722503
51
279.0606936
0
ARC
8
DEFAULT_255_1_388
10
5.7092605
20
92.420115
40
0.3294739
50
278.8749101
51
293.6349581
0
ARC
8
DEFAULT_255_1_388
10
5.7452808
20
92.3355251
40
0.2375405
50
293.8553806
51
310.0518171
0
ARC
8
DEFAULT_255_1_388
10
5.7458317
20
92.3285021
40
0.2318463
50
311.0644687
51
332.0111037
0
ARC
8
DEFAULT_255_1_388
10
5.6116991
20
92.4024702
40
0.3850112
50
331.6586806
51
343.2877423
0
ARC
8
DEFAULT_255_1_388
10
5.3796456
20
92.4737806
40
0.6277712
50
343.1446576
51
351.0103568
0
ARC
8
DEFAULT_255_1_388
10
5.2163779
20
92.5037873
40
0.7937327
50
350.71248
51
351.1626997
0
LINE
8
DEFAULT_255_1_388
10
6.6114975
20
92.5670775
11
6.6114975
21
92.7035157
0
LINE
8
DEFAULT_255_1_388
10
6.6114975
20
92.7035157
11
6.737093
21
92.7035157
0
LINE
8
DEFAULT_255_1_388
10
6.5229482
20
92.9348282
11
6.3557888
21
92.9348282
0
LINE
8
DEFAULT_255_1_388
10
6.3440424
20
92.3113688
11
6.5121054
21
92.3113688
0
LINE
8
DEFAULT_255_1_388
10
6.737093
20
92.5670775
11
6.6114975
21
92.5670775
0
ARC
8
DEFAULT_255_1_388
10
6.7338156
20
93.0851922
40
0.3816905
50
270.491971
51
281.8953028
0
ARC
8
DEFAULT_255_1_388
10
6.7609583
20
92.9612199
40
0.2547877
50
281.6690378
51
301.2943765
0
ARC
8
DEFAULT_255_1_388
10
6.7801034
20
92.9261926
40
0.2149197
50
301.7834992
51
311.754567
0
ARC
8
DEFAULT_255_1_388
10
6.7904076
20
92.914765
40
0.1995326
50
311.7325027
51
354.2803031
0
ARC
8
DEFAULT_255_1_388
10
6.7086492
20
92.928828
40
0.2823461
50
353.0941646
51
0.1174696
0
ARC
8
DEFAULT_255_1_388
10
6.656805
20
92.9341874
40
0.3342238
50
359.1804452
51
15.0452323
0
ARC
8
DEFAULT_255_1_388
10
6.8082108
20
92.9783546
40
0.1765747
50
13.957816
51
77.6713812
0
ARC
8
DEFAULT_255_1_388
10
6.7647344
20
92.8225464
40
0.3381982
50
76.111571
51
90.7028736
0
ARC
8
DEFAULT_255_1_388
10
6.7580756
20
92.853325
40
0.3074046
50
89.5321574
51
103.5319393
0
ARC
8
DEFAULT_255_1_388
10
6.735514
20
92.9432443
40
0.2147041
50
103.2930114
51
133.5619756
0
ARC
8
DEFAULT_255_1_388
10
6.7305081
20
92.9499351
40
0.2064084
50
133.8349761
51
173.5343225
0
ARC
8
DEFAULT_255_1_388
10
6.8118739
20
92.9355144
40
0.2889266
50
172.5097183
51
180.1360699
0
ARC
8
DEFAULT_255_1_388
10
6.7048503
20
92.939388
40
0.3490913
50
155.3483706
51
180.7484035
0
ARC
8
DEFAULT_255_1_388
10
6.6993478
20
92.9361519
40
0.3454798
50
131.5745177
51
154.4799474
0
ARC
8
DEFAULT_255_1_388
10
6.7345761
20
92.9005422
40
0.3955058
50
96.9874487
51
131.9690874
0
ARC
8
DEFAULT_255_1_388
10
6.7592653
20
92.7604407
40
0.537622
50
89.8592909
51
97.7827481
0
ARC
8
DEFAULT_255_1_388
10
6.7646762
20
92.730936
40
0.5671399
50
78.3654493
51
90.4132586
0
ARC
8
DEFAULT_255_1_388
10
6.8049403
20
92.9175918
40
0.3762034
50
56.6229818
51
78.6387103
0
ARC
8
DEFAULT_255_1_388
10
6.8291233
20
92.9598846
40
0.3275964
50
47.0254604
51
56.085558
0
ARC
8
DEFAULT_255_1_388
10
6.8313484
20
92.9643189
40
0.3228382
50
10.9207523
51
46.777927
0
ARC
8
DEFAULT_255_1_388
10
6.6779078
20
92.9288401
40
0.4802559
50
359.6364235
51
11.6087615
0
ARC
8
DEFAULT_255_1_388
10
6.8843243
20
92.9271404
40
0.273833
50
332.3549969
51
359.7179765
0
ARC
8
DEFAULT_255_1_388
10
6.8111644
20
92.9618285
40
0.3547505
50
325.2332381
51
332.8746682
0
ARC
8
DEFAULT_255_1_388
10
6.8283227
20
92.9498763
40
0.3338396
50
292.9803892
51
325.2391113
0
ARC
8
DEFAULT_255_1_388
10
6.7972423
20
93.0103679
40
0.4016959
50
292.542178
51
293.6931461
0
ARC
8
DEFAULT_255_1_388
10
6.8415995
20
92.2838036
40
0.372079
50
57.643292
51
72.8626085
0
ARC
8
DEFAULT_255_1_388
10
6.8814829
20
92.3484273
40
0.2961455
50
36.7246661
51
57.4701329
0
ARC
8
DEFAULT_255_1_388
10
6.8801986
20
92.349847
40
0.2963321
50
8.054535
51
36.3561529
0
ARC
8
DEFAULT_255_1_388
10
6.7831658
20
92.3324073
40
0.3948682
50
359.8316595
51
8.5873361
0
ARC
8
DEFAULT_255_1_388
10
6.7409133
20
92.326997
40
0.4371398
50
343.9831631
51
0.557075
0
ARC
8
DEFAULT_255_1_388
10
6.8406182
20
92.2996963
40
0.3337749
50
311.6358204
51
343.7652116
0
ARC
8
DEFAULT_255_1_388
10
6.7980436
20
92.3476955
40
0.3979351
50
279.7829743
51
311.625622
0
ARC
8
DEFAULT_255_1_388
10
6.7641571
20
92.5093642
40
0.5630417
50
269.7285092
51
280.3857694
0
ARC
8
DEFAULT_255_1_388
10
6.7571884
20
92.5047241
40
0.5584119
50
256.6827433
51
270.4412869
0
ARC
8
DEFAULT_255_1_388
10
6.7190871
20
92.3489698
40
0.3980715
50
229.4223821
51
256.8554507
0
ARC
8
DEFAULT_255_1_388
10
6.6724424
20
92.2964683
40
0.3278564
50
181.8183354
51
229.6455015
0
ARC
8
DEFAULT_255_1_388
10
6.7894034
20
92.3111825
40
0.4453611
50
179.9760419
51
183.2330638
0
ARC
8
DEFAULT_255_1_388
10
6.7700586
20
92.3088781
40
0.2579652
50
179.4467996
51
196.2871626
0
ARC
8
DEFAULT_255_1_388
10
6.715204
20
92.2938709
40
0.2011057
50
196.5661293
51
227.7059371
0
ARC
8
DEFAULT_255_1_388
10
6.7336647
20
92.3145155
40
0.2287994
50
227.7653015
51
257.8763321
0
ARC
8
DEFAULT_255_1_388
10
6.758973
20
92.4205961
40
0.3378385
50
257.4583525
51
270.4267406
0
ARC
8
DEFAULT_255_1_388
10
6.7640979
20
92.453223
40
0.3704652
50
269.5965319
51
280.8788143
0
ARC
8
DEFAULT_255_1_388
10
6.7899208
20
92.3242529
40
0.2389415
50
280.6347277
51
299.8594068
0
ARC
8
DEFAULT_255_1_388
10
6.8113977
20
92.2834736
40
0.19289
50
300.3575552
51
314.5515667
0
ARC
8
DEFAULT_255_1_388
10
6.8020653
20
92.2903025
40
0.204312
50
315.0730962
51
345.0429362
0
ARC
8
DEFAULT_255_1_388
10
6.698216
20
92.3205539
40
0.31246
50
344.598526
51
357.9270698
0
ARC
8
DEFAULT_255_1_388
10
6.5972465
20
92.3274705
40
0.4136265
50
357.4755098
51
0.0224936
0
ARC
8
DEFAULT_255_1_388
10
6.7125343
20
92.3302099
40
0.2983498
50
359.5051035
51
13.4236939
0
ARC
8
DEFAULT_255_1_388
10
6.8100433
20
92.3551637
40
0.1977186
50
12.9497905
51
48.7550905
0
ARC
8
DEFAULT_255_1_388
10
6.7895355
20
92.3271373
40
0.2323321
50
49.509109
51
72.1832965
0
ARC
8
DEFAULT_255_1_388
10
6.7492823
20
92.2076632
40
0.358397
50
71.9008458
51
84.3555134
0
ARC
8
DEFAULT_255_1_388
10
6.7311218
20
92.0544712
40
0.512641
50
84.019632
51
89.3326067
0
LINE
8
DEFAULT_255_1_388
10
7.9035947
20
93.0540987
11
7.9035947
21
92.6700838
0
LINE
8
DEFAULT_255_1_388
10
7.9035947
20
92.6700838
11
8.2704418
21
92.6700838
0
LINE
8
DEFAULT_255_1_388
10
8.2704418
20
92.6700838
11
8.2704418
21
92.5119601
0
LINE
8
DEFAULT_255_1_388
10
8.2704418
20
92.5119601
11
7.9035947
21
92.5119601
0
LINE
8
DEFAULT_255_1_388
10
7.9035947
20
92.5119601
11
7.9035947
21
92.0963204
0
LINE
8
DEFAULT_255_1_388
10
7.9035947
20
92.0963204
11
7.7355317
21
92.0963204
0
LINE
8
DEFAULT_255_1_388
10
7.7355317
20
92.0963204
11
7.7355317
21
92.5119601
0
LINE
8
DEFAULT_255_1_388
10
7.7355317
20
92.5119601
11
7.3686845
21
92.5119601
0
LINE
8
DEFAULT_255_1_388
10
7.3686845
20
92.5119601
11
7.3686845
21
92.6700838
0
LINE
8
DEFAULT_255_1_388
10
7.3686845
20
92.6700838
11
7.7355317
21
92.6700838
0
LINE
8
DEFAULT_255_1_388
10
7.7355317
20
92.6700838
11
7.7355317
21
93.0540987
0
LINE
8
DEFAULT_255_1_388
10
7.7355317
20
93.0540987
11
7.9035947
21
93.0540987
0
LINE
8
DEFAULT_255_1_388
10
5.1738882
20
101.2174898
11
5.1738882
21
101.0747267
0
LINE
8
DEFAULT_255_1_388
10
5.1738882
20
101.0747267
11
4.7510201
21
101.0747267
0
LINE
8
DEFAULT_255_1_388
10
4.7510201
20
101.0747267
11
4.7510201
21
99.9019
0
LINE
8
DEFAULT_255_1_388
10
4.7510201
20
99.9019
11
4.5784393
21
99.9019
0
LINE
8
DEFAULT_255_1_388
10
4.5784393
20
99.9019
11
4.5784393
21
101.0747267
0
LINE
8
DEFAULT_255_1_388
10
4.5784393
20
101.0747267
11
4.1564747
21
101.0747267
0
LINE
8
DEFAULT_255_1_388
10
4.1564747
20
101.0747267
11
4.1564747
21
101.2174898
0
LINE
8
DEFAULT_255_1_388
10
4.1564747
20
101.2174898
11
5.1738882
21
101.2174898
0
LINE
8
DEFAULT_255_1_388
10
6.1370879
20
100.3193468
11
6.3114759
21
100.3193468
0
LINE
8
DEFAULT_255_1_388
10
5.2985801
20
100.4982525
11
5.2985801
21
100.6247516
0
LINE
8
DEFAULT_255_1_388
10
6.3114759
20
100.7946217
11
6.1370879
21
100.7946217
0
LINE
8
DEFAULT_255_1_388
10
5.4729681
20
100.6202337
11
5.4729681
21
100.4928312
0
ARC
8
DEFAULT_255_1_388
10
5.6948993
20
100.3865329
40
0.6202263
50
340.1774904
51
353.7812217
0
ARC
8
DEFAULT_255_1_388
10
5.8716846
20
100.3206893
40
0.4315926
50
311.4560052
51
340.4420756
0
ARC
8
DEFAULT_255_1_388
10
5.8679385
20
100.3331665
40
0.4434573
50
282.4332229
51
310.7514507
0
ARC
8
DEFAULT_255_1_388
10
5.8185203
20
100.5373703
40
0.6535262
50
269.9358869
51
282.8096729
0
ARC
8
DEFAULT_255_1_388
10
5.8127143
20
100.6886329
40
0.8048043
50
269.9995752
51
270.3612856
0
ARC
8
DEFAULT_255_1_388
10
5.8067633
20
100.4087781
40
0.5249831
50
250.7885263
51
270.6488451
0
ARC
8
DEFAULT_255_1_388
10
5.7878457
20
100.3370853
40
0.4510942
50
219.3628377
51
250.0611024
0
ARC
8
DEFAULT_255_1_388
10
5.8811332
20
100.4163653
40
0.5735046
50
193.5480293
51
219.5755675
0
ARC
8
DEFAULT_255_1_388
10
6.147954
20
100.485652
40
0.849146
50
181.1220183
51
193.8754971
0
ARC
8
DEFAULT_255_1_388
10
6.3802774
20
100.4980914
40
1.0816971
50
179.9914644
51
181.5398227
0
ARC
8
DEFAULT_255_1_388
10
6.1726084
20
100.6289586
40
0.8740384
50
169.5837606
51
180.275782
0
ARC
8
DEFAULT_255_1_388
10
5.9659432
20
100.6671439
40
0.6638751
50
155.0367033
51
169.6002779
0
ARC
8
DEFAULT_255_1_388
10
5.8381891
20
100.7287336
40
0.5220662
50
136.7831557
51
155.2472983
0
ARC
8
DEFAULT_255_1_388
10
5.7943681
20
100.7659577
40
0.4646502
50
121.7633063
51
136.4281161
0
ARC
8
DEFAULT_255_1_388
10
5.8095521
20
100.7379049
40
0.4964979
50
95.6460018
51
121.5489589
0
ARC
8
DEFAULT_255_1_388
10
5.8272495
20
100.6131704
40
0.6223912
50
89.9245727
51
96.1375919
0
ARC
8
DEFAULT_255_1_388
10
5.8329201
20
100.6265721
40
0.6090084
50
76.6779212
51
90.456405
0
ARC
8
DEFAULT_255_1_388
10
5.8772013
20
100.805506
40
0.42469
50
47.4858803
51
76.9287069
0
ARC
8
DEFAULT_255_1_388
10
5.8606627
20
100.7942623
40
0.4441778
50
16.5424081
51
46.8934505
0
ARC
8
DEFAULT_255_1_388
10
5.6797677
20
100.7348265
40
0.6345318
50
5.4072971
51
17.0363711
0
ARC
8
DEFAULT_255_1_388
10
5.5179402
20
100.7088304
40
0.6250632
50
7.8888693
51
15.9242022
0
ARC
8
DEFAULT_255_1_388
10
5.7414387
20
100.7737309
40
0.3923364
50
15.7650676
51
27.9410069
0
ARC
8
DEFAULT_255_1_388
10
5.8656557
20
100.8402317
40
0.2514401
50
27.8167196
51
46.4007942
0
ARC
8
DEFAULT_255_1_388
10
5.8712398
20
100.8395882
40
0.2480958
50
47.4372362
51
75.0695672
0
ARC
8
DEFAULT_255_1_388
10
5.8365234
20
100.7187277
40
0.3738281
50
74.7009379
51
87.8124314
0
ARC
8
DEFAULT_255_1_388
10
5.8282851
20
100.6003659
40
0.4924321
50
87.3802571
51
90.0251599
0
ARC
8
DEFAULT_255_1_388
10
5.8239499
20
100.7323997
40
0.3604218
50
89.3451886
51
108.5744412
0
ARC
8
DEFAULT_255_1_388
10
5.8085491
20
100.7901836
40
0.3007661
50
109.2998307
51
143.3037387
0
ARC
8
DEFAULT_255_1_388
10
5.8942781
20
100.7242584
40
0.4089031
50
143.075267
51
163.1918576
0
ARC
8
DEFAULT_255_1_388
10
6.1138615
20
100.6549652
40
0.6391492
50
162.9375929
51
174.6208776
0
ARC
8
DEFAULT_255_1_388
10
6.4092997
20
100.6225711
40
0.9363344
50
174.342123
51
180.1430283
0
ARC
8
DEFAULT_255_1_388
10
6.3045538
20
100.4882117
40
0.8315986
50
179.6817261
51
189.150555
0
ARC
8
DEFAULT_255_1_388
10
6.0232287
20
100.4413559
40
0.5464044
50
188.9911061
51
203.5772363
0
ARC
8
DEFAULT_255_1_388
10
5.9017579
20
100.3909539
40
0.4149206
50
203.9075402
51
215.1312435
0
ARC
8
DEFAULT_255_1_388
10
5.7979376
20
100.3104907
40
0.2837747
50
213.9071511
51
263.8848919
0
ARC
8
DEFAULT_255_1_388
10
5.812037
20
100.3987519
40
0.3730641
50
263.1757928
51
270.1031044
0
ARC
8
DEFAULT_255_1_388
10
5.8156449
20
100.5390511
40
0.5133712
50
269.6722503
51
279.0606936
0
ARC
8
DEFAULT_255_1_388
10
5.8456605
20
100.357615
40
0.3294739
50
278.8749101
51
293.6349581
0
ARC
8
DEFAULT_255_1_388
10
5.8816808
20
100.2730251
40
0.2375405
50
293.8553806
51
310.0518171
0
ARC
8
DEFAULT_255_1_388
10
5.8822317
20
100.2660021
40
0.2318463
50
311.0644687
51
332.0111037
0
ARC
8
DEFAULT_255_1_388
10
5.7480991
20
100.3399702
40
0.3850112
50
331.6586806
51
343.2877423
0
ARC
8
DEFAULT_255_1_388
10
5.5160456
20
100.4112806
40
0.6277712
50
343.1446576
51
351.0103568
0
ARC
8
DEFAULT_255_1_388
10
5.3527779
20
100.4412873
40
0.7937327
50
350.71248
51
351.1626997
0
LINE
8
DEFAULT_255_1_388
10
7.3668392
20
100.0383382
11
7.3668392
21
99.9019
0
LINE
8
DEFAULT_255_1_388
10
7.3668392
20
99.9019
11
6.5048387
21
99.9019
0
LINE
8
DEFAULT_255_1_388
10
6.5048387
20
99.9019
11
6.5048387
21
100.0220741
0
LINE
8
DEFAULT_255_1_388
10
6.5048387
20
100.0220741
11
6.9602352
21
100.5280702
0
LINE
8
DEFAULT_255_1_388
10
6.6466983
20
100.8298607
11
6.4795389
21
100.8298607
0
LINE
8
DEFAULT_255_1_388
10
7.0587237
20
100.420546
11
6.7063335
21
100.0383382
0
LINE
8
DEFAULT_255_1_388
10
6.7063335
20
100.0383382
11
7.3668392
21
100.0383382
0
ARC
8
DEFAULT_255_1_388
10
5.4426411
20
101.8700983
40
2.0258655
50
318.5132526
51
320.7829045
0
ARC
8
DEFAULT_255_1_388
10
6.0374368
20
101.3859929
40
1.2589638
50
320.7372878
51
323.9739031
0
ARC
8
DEFAULT_255_1_388
10
6.47833
20
101.0665554
40
0.7145141
50
323.8962701
51
328.64194
0
ARC
8
DEFAULT_255_1_388
10
6.7085557
20
100.9245545
40
0.4440242
50
328.8294576
51
331.7891185
0
ARC
8
DEFAULT_255_1_388
10
6.8207877
20
100.8666374
40
0.3177517
50
331.4254512
51
352.9365785
0
ARC
8
DEFAULT_255_1_388
10
6.8360877
20
100.863205
40
0.3021496
50
353.2257659
51
0.0166158
0
ARC
8
DEFAULT_255_1_388
10
6.8597638
20
100.8657894
40
0.2784847
50
359.486299
51
15.9343185
0
ARC
8
DEFAULT_255_1_388
10
6.9167905
20
100.8811269
40
0.2194403
50
16.1712913
51
43.5286088
0
ARC
8
DEFAULT_255_1_388
10
6.9254849
20
100.8898191
40
0.2071504
50
43.4417391
51
83.1661095
0
ARC
8
DEFAULT_255_1_388
10
6.910401
20
100.8069316
40
0.2912888
50
82.160179
51
90.1505708
0
ARC
8
DEFAULT_255_1_388
10
6.9068492
20
100.7465279
40
0.3517025
50
89.5460741
51
102.5418361
0
ARC
8
DEFAULT_255_1_388
10
6.8795212
20
100.8624933
40
0.2325748
50
102.1738499
51
129.206123
0
ARC
8
DEFAULT_255_1_388
10
6.8706665
20
100.8764664
40
0.2161591
50
129.72865
51
135.753947
0
ARC
8
DEFAULT_255_1_388
10
6.8843148
20
100.8655728
40
0.2335433
50
136.1757367
51
166.3673339
0
ARC
8
DEFAULT_255_1_388
10
6.9975836
20
100.8352148
40
0.3507873
50
165.9090694
51
178.8684636
0
ARC
8
DEFAULT_255_1_388
10
7.0951607
20
100.8299263
40
0.4484624
50
178.4391136
51
180.0083808
0
ARC
8
DEFAULT_255_1_388
10
6.9372309
20
100.8343197
40
0.4577138
50
163.2878482
51
180.5581842
0
ARC
8
DEFAULT_255_1_388
10
6.847035
20
100.8591393
40
0.3641968
50
133.4540601
51
162.947111
0
ARC
8
DEFAULT_255_1_388
10
6.8671232
20
100.8377789
40
0.3935189
50
100.7869829
51
133.4382499
0
ARC
8
DEFAULT_255_1_388
10
6.9062477
20
100.6635399
40
0.5720313
50
89.660664
51
101.3702276
0
ARC
8
DEFAULT_255_1_388
10
6.9137086
20
100.6704263
40
0.5651495
50
78.2172678
51
90.412935
0
ARC
8
DEFAULT_255_1_388
10
6.9536552
20
100.8531511
40
0.378122
50
55.9269121
51
78.4888449
0
ARC
8
DEFAULT_255_1_388
10
6.9757267
20
100.8912187
40
0.3342379
50
47.929771
51
55.4049217
0
ARC
8
DEFAULT_255_1_388
10
6.9871797
20
100.9028618
40
0.3179217
50
4.334829
51
48.0560205
0
ARC
8
DEFAULT_255_1_388
10
6.8639599
20
100.8837487
40
0.442341
50
359.9251713
51
5.5971671
0
ARC
8
DEFAULT_255_1_388
10
6.9121753
20
100.8900728
40
0.3941854
50
337.8914027
51
358.9967534
0
ARC
8
DEFAULT_255_1_388
10
6.6069324
20
101.0078295
40
0.7213271
50
326.9132501
51
338.3508308
0
ARC
8
DEFAULT_255_1_388
10
6.1585435
20
101.2952105
40
1.2538973
50
319.6471833
51
327.0959558
0
ARC
8
DEFAULT_255_1_388
10
5.7272094
20
101.651005
40
1.8129975
50
317.2588228
51
319.9045804
0
LINE
8
DEFAULT_255_1_388
10
7.9089778
20
100.5289737
11
7.9089778
21
100.3925355
0
LINE
8
DEFAULT_255_1_388
10
7.9089778
20
100.3925355
11
7.4680384
21
100.3925355
0
LINE
8
DEFAULT_255_1_388
10
7.4680384
20
100.3925355
11
7.4680384
21
100.5289737
0
LINE
8
DEFAULT_255_1_388
10
7.4680384
20
100.5289737
11
7.9089778
21
100.5289737
0
LINE
8
DEFAULT_255_1_388
10
5.0374882
20
109.1549898
11
5.0374882
21
109.0122267
0
LINE
8
DEFAULT_255_1_388
10
5.0374882
20
109.0122267
11
4.6146201
21
109.0122267
0
LINE
8
DEFAULT_255_1_388
10
4.6146201
20
109.0122267
11
4.6146201
21
107.8394
0
LINE
8
DEFAULT_255_1_388
10
4.6146201
20
107.8394
11
4.4420393
21
107.8394
0
LINE
8
DEFAULT_255_1_388
10
4.4420393
20
107.8394
11
4.4420393
21
109.0122267
0
LINE
8
DEFAULT_255_1_388
10
4.4420393
20
109.0122267
11
4.0200747
21
109.0122267
0
LINE
8
DEFAULT_255_1_388
10
4.0200747
20
109.0122267
11
4.0200747
21
109.1549898
0
LINE
8
DEFAULT_255_1_388
10
4.0200747
20
109.1549898
11
5.0374882
21
109.1549898
0
LINE
8
DEFAULT_255_1_388
10
6.0006879
20
108.2568468
11
6.1750759
21
108.2568468
0
LINE
8
DEFAULT_255_1_388
10
5.1621801
20
108.4357525
11
5.1621801
21
108.5622516
0
LINE
8
DEFAULT_255_1_388
10
6.1750759
20
108.7321217
11
6.0006879
21
108.7321217
0
LINE
8
DEFAULT_255_1_388
10
5.3365681
20
108.5577337
11
5.3365681
21
108.4303312
0
ARC
8
DEFAULT_255_1_388
10
5.5584993
20
108.3240329
40
0.6202263
50
340.1774904
51
353.7812217
0
ARC
8
DEFAULT_255_1_388
10
5.7352846
20
108.2581893
40
0.4315926
50
311.4560052
51
340.4420756
0
ARC
8
DEFAULT_255_1_388
10
5.7315385
20
108.2706665
40
0.4434573
50
282.4332229
51
310.7514507
0
ARC
8
DEFAULT_255_1_388
10
5.6821203
20
108.4748703
40
0.6535262
50
269.9358869
51
282.8096729
0
ARC
8
DEFAULT_255_1_388
10
5.6763143
20
108.6261329
40
0.8048043
50
269.9995752
51
270.3612856
0
ARC
8
DEFAULT_255_1_388
10
5.6703633
20
108.3462781
40
0.5249831
50
250.7885263
51
270.6488451
0
ARC
8
DEFAULT_255_1_388
10
5.6514457
20
108.2745853
40
0.4510942
50
219.3628377
51
250.0611024
0
ARC
8
DEFAULT_255_1_388
10
5.7447332
20
108.3538653
40
0.5735046
50
193.5480293
51
219.5755675
0
ARC
8
DEFAULT_255_1_388
10
6.011554
20
108.423152
40
0.849146
50
181.1220183
51
193.8754971
0
ARC
8
DEFAULT_255_1_388
10
6.2438774
20
108.4355914
40
1.0816971
50
179.9914644
51
181.5398227
0
ARC
8
DEFAULT_255_1_388
10
6.0362084
20
108.5664586
40
0.8740384
50
169.5837606
51
180.275782
0
ARC
8
DEFAULT_255_1_388
10
5.8295432
20
108.6046439
40
0.6638751
50
155.0367033
51
169.6002779
0
ARC
8
DEFAULT_255_1_388
10
5.7017891
20
108.6662336
40
0.5220662
50
136.7831557
51
155.2472983
0
ARC
8
DEFAULT_255_1_388
10
5.6579681
20
108.7034577
40
0.4646502
50
121.7633063
51
136.4281161
0
ARC
8
DEFAULT_255_1_388
10
5.6731521
20
108.6754049
40
0.4964979
50
95.6460018
51
121.5489589
0
ARC
8
DEFAULT_255_1_388
10
5.6908495
20
108.5506704
40
0.6223912
50
89.9245727
51
96.1375919
0
ARC
8
DEFAULT_255_1_388
10
5.6965201
20
108.5640721
40
0.6090084
50
76.6779212
51
90.456405
0
ARC
8
DEFAULT_255_1_388
10
5.7408013
20
108.743006
40
0.42469
50
47.4858803
51
76.9287069
0
ARC
8
DEFAULT_255_1_388
10
5.7242627
20
108.7317623
40
0.4441778
50
16.5424081
51
46.8934505
0
ARC
8
DEFAULT_255_1_388
10
5.5433677
20
108.6723265
40
0.6345318
50
5.4072971
51
17.0363711
0
ARC
8
DEFAULT_255_1_388
10
5.3815402
20
108.6463304
40
0.6250632
50
7.8888693
51
15.9242022
0
ARC
8
DEFAULT_255_1_388
10
5.6050387
20
108.7112309
40
0.3923364
50
15.7650676
51
27.9410069
0
ARC
8
DEFAULT_255_1_388
10
5.7292557
20
108.7777317
40
0.2514401
50
27.8167196
51
46.4007942
0
ARC
8
DEFAULT_255_1_388
10
5.7348398
20
108.7770882
40
0.2480958
50
47.4372362
51
75.0695672
0
ARC
8
DEFAULT_255_1_388
10
5.7001234
20
108.6562277
40
0.3738281
50
74.7009379
51
87.8124314
0
ARC
8
DEFAULT_255_1_388
10
5.6918851
20
108.5378659
40
0.4924321
50
87.3802571
51
90.0251599
0
ARC
8
DEFAULT_255_1_388
10
5.6875499
20
108.6698997
40
0.3604218
50
89.3451886
51
108.5744412
0
ARC
8
DEFAULT_255_1_388
10
5.6721491
20
108.7276836
40
0.3007661
50
109.2998307
51
143.3037387
0
ARC
8
DEFAULT_255_1_388
10
5.7578781
20
108.6617584
40
0.4089031
50
143.075267
51
163.1918576
0
ARC
8
DEFAULT_255_1_388
10
5.9774615
20
108.5924652
40
0.6391492
50
162.9375929
51
174.6208776
0
ARC
8
DEFAULT_255_1_388
10
6.2728997
20
108.5600711
40
0.9363344
50
174.342123
51
180.1430283
0
ARC
8
DEFAULT_255_1_388
10
6.1681538
20
108.4257117
40
0.8315986
50
179.6817261
51
189.150555
0
ARC
8
DEFAULT_255_1_388
10
5.8868287
20
108.3788559
40
0.5464044
50
188.9911061
51
203.5772363
0
ARC
8
DEFAULT_255_1_388
10
5.7653579
20
108.3284539
40
0.4149206
50
203.9075402
51
215.1312435
0
ARC
8
DEFAULT_255_1_388
10
5.6615376
20
108.2479907
40
0.2837747
50
213.9071511
51
263.8848919
0
ARC
8
DEFAULT_255_1_388
10
5.675637
20
108.3362519
40
0.3730641
50
263.1757928
51
270.1031044
0
ARC
8
DEFAULT_255_1_388
10
5.6792449
20
108.4765511
40
0.5133712
50
269.6722503
51
279.0606936
0
ARC
8
DEFAULT_255_1_388
10
5.7092605
20
108.295115
40
0.3294739
50
278.8749101
51
293.6349581
0
ARC
8
DEFAULT_255_1_388
10
5.7452808
20
108.2105251
40
0.2375405
50
293.8553806
51
310.0518171
0
ARC
8
DEFAULT_255_1_388
10
5.7458317
20
108.2035021
40
0.2318463
50
311.0644687
51
332.0111037
0
ARC
8
DEFAULT_255_1_388
10
5.6116991
20
108.2774702
40
0.3850112
50
331.6586806
51
343.2877423
0
ARC
8
DEFAULT_255_1_388
10
5.3796456
20
108.3487806
40
0.6277712
50
343.1446576
51
351.0103568
0
ARC
8
DEFAULT_255_1_388
10
5.2163779
20
108.3787873
40
0.7937327
50
350.71248
51
351.1626997
0
LINE
8
DEFAULT_255_1_388
10
7.2304392
20
107.9758382
11
7.2304392
21
107.8394
0
LINE
8
DEFAULT_255_1_388
10
7.2304392
20
107.8394
11
6.3684387
21
107.8394
0
LINE
8
DEFAULT_255_1_388
10
6.3684387
20
107.8394
11
6.3684387
21
107.9595741
0
LINE
8
DEFAULT_255_1_388
10
6.3684387
20
107.9595741
11
6.8238352
21
108.4655702
0
LINE
8
DEFAULT_255_1_388
10
6.5102983
20
108.7673607
11
6.3431389
21
108.7673607
0
LINE
8
DEFAULT_255_1_388
10
6.9223237
20
108.358046
11
6.5699335
21
107.9758382
0
LINE
8
DEFAULT_255_1_388
10
6.5699335
20
107.9758382
11
7.2304392
21
107.9758382
0
ARC
8
DEFAULT_255_1_388
10
5.3062411
20
109.8075983
40
2.0258655
50
318.5132526
51
320.7829045
0
ARC
8
DEFAULT_255_1_388
10
5.9010368
20
109.3234929
40
1.2589638
50
320.7372878
51
323.9739031
0
ARC
8
DEFAULT_255_1_388
10
6.34193
20
109.0040554
40
0.7145141
50
323.8962701
51
328.64194
0
ARC
8
DEFAULT_255_1_388
10
6.5721557
20
108.8620545
40
0.4440242
50
328.8294576
51
331.7891185
0
ARC
8
DEFAULT_255_1_388
10
6.6843877
20
108.8041374
40
0.3177517
50
331.4254512
51
352.9365785
0
ARC
8
DEFAULT_255_1_388
10
6.6996877
20
108.800705
40
0.3021496
50
353.2257659
51
0.0166158
0
ARC
8
DEFAULT_255_1_388
10
6.7233638
20
108.8032894
40
0.2784847
50
359.486299
51
15.9343185
0
ARC
8
DEFAULT_255_1_388
10
6.7803905
20
108.8186269
40
0.2194403
50
16.1712913
51
43.5286088
0
ARC
8
DEFAULT_255_1_388
10
6.7890849
20
108.8273191
40
0.2071504
50
43.4417391
51
83.1661095
0
ARC
8
DEFAULT_255_1_388
10
6.774001
20
108.7444316
40
0.2912888
50
82.160179
51
90.1505708
0
ARC
8
DEFAULT_255_1_388
10
6.7704492
20
108.6840279
40
0.3517025
50
89.5460741
51
102.5418361
0
ARC
8
DEFAULT_255_1_388
10
6.7431212
20
108.7999933
40
0.2325748
50
102.1738499
51
129.206123
0
ARC
8
DEFAULT_255_1_388
10
6.7342665
20
108.8139664
40
0.2161591
50
129.72865
51
135.753947
0
ARC
8
DEFAULT_255_1_388
10
6.7479148
20
108.8030728
40
0.2335433
50
136.1757367
51
166.3673339
0
ARC
8
DEFAULT_255_1_388
10
6.8611836
20
108.7727148
40
0.3507873
50
165.9090694
51
178.8684636
0
ARC
8
DEFAULT_255_1_388
10
6.9587607
20
108.7674263
40
0.4484624
50
178.4391136
51
180.0083808
0
ARC
8
DEFAULT_255_1_388
10
6.8008309
20
108.7718197
40
0.4577138
50
163.2878482
51
180.5581842
0
ARC
8
DEFAULT_255_1_388
10
6.710635
20
108.7966393
40
0.3641968
50
133.4540601
51
162.947111
0
ARC
8
DEFAULT_255_1_388
10
6.7307232
20
108.7752789
40
0.3935189
50
100.7869829
51
133.4382499
0
ARC
8
DEFAULT_255_1_388
10
6.7698477
20
108.6010399
40
0.5720313
50
89.660664
51
101.3702276
0
ARC
8
DEFAULT_255_1_388
10
6.7773086
20
108.6079263
40
0.5651495
50
78.2172678
51
90.412935
0
ARC
8
DEFAULT_255_1_388
10
6.8172552
20
108.7906511
40
0.378122
50
55.9269121
51
78.4888449
0
ARC
8
DEFAULT_255_1_388
10
6.8393267
20
108.8287187
40
0.3342379
50
47.929771
51
55.4049217
0
ARC
8
DEFAULT_255_1_388
10
6.8507797
20
108.8403618
40
0.3179217
50
4.334829
51
48.0560205
0
ARC
8
DEFAULT_255_1_388
10
6.7275599
20
108.8212487
40
0.442341
50
359.9251713
51
5.5971671
0
ARC
8
DEFAULT_255_1_388
10
6.7757753
20
108.8275728
40
0.3941854
50
337.8914027
51
358.9967534
0
ARC
8
DEFAULT_255_1_388
10
6.4705324
20
108.9453295
40
0.7213271
50
326.9132501
51
338.3508308
0
ARC
8
DEFAULT_255_1_388
10
6.0221435
20
109.2327105
40
1.2538973
50
319.6471833
51
327.0959558
0
ARC
8
DEFAULT_255_1_388
10
5.5908094
20
109.588505
40
1.8129975
50
317.2588228
51
319.9045804
0
LINE
8
DEFAULT_255_1_388
10
7.9035947
20
108.9290987
11
7.9035947
21
108.5450838
0
LINE
8
DEFAULT_255_1_388
10
7.9035947
20
108.5450838
11
8.2704418
21
108.5450838
0
LINE
8
DEFAULT_255_1_388
10
8.2704418
20
108.5450838
11
8.2704418
21
108.3869601
0
LINE
8
DEFAULT_255_1_388
10
8.2704418
20
108.3869601
11
7.9035947
21
108.3869601
0
LINE
8
DEFAULT_255_1_388
10
7.9035947
20
108.3869601
11
7.9035947
21
107.9713204
0
LINE
8
DEFAULT_255_1_388
10
7.9035947
20
107.9713204
11
7.7355317
21
107.9713204
0
LINE
8
DEFAULT_255_1_388
10
7.7355317
20
107.9713204
11
7.7355317
21
108.3869601
0
LINE
8
DEFAULT_255_1_388
10
7.7355317
20
108.3869601
11
7.3686845
21
108.3869601
0
LINE
8
DEFAULT_255_1_388
10
7.3686845
20
108.3869601
11
7.3686845
21
108.5450838
0
LINE
8
DEFAULT_255_1_388
10
7.3686845
20
108.5450838
11
7.7355317
21
108.5450838
0
LINE
8
DEFAULT_255_1_388
10
7.7355317
20
108.5450838
11
7.7355317
21
108.9290987
0
LINE
8
DEFAULT_255_1_388
10
7.7355317
20
108.9290987
11
7.9035947
21
108.9290987
0
LINE
8
DEFAULT_255_1_388
10
5.1738882
20
117.0924898
11
5.1738882
21
116.9497267
0
LINE
8
DEFAULT_255_1_388
10
5.1738882
20
116.9497267
11
4.7510201
21
116.9497267
0
LINE
8
DEFAULT_255_1_388
10
4.7510201
20
116.9497267
11
4.7510201
21
115.7769
0
LINE
8
DEFAULT_255_1_388
10
4.7510201
20
115.7769
11
4.5784393
21
115.7769
0
LINE
8
DEFAULT_255_1_388
10
4.5784393
20
115.7769
11
4.5784393
21
116.9497267
0
LINE
8
DEFAULT_255_1_388
10
4.5784393
20
116.9497267
11
4.1564747
21
116.9497267
0
LINE
8
DEFAULT_255_1_388
10
4.1564747
20
116.9497267
11
4.1564747
21
117.0924898
0
LINE
8
DEFAULT_255_1_388
10
4.1564747
20
117.0924898
11
5.1738882
21
117.0924898
0
LINE
8
DEFAULT_255_1_388
10
6.1370879
20
116.1943468
11
6.3114759
21
116.1943468
0
LINE
8
DEFAULT_255_1_388
10
5.2985801
20
116.3732525
11
5.2985801
21
116.4997516
0
LINE
8
DEFAULT_255_1_388
10
6.3114759
20
116.6696217
11
6.1370879
21
116.6696217
0
LINE
8
DEFAULT_255_1_388
10
5.4729681
20
116.4952337
11
5.4729681
21
116.3678312
0
ARC
8
DEFAULT_255_1_388
10
5.6948993
20
116.2615329
40
0.6202263
50
340.1774904
51
353.7812217
0
ARC
8
DEFAULT_255_1_388
10
5.8716846
20
116.1956893
40
0.4315926
50
311.4560052
51
340.4420756
0
ARC
8
DEFAULT_255_1_388
10
5.8679385
20
116.2081665
40
0.4434573
50
282.4332229
51
310.7514507
0
ARC
8
DEFAULT_255_1_388
10
5.8185203
20
116.4123703
40
0.6535262
50
269.9358869
51
282.8096729
0
ARC
8
DEFAULT_255_1_388
10
5.8127143
20
116.5636329
40
0.8048043
50
269.9995752
51
270.3612856
0
ARC
8
DEFAULT_255_1_388
10
5.8067633
20
116.2837781
40
0.5249831
50
250.7885263
51
270.6488451
0
ARC
8
DEFAULT_255_1_388
10
5.7878457
20
116.2120853
40
0.4510942
50
219.3628377
51
250.0611024
0
ARC
8
DEFAULT_255_1_388
10
5.8811332
20
116.2913653
40
0.5735046
50
193.5480293
51
219.5755675
0
ARC
8
DEFAULT_255_1_388
10
6.147954
20
116.360652
40
0.849146
50
181.1220183
51
193.8754971
0
ARC
8
DEFAULT_255_1_388
10
6.3802774
20
116.3730914
40
1.0816971
50
179.9914644
51
181.5398227
0
ARC
8
DEFAULT_255_1_388
10
6.1726084
20
116.5039586
40
0.8740384
50
169.5837606
51
180.275782
0
ARC
8
DEFAULT_255_1_388
10
5.9659432
20
116.5421439
40
0.6638751
50
155.0367033
51
169.6002779
0
ARC
8
DEFAULT_255_1_388
10
5.8381891
20
116.6037336
40
0.5220662
50
136.7831557
51
155.2472983
0
ARC
8
DEFAULT_255_1_388
10
5.7943681
20
116.6409577
40
0.4646502
50
121.7633063
51
136.4281161
0
ARC
8
DEFAULT_255_1_388
10
5.8095521
20
116.6129049
40
0.4964979
50
95.6460018
51
121.5489589
0
ARC
8
DEFAULT_255_1_388
10
5.8272495
20
116.4881704
40
0.6223912
50
89.9245727
51
96.1375919
0
ARC
8
DEFAULT_255_1_388
10
5.8329201
20
116.5015721
40
0.6090084
50
76.6779212
51
90.456405
0
ARC
8
DEFAULT_255_1_388
10
5.8772013
20
116.680506
40
0.42469
50
47.4858803
51
76.9287069
0
ARC
8
DEFAULT_255_1_388
10
5.8606627
20
116.6692623
40
0.4441778
50
16.5424081
51
46.8934505
0
ARC
8
DEFAULT_255_1_388
10
5.6797677
20
116.6098265
40
0.6345318
50
5.4072971
51
17.0363711
0
ARC
8
DEFAULT_255_1_388
10
5.5179402
20
116.5838304
40
0.6250632
50
7.8888693
51
15.9242022
0
ARC
8
DEFAULT_255_1_388
10
5.7414387
20
116.6487309
40
0.3923364
50
15.7650676
51
27.9410069
0
ARC
8
DEFAULT_255_1_388
10
5.8656557
20
116.7152317
40
0.2514401
50
27.8167196
51
46.4007942
0
ARC
8
DEFAULT_255_1_388
10
5.8712398
20
116.7145882
40
0.2480958
50
47.4372362
51
75.0695672
0
ARC
8
DEFAULT_255_1_388
10
5.8365234
20
116.5937277
40
0.3738281
50
74.7009379
51
87.8124314
0
ARC
8
DEFAULT_255_1_388
10
5.8282851
20
116.4753659
40
0.4924321
50
87.3802571
51
90.0251599
0
ARC
8
DEFAULT_255_1_388
10
5.8239499
20
116.6073997
40
0.3604218
50
89.3451886
51
108.5744412
0
ARC
8
DEFAULT_255_1_388
10
5.8085491
20
116.6651836
40
0.3007661
50
109.2998307
51
143.3037387
0
ARC
8
DEFAULT_255_1_388
10
5.8942781
20
116.5992584
40
0.4089031
50
143.075267
51
163.1918576
0
ARC
8
DEFAULT_255_1_388
10
6.1138615
20
116.5299652
40
0.6391492
50
162.9375929
51
174.6208776
0
ARC
8
DEFAULT_255_1_388
10
6.4092997
20
116.4975711
40
0.9363344
50
174.342123
51
180.1430283
0
ARC
8
DEFAULT_255_1_388
10
6.3045538
20
116.3632117
40
0.8315986
50
179.6817261
51
189.150555
0
ARC
8
DEFAULT_255_1_388
10
6.0232287
20
116.3163559
40
0.5464044
50
188.9911061
51
203.5772363
0
ARC
8
DEFAULT_255_1_388
10
5.9017579
20
116.2659539
40
0.4149206
50
203.9075402
51
215.1312435
0
ARC
8
DEFAULT_255_1_388
10
5.7979376
20
116.1854907
40
0.2837747
50
213.9071511
51
263.8848919
0
ARC
8
DEFAULT_255_1_388
10
5.812037
20
116.2737519
40
0.3730641
50
263.1757928
51
270.1031044
0
ARC
8
DEFAULT_255_1_388
10
5.8156449
20
116.4140511
40
0.5133712
50
269.6722503
51
279.0606936
0
ARC
8
DEFAULT_255_1_388
10
5.8456605
20
116.232615
40
0.3294739
50
278.8749101
51
293.6349581
0
ARC
8
DEFAULT_255_1_388
10
5.8816808
20
116.1480251
40
0.2375405
50
293.8553806
51
310.0518171
0
ARC
8
DEFAULT_255_1_388
10
5.8822317
20
116.1410021
40
0.2318463
50
311.0644687
51
332.0111037
0
ARC
8
DEFAULT_255_1_388
10
5.7480991
20
116.2149702
40
0.3850112
50
331.6586806
51
343.2877423
0
ARC
8
DEFAULT_255_1_388
10
5.5160456
20
116.2862806
40
0.6277712
50
343.1446576
51
351.0103568
0
ARC
8
DEFAULT_255_1_388
10
5.3527779
20
116.3162873
40
0.7937327
50
350.71248
51
351.1626997
0
LINE
8
DEFAULT_255_1_388
10
7.0542059
20
117.0988148
11
7.0542059
21
115.7769
0
LINE
8
DEFAULT_255_1_388
10
7.0542059
20
115.7769
11
6.8861429
21
115.7769
0
LINE
8
DEFAULT_255_1_388
10
6.8861429
20
115.7769
11
6.8861429
21
116.890995
0
LINE
8
DEFAULT_255_1_388
10
6.8861429
20
116.890995
11
6.5491133
21
116.7672066
0
LINE
8
DEFAULT_255_1_388
10
6.5491133
20
116.7672066
11
6.5491133
21
116.9190055
0
LINE
8
DEFAULT_255_1_388
10
6.5491133
20
116.9190055
11
7.0280025
21
117.0988148
0
LINE
8
DEFAULT_255_1_388
10
7.0280025
20
117.0988148
11
7.0542059
21
117.0988148
0
LINE
8
DEFAULT_255_1_388
10
7.9089778
20
116.4039737
11
7.9089778
21
116.2675355
0
LINE
8
DEFAULT_255_1_388
10
7.9089778
20
116.2675355
11
7.4680384
21
116.2675355
0
LINE
8
DEFAULT_255_1_388
10
7.4680384
20
116.2675355
11
7.4680384
21
116.4039737
0
LINE
8
DEFAULT_255_1_388
10
7.4680384
20
116.4039737
11
7.9089778
21
116.4039737
0
LINE
8
DEFAULT_255_1_388
10
5.0374882
20
125.0299898
11
5.0374882
21
124.8872267
0
LINE
8
DEFAULT_255_1_388
10
5.0374882
20
124.8872267
11
4.6146201
21
124.8872267
0
LINE
8
DEFAULT_255_1_388
10
4.6146201
20
124.8872267
11
4.6146201
21
123.7144
0
LINE
8
DEFAULT_255_1_388
10
4.6146201
20
123.7144
11
4.4420393
21
123.7144
0
LINE
8
DEFAULT_255_1_388
10
4.4420393
20
123.7144
11
4.4420393
21
124.8872267
0
LINE
8
DEFAULT_255_1_388
10
4.4420393
20
124.8872267
11
4.0200747
21
124.8872267
0
LINE
8
DEFAULT_255_1_388
10
4.0200747
20
124.8872267
11
4.0200747
21
125.0299898
0
LINE
8
DEFAULT_255_1_388
10
4.0200747
20
125.0299898
11
5.0374882
21
125.0299898
0
LINE
8
DEFAULT_255_1_388
10
6.0006879
20
124.1318468
11
6.1750759
21
124.1318468
0
LINE
8
DEFAULT_255_1_388
10
5.1621801
20
124.3107525
11
5.1621801
21
124.4372516
0
LINE
8
DEFAULT_255_1_388
10
6.1750759
20
124.6071217
11
6.0006879
21
124.6071217
0
LINE
8
DEFAULT_255_1_388
10
5.3365681
20
124.4327337
11
5.3365681
21
124.3053312
0
ARC
8
DEFAULT_255_1_388
10
5.5584993
20
124.1990329
40
0.6202263
50
340.1774904
51
353.7812217
0
ARC
8
DEFAULT_255_1_388
10
5.7352846
20
124.1331893
40
0.4315926
50
311.4560052
51
340.4420756
0
ARC
8
DEFAULT_255_1_388
10
5.7315385
20
124.1456665
40
0.4434573
50
282.4332229
51
310.7514507
0
ARC
8
DEFAULT_255_1_388
10
5.6821203
20
124.3498703
40
0.6535262
50
269.9358869
51
282.8096729
0
ARC
8
DEFAULT_255_1_388
10
5.6763143
20
124.5011329
40
0.8048043
50
269.9995752
51
270.3612856
0
ARC
8
DEFAULT_255_1_388
10
5.6703633
20
124.2212781
40
0.5249831
50
250.7885263
51
270.6488451
0
ARC
8
DEFAULT_255_1_388
10
5.6514457
20
124.1495853
40
0.4510942
50
219.3628377
51
250.0611024
0
ARC
8
DEFAULT_255_1_388
10
5.7447332
20
124.2288653
40
0.5735046
50
193.5480293
51
219.5755675
0
ARC
8
DEFAULT_255_1_388
10
6.011554
20
124.298152
40
0.849146
50
181.1220183
51
193.8754971
0
ARC
8
DEFAULT_255_1_388
10
6.2438774
20
124.3105914
40
1.0816971
50
179.9914644
51
181.5398227
0
ARC
8
DEFAULT_255_1_388
10
6.0362084
20
124.4414586
40
0.8740384
50
169.5837606
51
180.275782
0
ARC
8
DEFAULT_255_1_388
10
5.8295432
20
124.4796439
40
0.6638751
50
155.0367033
51
169.6002779
0
ARC
8
DEFAULT_255_1_388
10
5.7017891
20
124.5412336
40
0.5220662
50
136.7831557
51
155.2472983
0
ARC
8
DEFAULT_255_1_388
10
5.6579681
20
124.5784577
40
0.4646502
50
121.7633063
51
136.4281161
0
ARC
8
DEFAULT_255_1_388
10
5.6731521
20
124.5504049
40
0.4964979
50
95.6460018
51
121.5489589
0
ARC
8
DEFAULT_255_1_388
10
5.6908495
20
124.4256704
40
0.6223912
50
89.9245727
51
96.1375919
0
ARC
8
DEFAULT_255_1_388
10
5.6965201
20
124.4390721
40
0.6090084
50
76.6779212
51
90.456405
0
ARC
8
DEFAULT_255_1_388
10
5.7408013
20
124.618006
40
0.42469
50
47.4858803
51
76.9287069
0
ARC
8
DEFAULT_255_1_388
10
5.7242627
20
124.6067623
40
0.4441778
50
16.5424081
51
46.8934505
0
ARC
8
DEFAULT_255_1_388
10
5.5433677
20
124.5473265
40
0.6345318
50
5.4072971
51
17.0363711
0
ARC
8
DEFAULT_255_1_388
10
5.3815402
20
124.5213304
40
0.6250632
50
7.8888693
51
15.9242022
0
ARC
8
DEFAULT_255_1_388
10
5.6050387
20
124.5862309
40
0.3923364
50
15.7650676
51
27.9410069
0
ARC
8
DEFAULT_255_1_388
10
5.7292557
20
124.6527317
40
0.2514401
50
27.8167196
51
46.4007942
0
ARC
8
DEFAULT_255_1_388
10
5.7348398
20
124.6520882
40
0.2480958
50
47.4372362
51
75.0695672
0
ARC
8
DEFAULT_255_1_388
10
5.7001234
20
124.5312277
40
0.3738281
50
74.7009379
51
87.8124314
0
ARC
8
DEFAULT_255_1_388
10
5.6918851
20
124.4128659
40
0.4924321
50
87.3802571
51
90.0251599
0
ARC
8
DEFAULT_255_1_388
10
5.6875499
20
124.5448997
40
0.3604218
50
89.3451886
51
108.5744412
0
ARC
8
DEFAULT_255_1_388
10
5.6721491
20
124.6026836
40
0.3007661
50
109.2998307
51
143.3037387
0
ARC
8
DEFAULT_255_1_388
10
5.7578781
20
124.5367584
40
0.4089031
50
143.075267
51
163.1918576
0
ARC
8
DEFAULT_255_1_388
10
5.9774615
20
124.4674652
40
0.6391492
50
162.9375929
51
174.6208776
0
ARC
8
DEFAULT_255_1_388
10
6.2728997
20
124.4350711
40
0.9363344
50
174.342123
51
180.1430283
0
ARC
8
DEFAULT_255_1_388
10
6.1681538
20
124.3007117
40
0.8315986
50
179.6817261
51
189.150555
0
ARC
8
DEFAULT_255_1_388
10
5.8868287
20
124.2538559
40
0.5464044
50
188.9911061
51
203.5772363
0
ARC
8
DEFAULT_255_1_388
10
5.7653579
20
124.2034539
40
0.4149206
50
203.9075402
51
215.1312435
0
ARC
8
DEFAULT_255_1_388
10
5.6615376
20
124.1229907
40
0.2837747
50
213.9071511
51
263.8848919
0
ARC
8
DEFAULT_255_1_388
10
5.675637
20
124.2112519
40
0.3730641
50
263.1757928
51
270.1031044
0
ARC
8
DEFAULT_255_1_388
10
5.6792449
20
124.3515511
40
0.5133712
50
269.6722503
51
279.0606936
0
ARC
8
DEFAULT_255_1_388
10
5.7092605
20
124.170115
40
0.3294739
50
278.8749101
51
293.6349581
0
ARC
8
DEFAULT_255_1_388
10
5.7452808
20
124.0855251
40
0.2375405
50
293.8553806
51
310.0518171
0
ARC
8
DEFAULT_255_1_388
10
5.7458317
20
124.0785021
40
0.2318463
50
311.0644687
51
332.0111037
0
ARC
8
DEFAULT_255_1_388
10
5.6116991
20
124.1524702
40
0.3850112
50
331.6586806
51
343.2877423
0
ARC
8
DEFAULT_255_1_388
10
5.3796456
20
124.2237806
40
0.6277712
50
343.1446576
51
351.0103568
0
ARC
8
DEFAULT_255_1_388
10
5.2163779
20
124.2537873
40
0.7937327
50
350.71248
51
351.1626997
0
LINE
8
DEFAULT_255_1_388
10
6.9178059
20
125.0363148
11
6.9178059
21
123.7144
0
LINE
8
DEFAULT_255_1_388
10
6.9178059
20
123.7144
11
6.7497429
21
123.7144
0
LINE
8
DEFAULT_255_1_388
10
6.7497429
20
123.7144
11
6.7497429
21
124.828495
0
LINE
8
DEFAULT_255_1_388
10
6.7497429
20
124.828495
11
6.4127133
21
124.7047066
0
LINE
8
DEFAULT_255_1_388
10
6.4127133
20
124.7047066
11
6.4127133
21
124.8565055
0
LINE
8
DEFAULT_255_1_388
10
6.4127133
20
124.8565055
11
6.8916025
21
125.0363148
0
LINE
8
DEFAULT_255_1_388
10
6.8916025
20
125.0363148
11
6.9178059
21
125.0363148
0
LINE
8
DEFAULT_255_1_388
10
7.9035947
20
124.8040987
11
7.9035947
21
124.4200838
0
LINE
8
DEFAULT_255_1_388
10
7.9035947
20
124.4200838
11
8.2704418
21
124.4200838
0
LINE
8
DEFAULT_255_1_388
10
8.2704418
20
124.4200838
11
8.2704418
21
124.2619601
0
LINE
8
DEFAULT_255_1_388
10
8.2704418
20
124.2619601
11
7.9035947
21
124.2619601
0
LINE
8
DEFAULT_255_1_388
10
7.9035947
20
124.2619601
11
7.9035947
21
123.8463204
0
LINE
8
DEFAULT_255_1_388
10
7.9035947
20
123.8463204
11
7.7355317
21
123.8463204
0
LINE
8
DEFAULT_255_1_388
10
7.7355317
20
123.8463204
11
7.7355317
21
124.2619601
0
LINE
8
DEFAULT_255_1_388
10
7.7355317
20
124.2619601
11
7.3686845
21
124.2619601
0
LINE
8
DEFAULT_255_1_388
10
7.3686845
20
124.2619601
11
7.3686845
21
124.4200838
0
LINE
8
DEFAULT_255_1_388
10
7.3686845
20
124.4200838
11
7.7355317
21
124.4200838
0
LINE
8
DEFAULT_255_1_388
10
7.7355317
20
124.4200838
11
7.7355317
21
124.8040987
0
LINE
8
DEFAULT_255_1_388
10
7.7355317
20
124.8040987
11
7.9035947
21
124.8040987
0
LINE
8
DEFAULT_255_1_388
10
23.1190856
20
132.429869
11
23.1190856
21
132.2130135
0
LINE
8
DEFAULT_255_1_388
10
22.2887099
20
132.1904244
11
22.2887099
21
132.4136048
0
LINE
8
DEFAULT_255_1_388
10
22.9519262
20
132.1678353
11
22.9519262
21
132.4416153
0
LINE
8
DEFAULT_255_1_388
10
22.4558693
20
132.4542652
11
22.4558693
21
132.1868102
0
ARC
8
DEFAULT_255_1_388
10
21.741319
20
132.2075118
40
1.3777776
50
353.8440855
51
0.2287917
0
ARC
8
DEFAULT_255_1_388
10
22.2632208
20
132.1492414
40
0.852639
50
344.4934746
51
353.9763743
0
ARC
8
DEFAULT_255_1_388
10
22.5999015
20
132.0535191
40
0.5026273
50
329.2803599
51
344.7473406
0
ARC
8
DEFAULT_255_1_388
10
22.7114511
20
131.9923038
40
0.3754848
50
324.9361395
51
328.6153007
0
ARC
8
DEFAULT_255_1_388
10
22.7540161
20
131.9625586
40
0.3235566
50
280.5801797
51
324.9173226
0
ARC
8
DEFAULT_255_1_388
10
22.7088789
20
132.1505236
40
0.5167077
50
269.5979457
51
281.6732777
0
ARC
8
DEFAULT_255_1_388
10
22.7007693
20
132.1370113
40
0.5032026
50
256.6228565
51
270.5105488
0
ARC
8
DEFAULT_255_1_388
10
22.6555435
20
131.9628345
40
0.3233092
50
215.8618351
51
257.2787793
0
ARC
8
DEFAULT_255_1_388
10
22.7704142
20
132.0399106
40
0.4615831
50
197.9695203
51
215.2622745
0
ARC
8
DEFAULT_255_1_388
10
23.0499818
20
132.1342641
40
0.7566307
50
187.8816486
51
198.2346584
0
ARC
8
DEFAULT_255_1_388
10
23.4953056
20
132.1985453
40
1.2065653
50
180.8977266
51
188.0054894
0
ARC
8
DEFAULT_255_1_388
10
23.800327
20
132.21004
40
1.5117443
50
180.7434591
51
181.152202
0
ARC
8
DEFAULT_255_1_388
10
23.6328266
20
132.4190371
40
1.3441277
50
173.7674302
51
180.2315596
0
ARC
8
DEFAULT_255_1_388
10
23.1246135
20
132.4764779
40
0.8326847
50
164.3058537
51
173.9000553
0
ARC
8
DEFAULT_255_1_388
10
22.7970135
20
132.5708652
40
0.4917711
50
148.7922028
51
164.5682288
0
ARC
8
DEFAULT_255_1_388
10
22.6900872
20
132.6305457
40
0.3694204
50
144.5883979
51
148.1161588
0
ARC
8
DEFAULT_255_1_388
10
22.6513618
20
132.6575667
40
0.322202
50
101.6440149
51
144.5142619
0
ARC
8
DEFAULT_255_1_388
10
22.699181
20
132.4675337
40
0.5180451
50
89.528284
51
102.5820197
0
ARC
8
DEFAULT_255_1_388
10
22.7080802
20
132.4631376
40
0.5224441
50
77.0437914
51
90.508231
0
ARC
8
DEFAULT_255_1_388
10
22.7533055
20
132.6479272
40
0.3322297
50
48.2777708
51
77.4996087
0
ARC
8
DEFAULT_255_1_388
10
22.7614795
20
132.6624557
40
0.315966
50
36.3141586
51
47.6307332
0
ARC
8
DEFAULT_255_1_388
10
22.6637518
20
132.5966159
40
0.4337313
50
18.2931065
51
35.6770203
0
ARC
8
DEFAULT_255_1_388
10
22.3776358
20
132.4984107
40
0.7362203
50
8.0246996
51
18.5605636
0
ARC
8
DEFAULT_255_1_388
10
21.9092714
20
132.4292432
40
1.2096583
50
1.127539
51
8.1718423
0
ARC
8
DEFAULT_255_1_388
10
21.5443847
20
132.4149374
40
1.5747719
50
0.5432713
51
1.38669
0
ARC
8
DEFAULT_255_1_388
10
21.7501226
20
132.4456163
40
1.2018103
50
359.8092569
51
4.9408001
0
ARC
8
DEFAULT_255_1_388
10
22.2237807
20
132.48789
40
0.7262727
50
4.8364937
51
12.2906017
0
ARC
8
DEFAULT_255_1_388
10
22.5337272
20
132.5569485
40
0.4087324
50
12.0806994
51
23.8171225
0
ARC
8
DEFAULT_255_1_388
10
22.6657668
20
132.6128508
40
0.2653719
50
24.2874621
51
31.3934353
0
ARC
8
DEFAULT_255_1_388
10
22.7248104
20
132.6514822
40
0.1948607
50
30.7407708
51
82.4658033
0
ARC
8
DEFAULT_255_1_388
10
22.7045765
20
132.5521017
40
0.2961198
50
81.1057101
51
90.2187368
0
ARC
8
DEFAULT_255_1_388
10
22.7005577
20
132.5811421
40
0.2670929
50
89.380395
51
105.6763916
0
ARC
8
DEFAULT_255_1_388
10
22.6799299
20
132.656132
40
0.1893189
50
105.7980655
51
149.7387869
0
ARC
8
DEFAULT_255_1_388
10
22.7996439
20
132.5841719
40
0.3289892
50
149.4208441
51
163.628295
0
ARC
8
DEFAULT_255_1_388
10
23.0348668
20
132.5124345
40
0.5749004
50
163.3764549
51
172.141138
0
ARC
8
DEFAULT_255_1_388
10
23.406139
20
132.4592582
40
0.9499585
50
172.0258462
51
178.0705453
0
ARC
8
DEFAULT_255_1_388
10
23.7482943
20
132.4430682
40
1.2924734
50
177.8639301
51
179.5036263
0
ARC
8
DEFAULT_255_1_388
10
23.6263961
20
132.1827151
40
1.170534
50
179.7995545
51
185.246089
0
ARC
8
DEFAULT_255_1_388
10
23.1715554
20
132.1396404
40
0.7136613
50
185.1411911
51
193.0082205
0
ARC
8
DEFAULT_255_1_388
10
22.8741815
20
132.0693441
40
0.4080987
50
192.7897338
51
205.2507384
0
ARC
8
DEFAULT_255_1_388
10
22.7564025
20
132.0167538
40
0.2791522
50
205.8001921
51
211.2545876
0
ARC
8
DEFAULT_255_1_388
10
22.6975564
20
131.9773132
40
0.2084074
50
210.3789935
51
238.4007996
0
ARC
8
DEFAULT_255_1_388
10
22.695365
20
131.9825786
40
0.2117943
50
239.6521916
51
265.9793852
0
ARC
8
DEFAULT_255_1_388
10
22.7049499
20
132.0582358
40
0.2879689
50
265.1324455
51
270.0603288
0
ARC
8
DEFAULT_255_1_388
10
22.7081876
20
132.0217418
40
0.2514919
50
269.3314378
51
287.2180039
0
ARC
8
DEFAULT_255_1_388
10
22.7236958
20
131.9651291
40
0.1928357
50
287.7957942
51
329.0808983
0
ARC
8
DEFAULT_255_1_388
10
22.6159715
20
132.0323651
40
0.319808
50
328.6635261
51
343.3325043
0
ARC
8
DEFAULT_255_1_388
10
22.3715174
20
132.1085195
40
0.5758408
50
343.0498092
51
351.9392499
0
ARC
8
DEFAULT_255_1_388
10
21.9814496
20
132.1660205
40
0.9701202
50
351.8071632
51
357.7957897
0
ARC
8
DEFAULT_255_1_388
10
21.6179973
20
132.1848724
40
1.3340376
50
357.5870923
51
359.2682493
0
LINE
8
DEFAULT_255_1_388
10
23.4380439
20
132.9674898
11
23.8121196
21
131.8823089
0
LINE
8
DEFAULT_255_1_388
10
23.8121196
20
131.8823089
11
24.1880024
21
132.9674898
0
LINE
8
DEFAULT_255_1_388
10
24.1880024
20
132.9674898
11
24.3777509
21
132.9674898
0
LINE
8
DEFAULT_255_1_388
10
24.3777509
20
132.9674898
11
23.8898261
21
131.6519
0
LINE
8
DEFAULT_255_1_388
10
23.8898261
20
131.6519
11
23.7362202
21
131.6519
0
LINE
8
DEFAULT_255_1_388
10
23.7362202
20
131.6519
11
23.2491989
21
132.9674898
0
LINE
8
DEFAULT_255_1_388
10
23.2491989
20
132.9674898
11
23.4380439
21
132.9674898
0
ENDSEC
0
EOF