0
SECTION
2
HEADER
9
$MEASUREMENT
70
1
0
ENDSEC
0
SECTION
2
TABLES
0
TABLE
2
LTYPE
0
LTYPE
72
65
70
64
2
CONTINUOUS
3
______
73
0
40
0
0
ENDTAB
0
TABLE
2
LAYER
0
LAYER
2
DEFAULT_255_2_778
70
0
62
255
6
CONTINUOUS
0
LAYER
2
DEFAULT_255_1_388
70
0
62
255
6
CONTINUOUS
0
LAYER
2
DEFAULT_255_2_778_1
70
0
62
255
6
CONTINUOUS
0
ENDTAB
0
ENDSEC
0
SECTION
2
ENTITIES
0
ARC
8
DEFAULT_255_2_778
10
3.5700693
20
44.0552035
40
0.7914215
50
129.1312896
51
180.1450914
0
ARC
8
DEFAULT_255_2_778
10
3.5703345
20
44.0556906
40
0.7912112
50
89.854026
51
129.1684493
0
ARC
8
DEFAULT_255_2_778
10
25.7993937
20
44.0553771
40
0.7915249
50
39.4792447
51
90.147911
0
ARC
8
DEFAULT_255_2_778
10
25.7999935
20
44.0552238
40
0.7911595
50
359.8533901
51
39.5154338
0
ARC
8
DEFAULT_255_2_778
10
25.7996693
20
-1.9863488
40
0.7914836
50
309.4761667
51
0.1482649
0
ARC
8
DEFAULT_255_2_778
10
25.799398
20
-1.9867799
40
0.7913235
50
269.8517415
51
309.511178
0
ARC
8
DEFAULT_255_2_778
10
3.570342
20
-1.9867217
40
0.7913815
50
219.1282118
51
270.1454017
0
ARC
8
DEFAULT_255_2_778
10
3.5700247
20
-1.9863392
40
0.7913769
50
179.8524075
51
219.1641908
0
LINE
8
DEFAULT_255_2_778
10
3.5723503
20
44.8468993
11
25.7973503
21
44.8468993
0
LINE
8
DEFAULT_255_2_778
10
26.5911503
20
44.0531993
11
26.5911503
21
-1.9843007
0
LINE
8
DEFAULT_255_2_778
10
25.7973503
20
-2.7781007
11
3.5723503
21
-2.7781007
0
LINE
8
DEFAULT_255_2_778
10
2.7786503
20
-1.9843007
11
2.7786503
21
44.0531993
0
LINE
8
DEFAULT_255_1_388
10
10.4210094
20
-0.1247683
11
10.1110868
21
-0.1247683
0
LINE
8
DEFAULT_255_1_388
10
10.1110868
20
-0.1247683
11
10.1110868
21
-0.6398
0
LINE
8
DEFAULT_255_1_388
10
10.1110868
20
-0.6398
11
9.9376024
21
-0.6398
0
LINE
8
DEFAULT_255_1_388
10
9.9376024
20
-0.6398
11
9.9376024
21
0.6757898
0
LINE
8
DEFAULT_255_1_388
10
9.9376024
20
0.6757898
11
10.4228165
21
0.6757898
0
LINE
8
DEFAULT_255_1_388
10
10.1110868
20
0.5330267
11
10.1110868
21
0.0170914
0
LINE
8
DEFAULT_255_1_388
10
10.1110868
20
0.0170914
11
10.4228165
21
0.0170914
0
LINE
8
DEFAULT_255_1_388
10
10.4327557
20
0.5330267
11
10.1110868
21
0.5330267
0
ARC
8
DEFAULT_255_1_388
10
10.4275538
20
-0.0058666
40
0.6816729
50
78.8380084
51
90.398184
0
ARC
8
DEFAULT_255_1_388
10
10.4743569
20
0.2214796
40
0.449571
50
58.9633273
51
79.0810717
0
ARC
8
DEFAULT_255_1_388
10
10.5082953
20
0.2844823
40
0.3781049
50
48.0194715
51
58.4475592
0
ARC
8
DEFAULT_255_1_388
10
10.5182773
20
0.2940818
40
0.3642936
50
3.3374546
51
48.1766642
0
ARC
8
DEFAULT_255_1_388
10
10.379758
20
0.2741581
40
0.5038766
50
359.9483251
51
4.6822857
0
ARC
8
DEFAULT_255_1_388
10
10.3937503
20
0.2693779
40
0.4899031
50
346.1879032
51
0.5059221
0
ARC
8
DEFAULT_255_1_388
10
10.5466295
20
0.2296763
40
0.3319729
50
310.8832219
51
346.5426612
0
ARC
8
DEFAULT_255_1_388
10
10.5119143
20
0.2765853
40
0.3901853
50
286.6925305
51
310.228778
0
ARC
8
DEFAULT_255_1_388
10
10.4478873
20
0.4779585
40
0.6014737
50
274.6848219
51
287.0247342
0
ARC
8
DEFAULT_255_1_388
10
10.4225422
20
0.7264088
40
0.8511785
50
269.8968222
51
275.0192639
0
ARC
8
DEFAULT_255_1_388
10
10.4256415
20
0.4926144
40
0.4755314
50
269.6596206
51
279.4150542
0
ARC
8
DEFAULT_255_1_388
10
10.4545873
20
0.3248945
40
0.3053379
50
279.2050006
51
294.9901776
0
ARC
8
DEFAULT_255_1_388
10
10.4872508
20
0.2520353
40
0.2255036
50
295.2886769
51
311.2912669
0
ARC
8
DEFAULT_255_1_388
10
10.4952249
20
0.2401938
40
0.2113522
50
311.7853512
51
347.2860549
0
ARC
8
DEFAULT_255_1_388
10
10.384541
20
0.268643
40
0.3256011
50
346.6891629
51
0.1057086
0
ARC
8
DEFAULT_255_1_388
10
10.292287
20
0.2719247
40
0.417863
50
359.63239
51
359.9961329
0
ARC
8
DEFAULT_255_1_388
10
10.4087475
20
0.2746987
40
0.3014155
50
359.4673371
51
15.5931159
0
ARC
8
DEFAULT_255_1_388
10
10.4790538
20
0.2936937
40
0.2285918
50
15.7441779
51
46.620186
0
ARC
8
DEFAULT_255_1_388
10
10.4624298
20
0.2745361
40
0.2539359
50
46.8628482
51
75.6676625
0
ARC
8
DEFAULT_255_1_388
10
10.4293354
20
0.1554243
40
0.3775415
50
75.2763152
51
88.2916439
0
ARC
8
DEFAULT_255_1_388
10
10.4227354
20
0.0552097
40
0.4779221
50
87.8589087
51
88.7986197
0
LINE
8
DEFAULT_255_1_388
10
11.9236371
20
-0.5033618
11
11.9236371
21
-0.6398
0
LINE
8
DEFAULT_255_1_388
10
11.9236371
20
-0.6398
11
11.0616366
21
-0.6398
0
LINE
8
DEFAULT_255_1_388
10
11.0616366
20
-0.6398
11
11.0616366
21
-0.5196259
0
LINE
8
DEFAULT_255_1_388
10
11.0616366
20
-0.5196259
11
11.5170331
21
-0.0136298
0
LINE
8
DEFAULT_255_1_388
10
11.2034962
20
0.2881607
11
11.0363368
21
0.2881607
0
LINE
8
DEFAULT_255_1_388
10
11.6155216
20
-0.121154
11
11.2631314
21
-0.5033618
0
LINE
8
DEFAULT_255_1_388
10
11.2631314
20
-0.5033618
11
11.9236371
21
-0.5033618
0
ARC
8
DEFAULT_255_1_388
10
9.999439
20
1.3283983
40
2.0258655
50
318.5132526
51
320.7829045
0
ARC
8
DEFAULT_255_1_388
10
10.5942347
20
0.8442929
40
1.2589638
50
320.7372878
51
323.9739031
0
ARC
8
DEFAULT_255_1_388
10
11.0351279
20
0.5248554
40
0.7145141
50
323.8962701
51
328.64194
0
ARC
8
DEFAULT_255_1_388
10
11.2653536
20
0.3828545
40
0.4440242
50
328.8294576
51
331.7891185
0
ARC
8
DEFAULT_255_1_388
10
11.3775856
20
0.3249374
40
0.3177517
50
331.4254512
51
352.9365785
0
ARC
8
DEFAULT_255_1_388
10
11.3928856
20
0.321505
40
0.3021496
50
353.2257659
51
0.0166158
0
ARC
8
DEFAULT_255_1_388
10
11.4165617
20
0.3240894
40
0.2784847
50
359.486299
51
15.9343185
0
ARC
8
DEFAULT_255_1_388
10
11.4735884
20
0.3394269
40
0.2194403
50
16.1712913
51
43.5286088
0
ARC
8
DEFAULT_255_1_388
10
11.4822828
20
0.3481191
40
0.2071504
50
43.4417391
51
83.1661095
0
ARC
8
DEFAULT_255_1_388
10
11.4671989
20
0.2652316
40
0.2912888
50
82.160179
51
90.1505708
0
ARC
8
DEFAULT_255_1_388
10
11.4636471
20
0.2048279
40
0.3517025
50
89.5460741
51
102.5418361
0
ARC
8
DEFAULT_255_1_388
10
11.4363191
20
0.3207933
40
0.2325748
50
102.1738499
51
129.206123
0
ARC
8
DEFAULT_255_1_388
10
11.4274644
20
0.3347664
40
0.2161591
50
129.72865
51
135.753947
0
ARC
8
DEFAULT_255_1_388
10
11.4411127
20
0.3238728
40
0.2335433
50
136.1757367
51
166.3673339
0
ARC
8
DEFAULT_255_1_388
10
11.5543815
20
0.2935148
40
0.3507873
50
165.9090694
51
178.8684636
0
ARC
8
DEFAULT_255_1_388
10
11.6519586
20
0.2882263
40
0.4484624
50
178.4391136
51
180.0083808
0
ARC
8
DEFAULT_255_1_388
10
11.4940288
20
0.2926197
40
0.4577138
50
163.2878482
51
180.5581842
0
ARC
8
DEFAULT_255_1_388
10
11.4038329
20
0.3174393
40
0.3641968
50
133.4540601
51
162.947111
0
ARC
8
DEFAULT_255_1_388
10
11.4239211
20
0.2960789
40
0.3935189
50
100.7869829
51
133.4382499
0
ARC
8
DEFAULT_255_1_388
10
11.4630456
20
0.1218399
40
0.5720313
50
89.660664
51
101.3702276
0
ARC
8
DEFAULT_255_1_388
10
11.4705065
20
0.1287263
40
0.5651495
50
78.2172678
51
90.412935
0
ARC
8
DEFAULT_255_1_388
10
11.5104531
20
0.3114511
40
0.378122
50
55.9269121
51
78.4888449
0
ARC
8
DEFAULT_255_1_388
10
11.5325246
20
0.3495187
40
0.3342379
50
47.929771
51
55.4049217
0
ARC
8
DEFAULT_255_1_388
10
11.5439776
20
0.3611618
40
0.3179217
50
4.334829
51
48.0560205
0
ARC
8
DEFAULT_255_1_388
10
11.4207578
20
0.3420487
40
0.442341
50
359.9251713
51
5.5971671
0
ARC
8
DEFAULT_255_1_388
10
11.4689732
20
0.3483728
40
0.3941854
50
337.8914027
51
358.9967534
0
ARC
8
DEFAULT_255_1_388
10
11.1637303
20
0.4661295
40
0.7213271
50
326.9132501
51
338.3508308
0
ARC
8
DEFAULT_255_1_388
10
10.7153414
20
0.7535105
40
1.2538973
50
319.6471833
51
327.0959558
0
ARC
8
DEFAULT_255_1_388
10
10.2840073
20
1.109305
40
1.8129975
50
317.2588228
51
319.9045804
0
LINE
8
DEFAULT_255_1_388
10
12.4657757
20
-0.0127263
11
12.4657757
21
-0.1491645
0
LINE
8
DEFAULT_255_1_388
10
12.4657757
20
-0.1491645
11
12.0248363
21
-0.1491645
0
LINE
8
DEFAULT_255_1_388
10
12.0248363
20
-0.1491645
11
12.0248363
21
-0.0127263
0
LINE
8
DEFAULT_255_1_388
10
12.0248363
20
-0.0127263
11
12.4657757
21
-0.0127263
0
LINE
8
DEFAULT_255_1_388
10
13.436204
20
0.138169
11
13.436204
21
-0.0786865
0
LINE
8
DEFAULT_255_1_388
10
12.6058282
20
-0.1012756
11
12.6058282
21
0.1219048
0
LINE
8
DEFAULT_255_1_388
10
13.2690445
20
-0.1238647
11
13.2690445
21
0.1499153
0
LINE
8
DEFAULT_255_1_388
10
12.7729876
20
0.1625652
11
12.7729876
21
-0.1048898
0
ARC
8
DEFAULT_255_1_388
10
12.0584374
20
-0.0841882
40
1.3777776
50
353.8440855
51
0.2287917
0
ARC
8
DEFAULT_255_1_388
10
12.5803391
20
-0.1424586
40
0.852639
50
344.4934746
51
353.9763743
0
ARC
8
DEFAULT_255_1_388
10
12.9170198
20
-0.2381809
40
0.5026273
50
329.2803599
51
344.7473406
0
ARC
8
DEFAULT_255_1_388
10
13.0285694
20
-0.2993962
40
0.3754848
50
324.9361395
51
328.6153007
0
ARC
8
DEFAULT_255_1_388
10
13.0711344
20
-0.3291414
40
0.3235566
50
280.5801797
51
324.9173226
0
ARC
8
DEFAULT_255_1_388
10
13.0259972
20
-0.1411764
40
0.5167077
50
269.5979457
51
281.6732777
0
ARC
8
DEFAULT_255_1_388
10
13.0178876
20
-0.1546887
40
0.5032026
50
256.6228565
51
270.5105488
0
ARC
8
DEFAULT_255_1_388
10
12.9726619
20
-0.3288655
40
0.3233092
50
215.8618351
51
257.2787793
0
ARC
8
DEFAULT_255_1_388
10
13.0875326
20
-0.2517894
40
0.4615831
50
197.9695203
51
215.2622745
0
ARC
8
DEFAULT_255_1_388
10
13.3671001
20
-0.1574359
40
0.7566307
50
187.8816486
51
198.2346584
0
ARC
8
DEFAULT_255_1_388
10
13.8124239
20
-0.0931547
40
1.2065653
50
180.8977266
51
188.0054894
0
ARC
8
DEFAULT_255_1_388
10
14.1174453
20
-0.08166
40
1.5117443
50
180.7434591
51
181.152202
0
ARC
8
DEFAULT_255_1_388
10
13.9499449
20
0.1273371
40
1.3441277
50
173.7674302
51
180.2315596
0
ARC
8
DEFAULT_255_1_388
10
13.4417318
20
0.1847779
40
0.8326847
50
164.3058537
51
173.9000553
0
ARC
8
DEFAULT_255_1_388
10
13.1141318
20
0.2791652
40
0.4917711
50
148.7922028
51
164.5682288
0
ARC
8
DEFAULT_255_1_388
10
13.0072055
20
0.3388457
40
0.3694204
50
144.5883979
51
148.1161588
0
ARC
8
DEFAULT_255_1_388
10
12.9684801
20
0.3658667
40
0.322202
50
101.6440149
51
144.5142619
0
ARC
8
DEFAULT_255_1_388
10
13.0162993
20
0.1758337
40
0.5180451
50
89.528284
51
102.5820197
0
ARC
8
DEFAULT_255_1_388
10
13.0251985
20
0.1714376
40
0.5224441
50
77.0437914
51
90.508231
0
ARC
8
DEFAULT_255_1_388
10
13.0704239
20
0.3562272
40
0.3322297
50
48.2777708
51
77.4996087
0
ARC
8
DEFAULT_255_1_388
10
13.0785979
20
0.3707557
40
0.315966
50
36.3141586
51
47.6307332
0
ARC
8
DEFAULT_255_1_388
10
12.9808701
20
0.3049159
40
0.4337313
50
18.2931065
51
35.6770203
0
ARC
8
DEFAULT_255_1_388
10
12.6947542
20
0.2067107
40
0.7362203
50
8.0246996
51
18.5605636
0
ARC
8
DEFAULT_255_1_388
10
12.2263897
20
0.1375432
40
1.2096583
50
1.127539
51
8.1718423
0
ARC
8
DEFAULT_255_1_388
10
11.861503
20
0.1232374
40
1.5747719
50
0.5432713
51
1.38669
0
ARC
8
DEFAULT_255_1_388
10
12.0672409
20
0.1539163
40
1.2018103
50
359.8092569
51
4.9408001
0
ARC
8
DEFAULT_255_1_388
10
12.540899
20
0.19619
40
0.7262727
50
4.8364937
51
12.2906017
0
ARC
8
DEFAULT_255_1_388
10
12.8508455
20
0.2652485
40
0.4087324
50
12.0806994
51
23.8171225
0
ARC
8
DEFAULT_255_1_388
10
12.9828851
20
0.3211508
40
0.2653719
50
24.2874621
51
31.3934353
0
ARC
8
DEFAULT_255_1_388
10
13.0419287
20
0.3597822
40
0.1948607
50
30.7407708
51
82.4658033
0
ARC
8
DEFAULT_255_1_388
10
13.0216948
20
0.2604017
40
0.2961198
50
81.1057101
51
90.2187368
0
ARC
8
DEFAULT_255_1_388
10
13.017676
20
0.2894421
40
0.2670929
50
89.380395
51
105.6763916
0
ARC
8
DEFAULT_255_1_388
10
12.9970482
20
0.364432
40
0.1893189
50
105.7980655
51
149.7387869
0
ARC
8
DEFAULT_255_1_388
10
13.1167622
20
0.2924719
40
0.3289892
50
149.4208441
51
163.628295
0
ARC
8
DEFAULT_255_1_388
10
13.3519852
20
0.2207345
40
0.5749004
50
163.3764549
51
172.141138
0
ARC
8
DEFAULT_255_1_388
10
13.7232573
20
0.1675582
40
0.9499585
50
172.0258462
51
178.0705453
0
ARC
8
DEFAULT_255_1_388
10
14.0654126
20
0.1513682
40
1.2924734
50
177.8639301
51
179.5036263
0
ARC
8
DEFAULT_255_1_388
10
13.9435144
20
-0.1089849
40
1.170534
50
179.7995545
51
185.246089
0
ARC
8
DEFAULT_255_1_388
10
13.4886738
20
-0.1520596
40
0.7136613
50
185.1411911
51
193.0082205
0
ARC
8
DEFAULT_255_1_388
10
13.1912998
20
-0.2223559
40
0.4080987
50
192.7897338
51
205.2507384
0
ARC
8
DEFAULT_255_1_388
10
13.0735208
20
-0.2749462
40
0.2791522
50
205.8001921
51
211.2545876
0
ARC
8
DEFAULT_255_1_388
10
13.0146747
20
-0.3143868
40
0.2084074
50
210.3789935
51
238.4007996
0
ARC
8
DEFAULT_255_1_388
10
13.0124833
20
-0.3091214
40
0.2117943
50
239.6521916
51
265.9793852
0
ARC
8
DEFAULT_255_1_388
10
13.0220682
20
-0.2334642
40
0.2879689
50
265.1324455
51
270.0603288
0
ARC
8
DEFAULT_255_1_388
10
13.0253059
20
-0.2699582
40
0.2514919
50
269.3314378
51
287.2180039
0
ARC
8
DEFAULT_255_1_388
10
13.0408142
20
-0.3265709
40
0.1928357
50
287.7957942
51
329.0808983
0
ARC
8
DEFAULT_255_1_388
10
12.9330899
20
-0.2593349
40
0.319808
50
328.6635261
51
343.3325043
0
ARC
8
DEFAULT_255_1_388
10
12.6886357
20
-0.1831805
40
0.5758408
50
343.0498092
51
351.9392499
0
ARC
8
DEFAULT_255_1_388
10
12.2985679
20
-0.1256795
40
0.9701202
50
351.8071632
51
357.7957897
0
ARC
8
DEFAULT_255_1_388
10
11.9351156
20
-0.1068276
40
1.3340376
50
357.5870923
51
359.2682493
0
LINE
8
DEFAULT_255_1_388
10
14.3560326
20
0.6757898
11
14.3560326
21
-0.197957
0
LINE
8
DEFAULT_255_1_388
10
14.3560326
20
-0.197957
11
14.5385526
21
-0.197957
0
LINE
8
DEFAULT_255_1_388
10
14.5385526
20
-0.197957
11
14.5385526
21
-0.3343952
0
LINE
8
DEFAULT_255_1_388
10
14.5385526
20
-0.3343952
11
14.3560326
21
-0.3343952
0
LINE
8
DEFAULT_255_1_388
10
14.3560326
20
-0.3343952
11
14.3560326
21
-0.6398
0
LINE
8
DEFAULT_255_1_388
10
14.3560326
20
-0.6398
11
14.1879696
21
-0.6398
0
LINE
8
DEFAULT_255_1_388
10
14.1879696
20
-0.6398
11
14.1879696
21
-0.3343952
0
LINE
8
DEFAULT_255_1_388
10
14.1879696
20
-0.3343952
11
13.5889063
21
-0.3343952
0
LINE
8
DEFAULT_255_1_388
10
13.5889063
20
-0.3343952
11
13.5889063
21
-0.2359067
0
LINE
8
DEFAULT_255_1_388
10
13.5889063
20
-0.2359067
11
14.1780304
21
0.6757898
0
LINE
8
DEFAULT_255_1_388
10
14.1780304
20
0.6757898
11
14.3560326
21
0.6757898
0
LINE
8
DEFAULT_255_1_388
10
14.1680912
20
0.4110455
11
13.7786549
21
-0.197957
0
LINE
8
DEFAULT_255_1_388
10
13.7786549
20
-0.197957
11
14.1879696
21
-0.197957
0
LINE
8
DEFAULT_255_1_388
10
14.1879696
20
-0.197957
11
14.1879696
21
0.447188
0
LINE
8
DEFAULT_255_1_388
10
14.1879696
20
0.447188
11
14.1680912
21
0.4110455
0
LINE
8
DEFAULT_255_1_388
10
15.0969554
20
-0.6398
11
14.7328189
21
-0.6398
0
LINE
8
DEFAULT_255_1_388
10
14.7328189
20
-0.6398
11
14.7328189
21
0.6757898
0
LINE
8
DEFAULT_255_1_388
10
14.7328189
20
0.6757898
11
15.1041839
21
0.6757898
0
LINE
8
DEFAULT_255_1_388
10
15.6842723
20
0.0622696
11
15.6842723
21
-0.0217619
0
LINE
8
DEFAULT_255_1_388
10
15.1087018
20
0.5330267
11
14.9063033
21
0.5330267
0
LINE
8
DEFAULT_255_1_388
10
14.9063033
20
0.5330267
11
14.9063033
21
-0.4979404
0
LINE
8
DEFAULT_255_1_388
10
14.9063033
20
-0.4979404
11
15.0888233
21
-0.4979404
0
LINE
8
DEFAULT_255_1_388
10
15.5125951
20
-0.0181477
11
15.5125951
21
0.0586553
0
ARC
8
DEFAULT_255_1_388
10
15.1085634
20
0.0159436
40
0.6598608
50
75.4100343
51
90.3802731
0
ARC
8
DEFAULT_255_1_388
10
15.134388
20
0.1235691
40
0.5492049
50
60.1455157
51
75.1889627
0
ARC
8
DEFAULT_255_1_388
10
15.1522471
20
0.1546914
40
0.5133226
50
26.525419
51
60.1451222
0
ARC
8
DEFAULT_255_1_388
10
15.0262257
20
0.0878642
40
0.6559324
50
7.4029944
51
26.832209
0
ARC
8
DEFAULT_255_1_388
10
14.8468655
20
0.0599229
40
0.8374103
50
0.1605597
51
7.7176135
0
ARC
8
DEFAULT_255_1_388
10
14.8653055
20
-0.0260679
40
0.8189782
50
348.7289744
51
0.30125
0
ARC
8
DEFAULT_255_1_388
10
15.0516519
20
-0.0630844
40
0.628991
50
333.0706936
51
348.7181455
0
ARC
8
DEFAULT_255_1_388
10
15.1604147
20
-0.1221551
40
0.5052808
50
299.2531435
51
333.4571133
0
ARC
8
DEFAULT_255_1_388
10
15.1198178
20
-0.0450371
40
0.5924066
50
278.1072193
51
299.0340218
0
ARC
8
DEFAULT_255_1_388
10
15.0910227
20
0.1245979
40
0.7644209
50
270.4446841
51
278.4508355
0
ARC
8
DEFAULT_255_1_388
10
15.093371
20
0.02003
40
0.5179903
50
269.4969684
51
284.0204874
0
ARC
8
DEFAULT_255_1_388
10
15.1333429
20
-0.1335585
40
0.3592968
50
283.7699076
51
318.1557121
0
ARC
8
DEFAULT_255_1_388
10
15.0953974
20
-0.1051601
40
0.4065308
50
318.7417595
51
343.687252
0
ARC
8
DEFAULT_255_1_388
10
14.8924553
20
-0.0417725
40
0.6191194
50
343.3324891
51
355.8548594
0
ARC
8
DEFAULT_255_1_388
10
14.656359
20
-0.0193281
40
0.856237
50
355.4988754
51
0.0789913
0
ARC
8
DEFAULT_255_1_388
10
14.7444389
20
0.063408
40
0.7681709
50
359.6455047
51
9.8607559
0
ARC
8
DEFAULT_255_1_388
10
15.0100113
20
0.1113664
40
0.498312
50
9.6573037
51
26.1931522
0
ARC
8
DEFAULT_255_1_388
10
15.1144187
20
0.1598587
40
0.3832303
50
26.5777895
51
40.1533752
0
ARC
8
DEFAULT_255_1_388
10
15.1431852
20
0.182302
40
0.3467742
50
40.3839958
51
80.1430923
0
ARC
8
DEFAULT_255_1_388
10
15.1064108
20
0.0192486
40
0.5137832
50
79.2153636
51
89.7445174
0
LINE
8
DEFAULT_255_1_388
10
16.7793924
20
-0.6398
11
16.653797
21
-0.2964455
0
LINE
8
DEFAULT_255_1_388
10
16.653797
20
-0.2964455
11
16.1026227
21
-0.2964455
0
LINE
8
DEFAULT_255_1_388
10
16.1026227
20
-0.2964455
11
15.9788343
21
-0.6398
0
LINE
8
DEFAULT_255_1_388
10
15.9788343
20
-0.6398
11
15.7999286
21
-0.6398
0
LINE
8
DEFAULT_255_1_388
10
15.7999286
20
-0.6398
11
16.3023104
21
0.6757898
0
LINE
8
DEFAULT_255_1_388
10
16.3023104
20
0.6757898
11
16.4541092
21
0.6757898
0
LINE
8
DEFAULT_255_1_388
10
16.4541092
20
0.6757898
11
16.9573946
21
-0.6398
0
LINE
8
DEFAULT_255_1_388
10
16.9573946
20
-0.6398
11
16.7793924
21
-0.6398
0
LINE
8
DEFAULT_255_1_388
10
16.3782098
20
0.4616451
11
16.1550294
21
-0.1536823
0
LINE
8
DEFAULT_255_1_388
10
16.1550294
20
-0.1536823
11
16.6022938
21
-0.1536823
0
LINE
8
DEFAULT_255_1_388
10
16.6022938
20
-0.1536823
11
16.3782098
21
0.4616451
0
LINE
8
DEFAULT_255_1_388
10
17.4561622
20
-0.0127263
11
17.4561622
21
-0.1491645
0
LINE
8
DEFAULT_255_1_388
10
17.4561622
20
-0.1491645
11
17.0152228
21
-0.1491645
0
LINE
8
DEFAULT_255_1_388
10
17.0152228
20
-0.1491645
11
17.0152228
21
-0.0127263
0
LINE
8
DEFAULT_255_1_388
10
17.0152228
20
-0.0127263
11
17.4561622
21
-0.0127263
0
LINE
8
DEFAULT_255_1_388
10
18.1510033
20
0.6821148
11
18.1510033
21
-0.6398
0
LINE
8
DEFAULT_255_1_388
10
18.1510033
20
-0.6398
11
17.9829403
21
-0.6398
0
LINE
8
DEFAULT_255_1_388
10
17.9829403
20
-0.6398
11
17.9829403
21
0.474295
0
LINE
8
DEFAULT_255_1_388
10
17.9829403
20
0.474295
11
17.6459107
21
0.3505066
0
LINE
8
DEFAULT_255_1_388
10
17.6459107
20
0.3505066
11
17.6459107
21
0.5023055
0
LINE
8
DEFAULT_255_1_388
10
17.6459107
20
0.5023055
11
18.1247999
21
0.6821148
0
LINE
8
DEFAULT_255_1_388
10
18.1247999
20
0.6821148
11
18.1510033
21
0.6821148
0
LINE
8
DEFAULT_255_1_388
10
7.8465094
20
38.9013317
11
7.5365868
21
38.9013317
0
LINE
8
DEFAULT_255_1_388
10
7.5365868
20
38.9013317
11
7.5365868
21
38.3863
0
LINE
8
DEFAULT_255_1_388
10
7.5365868
20
38.3863
11
7.3631024
21
38.3863
0
LINE
8
DEFAULT_255_1_388
10
7.3631024
20
38.3863
11
7.3631024
21
39.7018898
0
LINE
8
DEFAULT_255_1_388
10
7.3631024
20
39.7018898
11
7.8483165
21
39.7018898
0
LINE
8
DEFAULT_255_1_388
10
7.5365868
20
39.5591267
11
7.5365868
21
39.0431914
0
LINE
8
DEFAULT_255_1_388
10
7.5365868
20
39.0431914
11
7.8483165
21
39.0431914
0
LINE
8
DEFAULT_255_1_388
10
7.8582557
20
39.5591267
11
7.5365868
21
39.5591267
0
ARC
8
DEFAULT_255_1_388
10
7.8530538
20
39.0202334
40
0.6816729
50
78.8380084
51
90.398184
0
ARC
8
DEFAULT_255_1_388
10
7.8998569
20
39.2475796
40
0.449571
50
58.9633273
51
79.0810717
0
ARC
8
DEFAULT_255_1_388
10
7.9337953
20
39.3105823
40
0.3781049
50
48.0194715
51
58.4475592
0
ARC
8
DEFAULT_255_1_388
10
7.9437773
20
39.3201818
40
0.3642936
50
3.3374546
51
48.1766642
0
ARC
8
DEFAULT_255_1_388
10
7.805258
20
39.3002581
40
0.5038766
50
359.9483251
51
4.6822857
0
ARC
8
DEFAULT_255_1_388
10
7.8192503
20
39.2954779
40
0.4899031
50
346.1879032
51
0.5059221
0
ARC
8
DEFAULT_255_1_388
10
7.9721295
20
39.2557763
40
0.3319729
50
310.8832219
51
346.5426612
0
ARC
8
DEFAULT_255_1_388
10
7.9374143
20
39.3026853
40
0.3901853
50
286.6925305
51
310.228778
0
ARC
8
DEFAULT_255_1_388
10
7.8733873
20
39.5040585
40
0.6014737
50
274.6848219
51
287.0247342
0
ARC
8
DEFAULT_255_1_388
10
7.8480422
20
39.7525088
40
0.8511785
50
269.8968222
51
275.0192639
0
ARC
8
DEFAULT_255_1_388
10
7.8511415
20
39.5187144
40
0.4755314
50
269.6596206
51
279.4150542
0
ARC
8
DEFAULT_255_1_388
10
7.8800873
20
39.3509945
40
0.3053379
50
279.2050006
51
294.9901776
0
ARC
8
DEFAULT_255_1_388
10
7.9127508
20
39.2781353
40
0.2255036
50
295.2886769
51
311.2912669
0
ARC
8
DEFAULT_255_1_388
10
7.9207249
20
39.2662938
40
0.2113522
50
311.7853512
51
347.2860549
0
ARC
8
DEFAULT_255_1_388
10
7.810041
20
39.294743
40
0.3256011
50
346.6891629
51
0.1057086
0
ARC
8
DEFAULT_255_1_388
10
7.717787
20
39.2980247
40
0.417863
50
359.63239
51
359.9961329
0
ARC
8
DEFAULT_255_1_388
10
7.8342475
20
39.3007987
40
0.3014155
50
359.4673371
51
15.5931159
0
ARC
8
DEFAULT_255_1_388
10
7.9045538
20
39.3197937
40
0.2285918
50
15.7441779
51
46.620186
0
ARC
8
DEFAULT_255_1_388
10
7.8879298
20
39.3006361
40
0.2539359
50
46.8628482
51
75.6676625
0
ARC
8
DEFAULT_255_1_388
10
7.8548354
20
39.1815243
40
0.3775415
50
75.2763152
51
88.2916439
0
ARC
8
DEFAULT_255_1_388
10
7.8482354
20
39.0813097
40
0.4779221
50
87.8589087
51
88.7986197
0
LINE
8
DEFAULT_255_1_388
10
8.9768685
20
39.3693781
11
8.9768685
21
39.213965
0
LINE
8
DEFAULT_255_1_388
10
8.6714637
20
39.0802375
11
8.6714637
21
38.3863
0
LINE
8
DEFAULT_255_1_388
10
8.6714637
20
38.3863
11
8.5043043
21
38.3863
0
LINE
8
DEFAULT_255_1_388
10
8.5043043
20
38.3863
11
8.5043043
21
39.3639567
0
LINE
8
DEFAULT_255_1_388
10
8.5043043
20
39.3639567
11
8.6669459
21
39.3639567
0
LINE
8
DEFAULT_255_1_388
10
8.6669459
20
39.3639567
11
8.6696566
21
39.2510112
0
ARC
8
DEFAULT_255_1_388
10
8.9018845
20
38.7573068
40
0.4627735
50
80.6751522
51
86.893806
0
ARC
8
DEFAULT_255_1_388
10
8.8950675
20
38.6481103
40
0.5721798
50
86.8046851
51
90.0423898
0
ARC
8
DEFAULT_255_1_388
10
8.8909094
20
38.9248197
40
0.2954939
50
89.2758283
51
106.6212906
0
ARC
8
DEFAULT_255_1_388
10
8.8679119
20
39.0084009
40
0.2088351
50
107.1347109
51
157.6456887
0
ARC
8
DEFAULT_255_1_388
10
8.9447181
20
38.9656908
40
0.296292
50
155.6557383
51
157.256838
0
ARC
8
DEFAULT_255_1_388
10
8.9226795
20
39.0967472
40
0.296341
50
127.8167201
51
148.6300223
0
ARC
8
DEFAULT_255_1_388
10
8.8941543
20
39.1260066
40
0.2557782
50
91.3329934
51
126.7875218
0
ARC
8
DEFAULT_255_1_388
10
8.902693
20
39.0456718
40
0.3363561
50
89.9858247
51
92.4688453
0
ARC
8
DEFAULT_255_1_388
10
8.9036423
20
39.0765114
40
0.3055179
50
85.3587643
51
90.1624243
0
ARC
8
DEFAULT_255_1_388
10
8.9131488
20
39.1894458
40
0.1921848
50
78.4019195
51
85.4592653
0
ARC
8
DEFAULT_255_1_388
10
8.9294549
20
39.2672142
40
0.1127267
50
67.7849217
51
78.573798
0
ARC
8
DEFAULT_255_1_388
10
8.9416183
20
39.2987374
40
0.0789473
50
63.4805074
51
67.3074739
0
LINE
8
DEFAULT_255_1_388
10
9.0681285
20
38.8724177
11
9.0681285
21
38.884164
0
LINE
8
DEFAULT_255_1_388
10
9.9581395
20
38.8760319
11
9.9581395
21
38.8642856
0
ARC
8
DEFAULT_255_1_388
10
9.696573
20
38.887804
40
0.628455
50
166.3005265
51
180.3318609
0
ARC
8
DEFAULT_255_1_388
10
9.5995079
20
38.9095267
40
0.52901
50
153.8608648
51
166.0965672
0
ARC
8
DEFAULT_255_1_388
10
9.5246245
20
38.9496652
40
0.4441126
50
135.1317053
51
154.2534962
0
ARC
8
DEFAULT_255_1_388
10
9.4932896
20
38.9773431
40
0.4023863
50
121.7042632
51
134.7771455
0
ARC
8
DEFAULT_255_1_388
10
9.5008328
20
38.9628469
40
0.4186852
50
93.4001111
51
121.5399523
0
ARC
8
DEFAULT_255_1_388
10
9.5115162
20
38.8698759
40
0.5121521
50
89.9706387
51
93.9763381
0
ARC
8
DEFAULT_255_1_388
10
9.5168147
20
38.9138563
40
0.4681988
50
71.3321659
51
90.6162917
0
ARC
8
DEFAULT_255_1_388
10
9.535118
20
38.9816003
40
0.3981841
50
41.1813875
51
70.7072086
0
ARC
8
DEFAULT_255_1_388
10
9.4813897
20
38.932813
40
0.4707474
50
12.1971434
51
41.3446641
0
ARC
8
DEFAULT_255_1_388
10
9.264716
20
38.8812328
40
0.6934429
50
359.5702713
51
12.5803533
0
ARC
8
DEFAULT_255_1_388
10
9.3179476
20
38.8607207
40
0.6402018
50
347.0196754
51
0.3190452
0
ARC
8
DEFAULT_255_1_388
10
9.425753
20
38.8375189
40
0.5299421
50
334.350439
51
346.8460534
0
ARC
8
DEFAULT_255_1_388
10
9.5208776
20
38.7881244
40
0.4228234
50
310.4228125
51
334.8045131
0
ARC
8
DEFAULT_255_1_388
10
9.5300754
20
38.7809301
40
0.4113892
50
301.8488154
51
310.0972985
0
ARC
8
DEFAULT_255_1_388
10
9.5264495
20
38.7894573
40
0.4205483
50
274.3078723
51
301.6554173
0
ARC
8
DEFAULT_255_1_388
10
9.513995
20
38.8881943
40
0.5199658
50
269.954904
51
274.859116
0
ARC
8
DEFAULT_255_1_388
10
9.5084774
20
38.8318239
40
0.4636233
50
250.8887647
51
270.6313164
0
ARC
8
DEFAULT_255_1_388
10
9.4915935
20
38.7689405
40
0.398705
50
221.1701369
51
250.2227012
0
ARC
8
DEFAULT_255_1_388
10
9.54606
20
38.8185716
40
0.4723796
50
191.6263861
51
221.3526879
0
ARC
8
DEFAULT_255_1_388
10
9.7584446
20
38.8677203
40
0.6903321
50
179.6101251
51
192.0694841
0
ARC
8
DEFAULT_255_1_388
10
9.8060793
20
38.8606681
40
0.5698993
50
179.636304
51
190.6161344
0
ARC
8
DEFAULT_255_1_388
10
9.6213125
20
38.8246635
40
0.3816643
50
190.4136062
51
208.7168709
0
ARC
8
DEFAULT_255_1_388
10
9.5639159
20
38.7961905
40
0.3176572
50
209.187109
51
217.4221816
0
ARC
8
DEFAULT_255_1_388
10
9.504363
20
38.7437729
40
0.2385702
50
216.1156863
51
265.2575395
0
ARC
8
DEFAULT_255_1_388
10
9.5132666
20
38.8082608
40
0.3035941
50
264.5891546
51
270.0602378
0
ARC
8
DEFAULT_255_1_388
10
9.5169863
20
38.7655539
40
0.2609091
50
269.2532353
51
291.8793864
0
ARC
8
DEFAULT_255_1_388
10
9.5202742
20
38.7455359
40
0.241148
50
292.9269367
51
323.1777736
0
ARC
8
DEFAULT_255_1_388
10
9.4732027
20
38.7868762
40
0.3036446
50
322.25666
51
323.087958
0
ARC
8
DEFAULT_255_1_388
10
9.4429285
20
38.8051332
40
0.3388345
50
323.6941379
51
343.8493587
0
ARC
8
DEFAULT_255_1_388
10
9.2653721
20
38.8591698
40
0.5244204
50
343.5746655
51
355.008149
0
ARC
8
DEFAULT_255_1_388
10
9.0395413
20
38.8825797
40
0.7514406
50
354.728272
51
0.1208026
0
ARC
8
DEFAULT_255_1_388
10
9.2384438
20
38.8877947
40
0.5525482
50
359.6235211
51
11.2016685
0
ARC
8
DEFAULT_255_1_388
10
9.4110265
20
38.9233284
40
0.3763527
50
10.9991302
51
30.8317616
0
ARC
8
DEFAULT_255_1_388
10
9.4555569
20
38.9467988
40
0.3260975
50
31.3007463
51
37.395541
0
ARC
8
DEFAULT_255_1_388
10
9.5114288
20
38.9939773
40
0.253082
50
36.5918894
51
62.2439906
0
ARC
8
DEFAULT_255_1_388
10
9.516658
20
38.9936378
40
0.2509927
50
63.3364883
51
89.7193846
0
ARC
8
DEFAULT_255_1_388
10
9.5118033
20
38.9288375
40
0.3158485
50
88.8962924
51
90.004475
0
ARC
8
DEFAULT_255_1_388
10
9.5082461
20
38.9941071
40
0.250604
50
89.1923115
51
114.7099029
0
ARC
8
DEFAULT_255_1_388
10
9.5114802
20
38.9983675
40
0.2481307
50
115.7996284
51
142.2901353
0
ARC
8
DEFAULT_255_1_388
10
9.5583073
20
38.9564752
40
0.310833
50
141.4607507
51
142.383894
0
ARC
8
DEFAULT_255_1_388
10
9.5730925
20
38.9496449
40
0.3267335
50
143.0176473
51
163.2340089
0
ARC
8
DEFAULT_255_1_388
10
9.7506213
20
38.8934553
40
0.5129308
50
162.9446504
51
174.3733893
0
ARC
8
DEFAULT_255_1_388
10
9.9920186
20
38.8663483
40
0.75583
50
174.1225809
51
180.1563667
0
LINE
8
DEFAULT_255_1_388
10
10.1271061
20
38.8706105
11
10.1271061
21
38.8832604
0
LINE
8
DEFAULT_255_1_388
10
10.784901
20
39.2645646
11
10.784901
21
39.774175
0
LINE
8
DEFAULT_255_1_388
10
10.784901
20
39.774175
11
10.9520604
21
39.774175
0
LINE
8
DEFAULT_255_1_388
10
10.9520604
20
39.774175
11
10.9520604
21
38.3863
0
LINE
8
DEFAULT_255_1_388
10
10.9520604
20
38.3863
11
10.7984544
21
38.3863
0
LINE
8
DEFAULT_255_1_388
10
10.7984544
20
38.3863
11
10.7903224
21
38.4911135
0
LINE
8
DEFAULT_255_1_388
10
10.784901
20
38.6528515
11
10.784901
21
39.101923
0
ARC
8
DEFAULT_255_1_388
10
10.9005754
20
38.8882084
40
0.7734851
50
169.1662656
51
180.3665225
0
ARC
8
DEFAULT_255_1_388
10
10.6534663
20
38.9374773
40
0.5215235
50
150.2837807
51
169.3798657
0
ARC
8
DEFAULT_255_1_388
10
10.5822114
20
38.9739124
40
0.4415937
50
142.1063912
51
149.8065902
0
ARC
8
DEFAULT_255_1_388
10
10.5178326
20
39.0299913
40
0.3563766
50
118.4282495
51
142.8642233
0
ARC
8
DEFAULT_255_1_388
10
10.5067338
20
39.0370109
40
0.3449797
50
89.9199141
51
117.3621403
0
ARC
8
DEFAULT_255_1_388
10
10.512919
20
38.9495171
40
0.4325108
50
89.9988001
51
90.7555106
0
ARC
8
DEFAULT_255_1_388
10
10.5171268
20
38.9782362
40
0.4038136
50
72.8979482
51
90.595751
0
ARC
8
DEFAULT_255_1_388
10
10.5393948
20
39.0586099
40
0.3204539
50
39.9932308
51
72.4773248
0
ARC
8
DEFAULT_255_1_388
10
10.5361039
20
38.6972007
40
0.3272598
50
275.0849466
51
320.9693562
0
ARC
8
DEFAULT_255_1_388
10
10.5119955
20
38.8397895
40
0.4715615
50
269.8937433
51
276.4672347
0
ARC
8
DEFAULT_255_1_388
10
10.5043495
20
38.697215
40
0.3290559
50
222.0839188
51
271.1791339
0
ARC
8
DEFAULT_255_1_388
10
10.5731004
20
38.7675998
40
0.4272982
50
217.5168262
51
222.9097935
0
ARC
8
DEFAULT_255_1_388
10
10.6285877
20
38.8057851
40
0.4945763
50
193.0962732
51
217.1109075
0
ARC
8
DEFAULT_255_1_388
10
10.8487607
20
38.8607252
40
0.7214806
50
181.1071959
51
193.3839643
0
ARC
8
DEFAULT_255_1_388
10
11.0371983
20
38.8704904
40
0.9100921
50
179.9924355
51
181.4926257
0
ARC
8
DEFAULT_255_1_388
10
10.944334
20
38.8607904
40
0.650078
50
179.6919448
51
188.655086
0
ARC
8
DEFAULT_255_1_388
10
10.7171397
20
38.8250086
40
0.420088
50
188.4934981
51
202.2188222
0
ARC
8
DEFAULT_255_1_388
10
10.6083204
20
38.7818888
40
0.3030458
50
202.4516374
51
215.9308342
0
ARC
8
DEFAULT_255_1_388
10
10.5416628
20
38.728769
40
0.2179351
50
214.9061987
51
264.2076983
0
ARC
8
DEFAULT_255_1_388
10
10.5522166
20
38.7959867
40
0.2858989
50
263.4629438
51
270.0938577
0
ARC
8
DEFAULT_255_1_388
10
10.55671
20
38.785673
40
0.2756141
50
269.1632216
51
291.0932257
0
ARC
8
DEFAULT_255_1_388
10
10.5659005
20
38.7483218
40
0.2375078
50
292.2675188
51
328.1937653
0
ARC
8
DEFAULT_255_1_388
10
10.4881663
20
38.8044245
40
0.3332054
50
327.040169
51
332.941918
0
ARC
8
DEFAULT_255_1_388
10
10.5345876
20
38.9706122
40
0.2826647
50
27.6808655
51
48.7895461
0
ARC
8
DEFAULT_255_1_388
10
10.5664512
20
38.9999738
40
0.2396281
50
49.8958562
51
87.0102063
0
ARC
8
DEFAULT_255_1_388
10
10.5547356
20
38.9113941
40
0.3287745
50
85.7763593
51
90.0424518
0
ARC
8
DEFAULT_255_1_388
10
10.5514423
20
38.9855766
40
0.25461
50
89.3136862
51
109.426258
0
ARC
8
DEFAULT_255_1_388
10
10.5430845
20
39.019891
40
0.2194978
50
110.3479382
51
145.1577921
0
ARC
8
DEFAULT_255_1_388
10
10.6166325
20
38.966319
40
0.3104736
50
144.7981654
51
162.8715843
0
ARC
8
DEFAULT_255_1_388
10
10.8072925
20
38.9050138
40
0.5107383
50
162.598526
51
173.3417416
0
ARC
8
DEFAULT_255_1_388
10
11.1074298
20
38.8677767
40
0.8131718
50
173.1877249
51
180.2459848
0
LINE
8
DEFAULT_255_1_388
10
11.8185787
20
38.3863
11
11.8149645
21
38.4829814
0
LINE
8
DEFAULT_255_1_388
10
11.2077691
20
38.7278474
11
11.2077691
21
39.3639567
0
LINE
8
DEFAULT_255_1_388
10
11.2077691
20
39.3639567
11
11.3749286
21
39.3639567
0
LINE
8
DEFAULT_255_1_388
10
11.3749286
20
39.3639567
11
11.3749286
21
38.7323652
0
LINE
8
DEFAULT_255_1_388
10
11.8104466
20
38.6528515
11
11.8104466
21
39.3639567
0
LINE
8
DEFAULT_255_1_388
10
11.8104466
20
39.3639567
11
11.9776061
21
39.3639567
0
LINE
8
DEFAULT_255_1_388
10
11.9776061
20
39.3639567
11
11.9776061
21
38.3863
0
LINE
8
DEFAULT_255_1_388
10
11.9776061
20
38.3863
11
11.8185787
21
38.3863
0
ARC
8
DEFAULT_255_1_388
10
11.5769683
20
38.6874675
40
0.3137782
50
282.5436457
51
319.3308483
0
ARC
8
DEFAULT_255_1_388
10
11.5334109
20
38.8569138
40
0.4886732
50
269.8919644
51
283.213949
0
ARC
8
DEFAULT_255_1_388
10
11.5285078
20
38.9973412
40
0.6291125
50
270.0024363
51
270.3626317
0
ARC
8
DEFAULT_255_1_388
10
11.5251056
20
38.7972026
40
0.4289875
50
257.7354503
51
270.4579702
0
ARC
8
DEFAULT_255_1_388
10
11.4916594
20
38.6510679
40
0.2790881
50
233.3385202
51
258.072161
0
ARC
8
DEFAULT_255_1_388
10
11.4765459
20
38.6263828
40
0.250276
50
221.9625878
51
232.7397557
0
ARC
8
DEFAULT_255_1_388
10
11.5080422
20
38.6505961
40
0.2899023
50
197.9449652
51
221.3587453
0
ARC
8
DEFAULT_255_1_388
10
11.6649927
20
38.7042197
40
0.4557469
50
185.8086112
51
198.2791204
0
ARC
8
DEFAULT_255_1_388
10
11.8778675
20
38.7295327
40
0.6701004
50
180.1441004
51
186.1197471
0
ARC
8
DEFAULT_255_1_388
10
11.7764353
20
38.7283589
40
0.4015267
50
179.428312
51
191.0738067
0
ARC
8
DEFAULT_255_1_388
10
11.5870535
20
38.689262
40
0.2081712
50
190.5250706
51
212.6989599
0
ARC
8
DEFAULT_255_1_388
10
11.5348303
20
38.6604416
40
0.1487075
50
214.2246262
51
264.4398306
0
ARC
8
DEFAULT_255_1_388
10
11.5547816
20
38.7627845
40
0.2526976
50
262.1851951
51
270.1949702
0
ARC
8
DEFAULT_255_1_388
10
11.559492
20
38.906346
40
0.3962764
50
269.4432626
51
282.9581304
0
ARC
8
DEFAULT_255_1_388
10
11.597372
20
38.7522077
40
0.2375807
50
282.3910141
51
311.9723859
0
ARC
8
DEFAULT_255_1_388
10
11.5982253
20
38.7440255
40
0.2309774
50
313.1724921
51
336.7508062
0
LINE
8
DEFAULT_255_1_388
10
12.8540636
20
38.6944155
11
13.0121874
21
38.6944155
0
LINE
8
DEFAULT_255_1_388
10
12.1881366
20
38.8660927
11
12.1881366
21
38.8941032
0
LINE
8
DEFAULT_255_1_388
10
13.0121874
20
39.0278308
11
12.8540636
21
39.0278308
0
LINE
8
DEFAULT_255_1_388
10
12.355296
20
38.8877783
11
12.355296
21
38.8561535
0
ARC
8
DEFAULT_255_1_388
10
12.6277193
20
38.7454109
40
0.2407783
50
269.0327343
51
309.2224588
0
ARC
8
DEFAULT_255_1_388
10
12.6513196
20
38.721219
40
0.207135
50
308.3965377
51
329.6987678
0
ARC
8
DEFAULT_255_1_388
10
12.6668255
20
38.7094899
40
0.1878439
50
330.4013397
51
355.3970937
0
ARC
8
DEFAULT_255_1_388
10
12.7182239
20
38.7114312
40
0.2944555
50
329.2357424
51
356.6872018
0
ARC
8
DEFAULT_255_1_388
10
12.6564134
20
38.7441153
40
0.3643032
50
324.8702872
51
329.7911998
0
ARC
8
DEFAULT_255_1_388
10
12.6475416
20
38.7517113
40
0.3759315
50
298.8769973
51
324.7015261
0
ARC
8
DEFAULT_255_1_388
10
12.610196
20
38.811229
40
0.4461015
50
296.902888
51
299.3854973
0
ARC
8
DEFAULT_255_1_388
10
12.6247957
20
38.7788595
40
0.4106323
50
269.8407861
51
297.1298875
0
ARC
8
DEFAULT_255_1_388
10
12.6187953
20
38.8506354
40
0.4824312
50
253.3156606
51
270.5771301
0
ARC
8
DEFAULT_255_1_388
10
12.5910131
20
38.7500943
40
0.3781531
50
221.1002518
51
252.9743523
0
ARC
8
DEFAULT_255_1_388
10
12.6427601
20
38.7945131
40
0.4463481
50
194.5394284
51
221.0302764
0
ARC
8
DEFAULT_255_1_388
10
12.8507422
20
38.8524897
40
0.6622359
50
182.0498004
51
194.8774376
0
ARC
8
DEFAULT_255_1_388
10
13.0500511
20
38.8657778
40
0.8619146
50
179.9790673
51
182.4586753
0
ARC
8
DEFAULT_255_1_388
10
12.8543825
20
38.8974412
40
0.6662543
50
168.615001
51
180.2870547
0
ARC
8
DEFAULT_255_1_388
10
12.7191734
20
38.9239636
40
0.5284705
50
154.9162417
51
168.5402053
0
ARC
8
DEFAULT_255_1_388
10
12.615501
20
38.9751942
40
0.4128641
50
133.5745308
51
155.2559538
0
ARC
8
DEFAULT_255_1_388
10
12.5971853
20
38.9908116
40
0.3889328
50
122.0165845
51
133.2056002
0
ARC
8
DEFAULT_255_1_388
10
12.6012177
20
38.9808977
40
0.3994808
50
97.8732516
51
121.753124
0
ARC
8
DEFAULT_255_1_388
10
12.6213635
20
38.861959
40
0.5200708
50
89.8471322
51
98.2768545
0
ARC
8
DEFAULT_255_1_388
10
12.6268483
20
38.9305809
40
0.4514657
50
73.3760755
51
90.5199878
0
ARC
8
DEFAULT_255_1_388
10
12.6489399
20
39.011855
40
0.3672743
50
47.7085939
51
73.0510707
0
ARC
8
DEFAULT_255_1_388
10
12.6635502
20
39.0245231
40
0.3480795
50
3.7442743
51
48.0844373
0
ARC
8
DEFAULT_255_1_388
10
12.5523496
20
39.0067946
40
0.4603187
50
2.6192831
51
5.0424684
0
ARC
8
DEFAULT_255_1_388
10
12.6038967
20
39.0112986
40
0.2507126
50
3.78087
51
23.9354314
0
ARC
8
DEFAULT_255_1_388
10
12.6296226
20
39.0203644
40
0.2235311
50
24.4867863
51
46.9439952
0
ARC
8
DEFAULT_255_1_388
10
12.6297172
20
39.0229874
40
0.2215567
50
46.4987715
51
89.3298168
0
ARC
8
DEFAULT_255_1_388
10
12.622783
20
38.9563742
40
0.2883121
50
88.1066411
51
90.0063536
0
ARC
8
DEFAULT_255_1_388
10
12.6196806
20
38.9621548
40
0.2825481
50
89.3773571
51
107.2070287
0
ARC
8
DEFAULT_255_1_388
10
12.6036075
20
39.0203667
40
0.2221946
50
107.688418
51
143.3582986
0
ARC
8
DEFAULT_255_1_388
10
12.6674369
20
38.9724064
40
0.3020337
50
143.2845866
51
162.9352432
0
ARC
8
DEFAULT_255_1_388
10
12.8368385
20
38.9180401
40
0.4799362
50
162.6652705
51
174.0802646
0
ARC
8
DEFAULT_255_1_388
10
13.0778866
20
38.8900287
40
0.7225942
50
173.8422673
51
180.1784414
0
ARC
8
DEFAULT_255_1_388
10
13.0162536
20
38.8527276
40
0.6609665
50
179.7030218
51
188.2277356
0
ARC
8
DEFAULT_255_1_388
10
12.7798144
20
38.8173143
40
0.4218948
50
188.0630838
51
201.115837
0
ARC
8
DEFAULT_255_1_388
10
12.6563029
20
38.770173
40
0.2896941
50
201.2186162
51
216.9761863
0
ARC
8
DEFAULT_255_1_388
10
12.6055186
20
38.7321225
40
0.2262366
50
217.0136373
51
265.2055518
0
ARC
8
DEFAULT_255_1_388
10
12.6230523
20
38.8358503
40
0.3311837
50
263.6824874
51
270.1042034
0
LINE
8
DEFAULT_255_1_388
10
13.259764
20
39.6006906
11
13.4269234
21
39.6006906
0
LINE
8
DEFAULT_255_1_388
10
13.4269234
20
39.6006906
11
13.4269234
21
39.3639567
0
LINE
8
DEFAULT_255_1_388
10
13.4269234
20
39.3639567
11
13.6094435
21
39.3639567
0
LINE
8
DEFAULT_255_1_388
10
13.6094435
20
39.3639567
11
13.6094435
21
39.234747
0
LINE
8
DEFAULT_255_1_388
10
13.6094435
20
39.234747
11
13.4269234
21
39.234747
0
LINE
8
DEFAULT_255_1_388
10
13.4269234
20
39.234747
11
13.4269234
21
38.6284553
0
LINE
8
DEFAULT_255_1_388
10
13.6139613
20
38.5218347
11
13.6139613
21
38.3863
0
LINE
8
DEFAULT_255_1_388
10
13.259764
20
38.6284553
11
13.259764
21
39.234747
0
LINE
8
DEFAULT_255_1_388
10
13.259764
20
39.234747
11
13.0817618
21
39.234747
0
LINE
8
DEFAULT_255_1_388
10
13.0817618
20
39.234747
11
13.0817618
21
39.3639567
0
LINE
8
DEFAULT_255_1_388
10
13.0817618
20
39.3639567
11
13.259764
21
39.3639567
0
LINE
8
DEFAULT_255_1_388
10
13.259764
20
39.3639567
11
13.259764
21
39.6006906
0
ARC
8
DEFAULT_255_1_388
10
13.6527742
20
38.6272842
40
0.2258538
50
179.7029045
51
187.9180047
0
ARC
8
DEFAULT_255_1_388
10
13.5688316
20
38.6152019
40
0.1410477
50
187.7540838
51
200.2454047
0
ARC
8
DEFAULT_255_1_388
10
13.5215221
20
38.5975591
40
0.0905561
50
200.1304287
51
219.1733455
0
ARC
8
DEFAULT_255_1_388
10
13.5062388
20
38.5871695
40
0.0721626
50
220.4434631
51
249.6169985
0
ARC
8
DEFAULT_255_1_388
10
13.5236614
20
38.6309919
40
0.1193141
50
249.1038184
51
262.7745376
0
ARC
8
DEFAULT_255_1_388
10
13.5335796
20
38.7017481
40
0.1907583
50
262.4921618
51
270.2607019
0
ARC
8
DEFAULT_255_1_388
10
13.5332878
20
38.7259817
40
0.2149929
50
270.309081
51
275.6615459
0
ARC
8
DEFAULT_255_1_388
10
13.5172286
20
38.8948342
40
0.3846066
50
275.5607354
51
279.087751
0
ARC
8
DEFAULT_255_1_388
10
13.4800218
20
39.1309428
40
0.6236283
50
279.0369545
51
281.5000133
0
ARC
8
DEFAULT_255_1_388
10
13.4409486
20
39.3286499
40
0.825157
50
281.4217093
51
282.1031556
0
ARC
8
DEFAULT_255_1_388
10
13.4785461
20
38.8743229
40
0.5064619
50
275.2597791
51
285.5081125
0
ARC
8
DEFAULT_255_1_388
10
13.4854475
20
38.8117452
40
0.4435166
50
270.0268175
51
275.1130565
0
ARC
8
DEFAULT_255_1_388
10
13.4831927
20
38.6624367
40
0.2942182
50
257.3572424
51
270.4795428
0
ARC
8
DEFAULT_255_1_388
10
13.4592197
20
38.5613952
40
0.1903838
50
230.8036715
51
257.7414447
0
ARC
8
DEFAULT_255_1_388
10
13.4515693
20
38.5490723
40
0.1760087
50
219.9745381
51
230.1985446
0
ARC
8
DEFAULT_255_1_388
10
13.488898
20
38.5776116
40
0.2229598
50
196.5081334
51
219.4319996
0
ARC
8
DEFAULT_255_1_388
10
13.6031592
20
38.6134617
40
0.3427033
50
184.6408645
51
196.8266009
0
ARC
8
DEFAULT_255_1_388
10
13.7432497
20
38.627601
40
0.4834863
50
179.8987586
51
184.9677262
0
LINE
8
DEFAULT_255_1_388
10
13.9862298
20
39.3639567
11
13.9862298
21
38.3863
0
LINE
8
DEFAULT_255_1_388
10
13.9862298
20
38.3863
11
13.8190704
21
38.3863
0
LINE
8
DEFAULT_255_1_388
10
13.8190704
20
38.3863
11
13.8190704
21
39.3639567
0
LINE
8
DEFAULT_255_1_388
10
13.8190704
20
39.3639567
11
13.9862298
21
39.3639567
0
ARC
8
DEFAULT_255_1_388
10
13.9156066
20
39.6243428
40
0.1100948
50
161.4148232
51
180.5532607
0
ARC
8
DEFAULT_255_1_388
10
13.9016376
20
39.6281875
40
0.0956324
50
138.1830164
51
160.9307633
0
ARC
8
DEFAULT_255_1_388
10
13.8892563
20
39.6389313
40
0.0792417
50
104.6371663
51
138.0036136
0
ARC
8
DEFAULT_255_1_388
10
13.9013102
20
39.5976963
40
0.1221906
50
92.0601206
51
105.2198859
0
ARC
8
DEFAULT_255_1_388
10
13.9039466
20
39.5588583
40
0.161103
50
89.9790681
51
92.5006086
0
ARC
8
DEFAULT_255_1_388
10
13.9050642
20
39.5844998
40
0.1354654
50
78.0234649
51
90.4478111
0
ARC
8
DEFAULT_255_1_388
10
13.9154227
20
39.6310203
40
0.0878096
50
55.0521508
51
78.336297
0
ARC
8
DEFAULT_255_1_388
10
13.9210761
20
39.6405168
40
0.0767913
50
42.0506198
51
54.4508489
0
ARC
8
DEFAULT_255_1_388
10
13.9058794
20
39.6265821
40
0.0974091
50
1.7493657
51
42.1498724
0
ARC
8
DEFAULT_255_1_388
10
13.87727
20
39.6233166
40
0.1261276
50
359.9832635
51
2.8353994
0
ARC
8
DEFAULT_255_1_388
10
13.8959109
20
39.6222412
40
0.1074916
50
342.1062453
51
0.5535864
0
ARC
8
DEFAULT_255_1_388
10
13.9119534
20
39.6178197
40
0.0908695
50
316.7110111
51
341.6513114
0
ARC
8
DEFAULT_255_1_388
10
13.9194966
20
39.6110607
40
0.0807447
50
285.4398289
51
316.5320129
0
ARC
8
DEFAULT_255_1_388
10
13.9071136
20
39.6522023
40
0.1237022
50
272.3543902
51
285.8951677
0
ARC
8
DEFAULT_255_1_388
10
13.9040846
20
39.6937742
40
0.1653687
50
269.9725761
51
272.8112722
0
ARC
8
DEFAULT_255_1_388
10
13.9029898
20
39.6686727
40
0.1402709
50
258.8433431
51
270.4148607
0
ARC
8
DEFAULT_255_1_388
10
13.8928678
20
39.6196739
40
0.0902407
50
238.54281
51
259.1289544
0
ARC
8
DEFAULT_255_1_388
10
13.8852
20
39.6057694
40
0.0743817
50
222.5056676
51
237.9918132
0
ARC
8
DEFAULT_255_1_388
10
13.8995593
20
39.6188295
40
0.0937918
50
184.1070774
51
222.4604165
0
ARC
8
DEFAULT_255_1_388
10
13.9298007
20
39.6231538
40
0.1242838
50
179.9419581
51
185.0970785
0
LINE
8
DEFAULT_255_1_388
10
14.3277772
20
39.3639567
11
14.5762574
21
38.6130947
0
LINE
8
DEFAULT_255_1_388
10
14.5762574
20
38.6130947
11
14.8184127
21
39.3639567
0
LINE
8
DEFAULT_255_1_388
10
14.8184127
20
39.3639567
11
14.9891864
21
39.3639567
0
LINE
8
DEFAULT_255_1_388
10
14.9891864
20
39.3639567
11
14.6386034
21
38.3863
0
LINE
8
DEFAULT_255_1_388
10
14.6386034
20
38.3863
11
14.5112008
21
38.3863
0
LINE
8
DEFAULT_255_1_388
10
14.5112008
20
38.3863
11
14.1570035
21
39.3639567
0
LINE
8
DEFAULT_255_1_388
10
14.1570035
20
39.3639567
11
14.3277772
21
39.3639567
0
LINE
8
DEFAULT_255_1_388
10
15.3316373
20
39.3639567
11
15.3316373
21
38.3863
0
LINE
8
DEFAULT_255_1_388
10
15.3316373
20
38.3863
11
15.1644779
21
38.3863
0
LINE
8
DEFAULT_255_1_388
10
15.1644779
20
38.3863
11
15.1644779
21
39.3639567
0
LINE
8
DEFAULT_255_1_388
10
15.1644779
20
39.3639567
11
15.3316373
21
39.3639567
0
ARC
8
DEFAULT_255_1_388
10
15.2610141
20
39.6243428
40
0.1100948
50
161.4148232
51
180.5532607
0
ARC
8
DEFAULT_255_1_388
10
15.2470451
20
39.6281875
40
0.0956324
50
138.1830164
51
160.9307633
0
ARC
8
DEFAULT_255_1_388
10
15.2346638
20
39.6389313
40
0.0792417
50
104.6371663
51
138.0036136
0
ARC
8
DEFAULT_255_1_388
10
15.2467177
20
39.5976963
40
0.1221906
50
92.0601206
51
105.2198859
0
ARC
8
DEFAULT_255_1_388
10
15.2493541
20
39.5588583
40
0.161103
50
89.9790681
51
92.5006086
0
ARC
8
DEFAULT_255_1_388
10
15.2504717
20
39.5844998
40
0.1354654
50
78.0234649
51
90.4478111
0
ARC
8
DEFAULT_255_1_388
10
15.2608301
20
39.6310203
40
0.0878096
50
55.0521508
51
78.336297
0
ARC
8
DEFAULT_255_1_388
10
15.2664836
20
39.6405168
40
0.0767913
50
42.0506198
51
54.4508489
0
ARC
8
DEFAULT_255_1_388
10
15.2512869
20
39.6265821
40
0.0974091
50
1.7493657
51
42.1498724
0
ARC
8
DEFAULT_255_1_388
10
15.2226774
20
39.6233166
40
0.1261276
50
359.9832635
51
2.8353994
0
ARC
8
DEFAULT_255_1_388
10
15.2413184
20
39.6222412
40
0.1074916
50
342.1062453
51
0.5535864
0
ARC
8
DEFAULT_255_1_388
10
15.2573608
20
39.6178197
40
0.0908695
50
316.7110111
51
341.6513114
0
ARC
8
DEFAULT_255_1_388
10
15.264904
20
39.6110607
40
0.0807447
50
285.4398289
51
316.5320129
0
ARC
8
DEFAULT_255_1_388
10
15.2525211
20
39.6522023
40
0.1237022
50
272.3543902
51
285.8951677
0
ARC
8
DEFAULT_255_1_388
10
15.2494921
20
39.6937742
40
0.1653687
50
269.9725761
51
272.8112722
0
ARC
8
DEFAULT_255_1_388
10
15.2483973
20
39.6686727
40
0.1402709
50
258.8433431
51
270.4148607
0
ARC
8
DEFAULT_255_1_388
10
15.2382753
20
39.6196739
40
0.0902407
50
238.54281
51
259.1289544
0
ARC
8
DEFAULT_255_1_388
10
15.2306074
20
39.6057694
40
0.0743817
50
222.5056676
51
237.9918132
0
ARC
8
DEFAULT_255_1_388
10
15.2449668
20
39.6188295
40
0.0937918
50
184.1070774
51
222.4604165
0
ARC
8
DEFAULT_255_1_388
10
15.2752081
20
39.6231538
40
0.1242838
50
179.9419581
51
185.0970785
0
LINE
8
DEFAULT_255_1_388
10
15.6587276
20
39.6006906
11
15.8258871
21
39.6006906
0
LINE
8
DEFAULT_255_1_388
10
15.8258871
20
39.6006906
11
15.8258871
21
39.3639567
0
LINE
8
DEFAULT_255_1_388
10
15.8258871
20
39.3639567
11
16.0084071
21
39.3639567
0
LINE
8
DEFAULT_255_1_388
10
16.0084071
20
39.3639567
11
16.0084071
21
39.234747
0
LINE
8
DEFAULT_255_1_388
10
16.0084071
20
39.234747
11
15.8258871
21
39.234747
0
LINE
8
DEFAULT_255_1_388
10
15.8258871
20
39.234747
11
15.8258871
21
38.6284553
0
LINE
8
DEFAULT_255_1_388
10
16.0129249
20
38.5218347
11
16.0129249
21
38.3863
0
LINE
8
DEFAULT_255_1_388
10
15.6587276
20
38.6284553
11
15.6587276
21
39.234747
0
LINE
8
DEFAULT_255_1_388
10
15.6587276
20
39.234747
11
15.4807254
21
39.234747
0
LINE
8
DEFAULT_255_1_388
10
15.4807254
20
39.234747
11
15.4807254
21
39.3639567
0
LINE
8
DEFAULT_255_1_388
10
15.4807254
20
39.3639567
11
15.6587276
21
39.3639567
0
LINE
8
DEFAULT_255_1_388
10
15.6587276
20
39.3639567
11
15.6587276
21
39.6006906
0
ARC
8
DEFAULT_255_1_388
10
16.0517378
20
38.6272842
40
0.2258538
50
179.7029045
51
187.9180047
0
ARC
8
DEFAULT_255_1_388
10
15.9677952
20
38.6152019
40
0.1410477
50
187.7540838
51
200.2454047
0
ARC
8
DEFAULT_255_1_388
10
15.9204858
20
38.5975591
40
0.0905561
50
200.1304287
51
219.1733455
0
ARC
8
DEFAULT_255_1_388
10
15.9052024
20
38.5871695
40
0.0721626
50
220.4434631
51
249.6169985
0
ARC
8
DEFAULT_255_1_388
10
15.9226251
20
38.6309919
40
0.1193141
50
249.1038184
51
262.7745376
0
ARC
8
DEFAULT_255_1_388
10
15.9325433
20
38.7017481
40
0.1907583
50
262.4921618
51
270.2607019
0
ARC
8
DEFAULT_255_1_388
10
15.9322515
20
38.7259817
40
0.2149929
50
270.309081
51
275.6615459
0
ARC
8
DEFAULT_255_1_388
10
15.9161922
20
38.8948342
40
0.3846066
50
275.5607354
51
279.087751
0
ARC
8
DEFAULT_255_1_388
10
15.8789854
20
39.1309428
40
0.6236283
50
279.0369545
51
281.5000133
0
ARC
8
DEFAULT_255_1_388
10
15.8399122
20
39.3286499
40
0.825157
50
281.4217093
51
282.1031556
0
ARC
8
DEFAULT_255_1_388
10
15.8775098
20
38.8743229
40
0.5064619
50
275.2597791
51
285.5081125
0
ARC
8
DEFAULT_255_1_388
10
15.8844112
20
38.8117452
40
0.4435166
50
270.0268175
51
275.1130565
0
ARC
8
DEFAULT_255_1_388
10
15.8821563
20
38.6624367
40
0.2942182
50
257.3572424
51
270.4795428
0
ARC
8
DEFAULT_255_1_388
10
15.8581833
20
38.5613952
40
0.1903838
50
230.8036715
51
257.7414447
0
ARC
8
DEFAULT_255_1_388
10
15.8505329
20
38.5490723
40
0.1760087
50
219.9745381
51
230.1985446
0
ARC
8
DEFAULT_255_1_388
10
15.8878617
20
38.5776116
40
0.2229598
50
196.5081334
51
219.4319996
0
ARC
8
DEFAULT_255_1_388
10
16.0021228
20
38.6134617
40
0.3427033
50
184.6408645
51
196.8266009
0
ARC
8
DEFAULT_255_1_388
10
16.1422134
20
38.627601
40
0.4834863
50
179.8987586
51
184.9677262
0
LINE
8
DEFAULT_255_1_388
10
16.2794764
20
39.3639567
11
16.5234388
21
38.631166
0
LINE
8
DEFAULT_255_1_388
10
16.5234388
20
38.631166
11
16.7511371
21
39.3639567
0
LINE
8
DEFAULT_255_1_388
10
16.7511371
20
39.3639567
11
16.9300428
21
39.3639567
0
LINE
8
DEFAULT_255_1_388
10
16.9300428
20
39.3639567
11
16.5369923
21
38.2354047
0
LINE
8
DEFAULT_255_1_388
10
16.2469481
20
37.9914423
11
16.2153233
21
37.994153
0
LINE
8
DEFAULT_255_1_388
10
16.2153233
20
37.994153
11
16.1529774
21
38.0058994
0
LINE
8
DEFAULT_255_1_388
10
16.1529774
20
38.0058994
11
16.1529774
21
38.141434
0
LINE
8
DEFAULT_255_1_388
10
16.1529774
20
38.141434
11
16.1981556
21
38.1378198
0
LINE
8
DEFAULT_255_1_388
10
16.4086861
20
38.2977507
11
16.4457323
21
38.3971428
0
LINE
8
DEFAULT_255_1_388
10
16.4457323
20
38.3971428
11
16.0969564
21
39.3639567
0
LINE
8
DEFAULT_255_1_388
10
16.0969564
20
39.3639567
11
16.2794764
21
39.3639567
0
ARC
8
DEFAULT_255_1_388
10
16.0155998
20
38.4249303
40
0.5547703
50
327.7224407
51
340.0238521
0
ARC
8
DEFAULT_255_1_388
10
16.2127157
20
38.2976231
40
0.3201385
50
305.2165641
51
328.1467003
0
ARC
8
DEFAULT_255_1_388
10
16.2515379
20
38.2516258
40
0.260224
50
268.9893726
51
304.0733864
0
ARC
8
DEFAULT_255_1_388
10
16.1998137
20
38.4792952
40
0.3414794
50
269.7217889
51
278.0406077
0
ARC
8
DEFAULT_255_1_388
10
16.217339
20
38.3600724
40
0.2209783
50
277.8651481
51
290.8634591
0
ARC
8
DEFAULT_255_1_388
10
16.2407371
20
38.2975914
40
0.1542617
50
291.0076566
51
305.5961613
0
ARC
8
DEFAULT_255_1_388
10
16.2386246
20
38.2958164
40
0.1540723
50
306.6192176
51
324.1022951
0
ARC
8
DEFAULT_255_1_388
10
16.1545896
20
38.3581842
40
0.2587177
50
323.8256989
51
334.2991437
0
ARC
8
DEFAULT_255_1_388
10
16.0146584
20
38.4269118
40
0.4146127
50
334.1272297
51
340.8153479
0
ARC
8
DEFAULT_255_1_388
10
15.9087103
20
38.4660101
40
0.5275293
50
340.5860638
51
341.400105
0
LINE
8
DEFAULT_255_1_388
10
17.9239637
20
38.5227382
11
17.9239637
21
38.3863
0
LINE
8
DEFAULT_255_1_388
10
17.9239637
20
38.3863
11
17.0619632
21
38.3863
0
LINE
8
DEFAULT_255_1_388
10
17.0619632
20
38.3863
11
17.0619632
21
38.5064741
0
LINE
8
DEFAULT_255_1_388
10
17.0619632
20
38.5064741
11
17.5173597
21
39.0124702
0
LINE
8
DEFAULT_255_1_388
10
17.2038229
20
39.3142607
11
17.0366634
21
39.3142607
0
LINE
8
DEFAULT_255_1_388
10
17.6158482
20
38.904946
11
17.2634581
21
38.5227382
0
LINE
8
DEFAULT_255_1_388
10
17.2634581
20
38.5227382
11
17.9239637
21
38.5227382
0
ARC
8
DEFAULT_255_1_388
10
15.9997657
20
40.3544983
40
2.0258655
50
318.5132526
51
320.7829045
0
ARC
8
DEFAULT_255_1_388
10
16.5945614
20
39.8703929
40
1.2589638
50
320.7372878
51
323.9739031
0
ARC
8
DEFAULT_255_1_388
10
17.0354545
20
39.5509554
40
0.7145141
50
323.8962701
51
328.64194
0
ARC
8
DEFAULT_255_1_388
10
17.2656803
20
39.4089545
40
0.4440242
50
328.8294576
51
331.7891185
0
ARC
8
DEFAULT_255_1_388
10
17.3779123
20
39.3510374
40
0.3177517
50
331.4254512
51
352.9365785
0
ARC
8
DEFAULT_255_1_388
10
17.3932123
20
39.347605
40
0.3021496
50
353.2257659
51
0.0166158
0
ARC
8
DEFAULT_255_1_388
10
17.4168884
20
39.3501894
40
0.2784847
50
359.486299
51
15.9343185
0
ARC
8
DEFAULT_255_1_388
10
17.473915
20
39.3655269
40
0.2194403
50
16.1712913
51
43.5286088
0
ARC
8
DEFAULT_255_1_388
10
17.4826095
20
39.3742191
40
0.2071504
50
43.4417391
51
83.1661095
0
ARC
8
DEFAULT_255_1_388
10
17.4675256
20
39.2913316
40
0.2912888
50
82.160179
51
90.1505708
0
ARC
8
DEFAULT_255_1_388
10
17.4639738
20
39.2309279
40
0.3517025
50
89.5460741
51
102.5418361
0
ARC
8
DEFAULT_255_1_388
10
17.4366458
20
39.3468933
40
0.2325748
50
102.1738499
51
129.206123
0
ARC
8
DEFAULT_255_1_388
10
17.4277911
20
39.3608664
40
0.2161591
50
129.72865
51
135.753947
0
ARC
8
DEFAULT_255_1_388
10
17.4414393
20
39.3499728
40
0.2335433
50
136.1757367
51
166.3673339
0
ARC
8
DEFAULT_255_1_388
10
17.5547082
20
39.3196148
40
0.3507873
50
165.9090694
51
178.8684636
0
ARC
8
DEFAULT_255_1_388
10
17.6522853
20
39.3143263
40
0.4484624
50
178.4391136
51
180.0083808
0
ARC
8
DEFAULT_255_1_388
10
17.4943555
20
39.3187197
40
0.4577138
50
163.2878482
51
180.5581842
0
ARC
8
DEFAULT_255_1_388
10
17.4041596
20
39.3435393
40
0.3641968
50
133.4540601
51
162.947111
0
ARC
8
DEFAULT_255_1_388
10
17.4242478
20
39.3221789
40
0.3935189
50
100.7869829
51
133.4382499
0
ARC
8
DEFAULT_255_1_388
10
17.4633723
20
39.1479399
40
0.5720313
50
89.660664
51
101.3702276
0
ARC
8
DEFAULT_255_1_388
10
17.4708331
20
39.1548263
40
0.5651495
50
78.2172678
51
90.412935
0
ARC
8
DEFAULT_255_1_388
10
17.5107797
20
39.3375511
40
0.378122
50
55.9269121
51
78.4888449
0
ARC
8
DEFAULT_255_1_388
10
17.5328512
20
39.3756187
40
0.3342379
50
47.929771
51
55.4049217
0
ARC
8
DEFAULT_255_1_388
10
17.5443043
20
39.3872618
40
0.3179217
50
4.334829
51
48.0560205
0
ARC
8
DEFAULT_255_1_388
10
17.4210844
20
39.3681487
40
0.442341
50
359.9251713
51
5.5971671
0
ARC
8
DEFAULT_255_1_388
10
17.4692999
20
39.3744728
40
0.3941854
50
337.8914027
51
358.9967534
0
ARC
8
DEFAULT_255_1_388
10
17.1640569
20
39.4922295
40
0.7213271
50
326.9132501
51
338.3508308
0
ARC
8
DEFAULT_255_1_388
10
16.7156681
20
39.7796105
40
1.2538973
50
319.6471833
51
327.0959558
0
ARC
8
DEFAULT_255_1_388
10
16.2843339
20
40.135405
40
1.8129975
50
317.2588228
51
319.9045804
0
LINE
8
DEFAULT_255_1_388
10
18.9260167
20
39.164269
11
18.9260167
21
38.9474135
0
LINE
8
DEFAULT_255_1_388
10
18.095641
20
38.9248244
11
18.095641
21
39.1480048
0
LINE
8
DEFAULT_255_1_388
10
18.7588573
20
38.9022353
11
18.7588573
21
39.1760153
0
LINE
8
DEFAULT_255_1_388
10
18.2628004
20
39.1886652
11
18.2628004
21
38.9212102
0
ARC
8
DEFAULT_255_1_388
10
17.5482501
20
38.9419118
40
1.3777776
50
353.8440855
51
0.2287917
0
ARC
8
DEFAULT_255_1_388
10
18.0701518
20
38.8836414
40
0.852639
50
344.4934746
51
353.9763743
0
ARC
8
DEFAULT_255_1_388
10
18.4068326
20
38.7879191
40
0.5026273
50
329.2803599
51
344.7473406
0
ARC
8
DEFAULT_255_1_388
10
18.5183821
20
38.7267038
40
0.3754848
50
324.9361395
51
328.6153007
0
ARC
8
DEFAULT_255_1_388
10
18.5609471
20
38.6969586
40
0.3235566
50
280.5801797
51
324.9173226
0
ARC
8
DEFAULT_255_1_388
10
18.51581
20
38.8849236
40
0.5167077
50
269.5979457
51
281.6732777
0
ARC
8
DEFAULT_255_1_388
10
18.5077003
20
38.8714113
40
0.5032026
50
256.6228565
51
270.5105488
0
ARC
8
DEFAULT_255_1_388
10
18.4624746
20
38.6972345
40
0.3233092
50
215.8618351
51
257.2787793
0
ARC
8
DEFAULT_255_1_388
10
18.5773453
20
38.7743106
40
0.4615831
50
197.9695203
51
215.2622745
0
ARC
8
DEFAULT_255_1_388
10
18.8569129
20
38.8686641
40
0.7566307
50
187.8816486
51
198.2346584
0
ARC
8
DEFAULT_255_1_388
10
19.3022367
20
38.9329453
40
1.2065653
50
180.8977266
51
188.0054894
0
ARC
8
DEFAULT_255_1_388
10
19.6072581
20
38.94444
40
1.5117443
50
180.7434591
51
181.152202
0
ARC
8
DEFAULT_255_1_388
10
19.4397576
20
39.1534371
40
1.3441277
50
173.7674302
51
180.2315596
0
ARC
8
DEFAULT_255_1_388
10
18.9315445
20
39.2108779
40
0.8326847
50
164.3058537
51
173.9000553
0
ARC
8
DEFAULT_255_1_388
10
18.6039445
20
39.3052652
40
0.4917711
50
148.7922028
51
164.5682288
0
ARC
8
DEFAULT_255_1_388
10
18.4970183
20
39.3649457
40
0.3694204
50
144.5883979
51
148.1161588
0
ARC
8
DEFAULT_255_1_388
10
18.4582928
20
39.3919667
40
0.322202
50
101.6440149
51
144.5142619
0
ARC
8
DEFAULT_255_1_388
10
18.506112
20
39.2019337
40
0.5180451
50
89.528284
51
102.5820197
0
ARC
8
DEFAULT_255_1_388
10
18.5150112
20
39.1975376
40
0.5224441
50
77.0437914
51
90.508231
0
ARC
8
DEFAULT_255_1_388
10
18.5602366
20
39.3823272
40
0.3322297
50
48.2777708
51
77.4996087
0
ARC
8
DEFAULT_255_1_388
10
18.5684106
20
39.3968557
40
0.315966
50
36.3141586
51
47.6307332
0
ARC
8
DEFAULT_255_1_388
10
18.4706828
20
39.3310159
40
0.4337313
50
18.2931065
51
35.6770203
0
ARC
8
DEFAULT_255_1_388
10
18.1845669
20
39.2328107
40
0.7362203
50
8.0246996
51
18.5605636
0
ARC
8
DEFAULT_255_1_388
10
17.7162024
20
39.1636432
40
1.2096583
50
1.127539
51
8.1718423
0
ARC
8
DEFAULT_255_1_388
10
17.3513158
20
39.1493374
40
1.5747719
50
0.5432713
51
1.38669
0
ARC
8
DEFAULT_255_1_388
10
17.5570537
20
39.1800163
40
1.2018103
50
359.8092569
51
4.9408001
0
ARC
8
DEFAULT_255_1_388
10
18.0307118
20
39.22229
40
0.7262727
50
4.8364937
51
12.2906017
0
ARC
8
DEFAULT_255_1_388
10
18.3406583
20
39.2913485
40
0.4087324
50
12.0806994
51
23.8171225
0
ARC
8
DEFAULT_255_1_388
10
18.4726979
20
39.3472508
40
0.2653719
50
24.2874621
51
31.3934353
0
ARC
8
DEFAULT_255_1_388
10
18.5317415
20
39.3858822
40
0.1948607
50
30.7407708
51
82.4658033
0
ARC
8
DEFAULT_255_1_388
10
18.5115075
20
39.2865017
40
0.2961198
50
81.1057101
51
90.2187368
0
ARC
8
DEFAULT_255_1_388
10
18.5074887
20
39.3155421
40
0.2670929
50
89.380395
51
105.6763916
0
ARC
8
DEFAULT_255_1_388
10
18.4868609
20
39.390532
40
0.1893189
50
105.7980655
51
149.7387869
0
ARC
8
DEFAULT_255_1_388
10
18.6065749
20
39.3185719
40
0.3289892
50
149.4208441
51
163.628295
0
ARC
8
DEFAULT_255_1_388
10
18.8417979
20
39.2468345
40
0.5749004
50
163.3764549
51
172.141138
0
ARC
8
DEFAULT_255_1_388
10
19.21307
20
39.1936582
40
0.9499585
50
172.0258462
51
178.0705453
0
ARC
8
DEFAULT_255_1_388
10
19.5552253
20
39.1774682
40
1.2924734
50
177.8639301
51
179.5036263
0
ARC
8
DEFAULT_255_1_388
10
19.4333272
20
38.9171151
40
1.170534
50
179.7995545
51
185.246089
0
ARC
8
DEFAULT_255_1_388
10
18.9784865
20
38.8740404
40
0.7136613
50
185.1411911
51
193.0082205
0
ARC
8
DEFAULT_255_1_388
10
18.6811126
20
38.8037441
40
0.4080987
50
192.7897338
51
205.2507384
0
ARC
8
DEFAULT_255_1_388
10
18.5633336
20
38.7511538
40
0.2791522
50
205.8001921
51
211.2545876
0
ARC
8
DEFAULT_255_1_388
10
18.5044875
20
38.7117132
40
0.2084074
50
210.3789935
51
238.4007996
0
ARC
8
DEFAULT_255_1_388
10
18.5022961
20
38.7169786
40
0.2117943
50
239.6521916
51
265.9793852
0
ARC
8
DEFAULT_255_1_388
10
18.511881
20
38.7926358
40
0.2879689
50
265.1324455
51
270.0603288
0
ARC
8
DEFAULT_255_1_388
10
18.5151187
20
38.7561418
40
0.2514919
50
269.3314378
51
287.2180039
0
ARC
8
DEFAULT_255_1_388
10
18.5306269
20
38.6995291
40
0.1928357
50
287.7957942
51
329.0808983
0
ARC
8
DEFAULT_255_1_388
10
18.4229026
20
38.7667651
40
0.319808
50
328.6635261
51
343.3325043
0
ARC
8
DEFAULT_255_1_388
10
18.1784485
20
38.8429195
40
0.5758408
50
343.0498092
51
351.9392499
0
ARC
8
DEFAULT_255_1_388
10
17.7883806
20
38.9004205
40
0.9701202
50
351.8071632
51
357.7957897
0
ARC
8
DEFAULT_255_1_388
10
17.4249283
20
38.9192724
40
1.3340376
50
357.5870923
51
359.2682493
0
LINE
8
DEFAULT_255_1_388
10
19.9651158
20
39.164269
11
19.9651158
21
38.9474135
0
LINE
8
DEFAULT_255_1_388
10
19.1347401
20
38.9248244
11
19.1347401
21
39.1480048
0
LINE
8
DEFAULT_255_1_388
10
19.7979564
20
38.9022353
11
19.7979564
21
39.1760153
0
LINE
8
DEFAULT_255_1_388
10
19.3018995
20
39.1886652
11
19.3018995
21
38.9212102
0
ARC
8
DEFAULT_255_1_388
10
18.5873492
20
38.9419118
40
1.3777776
50
353.8440855
51
0.2287917
0
ARC
8
DEFAULT_255_1_388
10
19.109251
20
38.8836414
40
0.852639
50
344.4934746
51
353.9763743
0
ARC
8
DEFAULT_255_1_388
10
19.4459317
20
38.7879191
40
0.5026273
50
329.2803599
51
344.7473406
0
ARC
8
DEFAULT_255_1_388
10
19.5574812
20
38.7267038
40
0.3754848
50
324.9361395
51
328.6153007
0
ARC
8
DEFAULT_255_1_388
10
19.6000462
20
38.6969586
40
0.3235566
50
280.5801797
51
324.9173226
0
ARC
8
DEFAULT_255_1_388
10
19.5549091
20
38.8849236
40
0.5167077
50
269.5979457
51
281.6732777
0
ARC
8
DEFAULT_255_1_388
10
19.5467994
20
38.8714113
40
0.5032026
50
256.6228565
51
270.5105488
0
ARC
8
DEFAULT_255_1_388
10
19.5015737
20
38.6972345
40
0.3233092
50
215.8618351
51
257.2787793
0
ARC
8
DEFAULT_255_1_388
10
19.6164444
20
38.7743106
40
0.4615831
50
197.9695203
51
215.2622745
0
ARC
8
DEFAULT_255_1_388
10
19.896012
20
38.8686641
40
0.7566307
50
187.8816486
51
198.2346584
0
ARC
8
DEFAULT_255_1_388
10
20.3413358
20
38.9329453
40
1.2065653
50
180.8977266
51
188.0054894
0
ARC
8
DEFAULT_255_1_388
10
20.6463572
20
38.94444
40
1.5117443
50
180.7434591
51
181.152202
0
ARC
8
DEFAULT_255_1_388
10
20.4788568
20
39.1534371
40
1.3441277
50
173.7674302
51
180.2315596
0
ARC
8
DEFAULT_255_1_388
10
19.9706437
20
39.2108779
40
0.8326847
50
164.3058537
51
173.9000553
0
ARC
8
DEFAULT_255_1_388
10
19.6430437
20
39.3052652
40
0.4917711
50
148.7922028
51
164.5682288
0
ARC
8
DEFAULT_255_1_388
10
19.5361174
20
39.3649457
40
0.3694204
50
144.5883979
51
148.1161588
0
ARC
8
DEFAULT_255_1_388
10
19.4973919
20
39.3919667
40
0.322202
50
101.6440149
51
144.5142619
0
ARC
8
DEFAULT_255_1_388
10
19.5452112
20
39.2019337
40
0.5180451
50
89.528284
51
102.5820197
0
ARC
8
DEFAULT_255_1_388
10
19.5541103
20
39.1975376
40
0.5224441
50
77.0437914
51
90.508231
0
ARC
8
DEFAULT_255_1_388
10
19.5993357
20
39.3823272
40
0.3322297
50
48.2777708
51
77.4996087
0
ARC
8
DEFAULT_255_1_388
10
19.6075097
20
39.3968557
40
0.315966
50
36.3141586
51
47.6307332
0
ARC
8
DEFAULT_255_1_388
10
19.5097819
20
39.3310159
40
0.4337313
50
18.2931065
51
35.6770203
0
ARC
8
DEFAULT_255_1_388
10
19.223666
20
39.2328107
40
0.7362203
50
8.0246996
51
18.5605636
0
ARC
8
DEFAULT_255_1_388
10
18.7553016
20
39.1636432
40
1.2096583
50
1.127539
51
8.1718423
0
ARC
8
DEFAULT_255_1_388
10
18.3904149
20
39.1493374
40
1.5747719
50
0.5432713
51
1.38669
0
ARC
8
DEFAULT_255_1_388
10
18.5961528
20
39.1800163
40
1.2018103
50
359.8092569
51
4.9408001
0
ARC
8
DEFAULT_255_1_388
10
19.0698109
20
39.22229
40
0.7262727
50
4.8364937
51
12.2906017
0
ARC
8
DEFAULT_255_1_388
10
19.3797574
20
39.2913485
40
0.4087324
50
12.0806994
51
23.8171225
0
ARC
8
DEFAULT_255_1_388
10
19.511797
20
39.3472508
40
0.2653719
50
24.2874621
51
31.3934353
0
ARC
8
DEFAULT_255_1_388
10
19.5708406
20
39.3858822
40
0.1948607
50
30.7407708
51
82.4658033
0
ARC
8
DEFAULT_255_1_388
10
19.5506067
20
39.2865017
40
0.2961198
50
81.1057101
51
90.2187368
0
ARC
8
DEFAULT_255_1_388
10
19.5465878
20
39.3155421
40
0.2670929
50
89.380395
51
105.6763916
0
ARC
8
DEFAULT_255_1_388
10
19.52596
20
39.390532
40
0.1893189
50
105.7980655
51
149.7387869
0
ARC
8
DEFAULT_255_1_388
10
19.645674
20
39.3185719
40
0.3289892
50
149.4208441
51
163.628295
0
ARC
8
DEFAULT_255_1_388
10
19.880897
20
39.2468345
40
0.5749004
50
163.3764549
51
172.141138
0
ARC
8
DEFAULT_255_1_388
10
20.2521692
20
39.1936582
40
0.9499585
50
172.0258462
51
178.0705453
0
ARC
8
DEFAULT_255_1_388
10
20.5943244
20
39.1774682
40
1.2924734
50
177.8639301
51
179.5036263
0
ARC
8
DEFAULT_255_1_388
10
20.4724263
20
38.9171151
40
1.170534
50
179.7995545
51
185.246089
0
ARC
8
DEFAULT_255_1_388
10
20.0175856
20
38.8740404
40
0.7136613
50
185.1411911
51
193.0082205
0
ARC
8
DEFAULT_255_1_388
10
19.7202117
20
38.8037441
40
0.4080987
50
192.7897338
51
205.2507384
0
ARC
8
DEFAULT_255_1_388
10
19.6024327
20
38.7511538
40
0.2791522
50
205.8001921
51
211.2545876
0
ARC
8
DEFAULT_255_1_388
10
19.5435866
20
38.7117132
40
0.2084074
50
210.3789935
51
238.4007996
0
ARC
8
DEFAULT_255_1_388
10
19.5413952
20
38.7169786
40
0.2117943
50
239.6521916
51
265.9793852
0
ARC
8
DEFAULT_255_1_388
10
19.5509801
20
38.7926358
40
0.2879689
50
265.1324455
51
270.0603288
0
ARC
8
DEFAULT_255_1_388
10
19.5542178
20
38.7561418
40
0.2514919
50
269.3314378
51
287.2180039
0
ARC
8
DEFAULT_255_1_388
10
19.569726
20
38.6995291
40
0.1928357
50
287.7957942
51
329.0808983
0
ARC
8
DEFAULT_255_1_388
10
19.4620017
20
38.7667651
40
0.319808
50
328.6635261
51
343.3325043
0
ARC
8
DEFAULT_255_1_388
10
19.2175476
20
38.8429195
40
0.5758408
50
343.0498092
51
351.9392499
0
ARC
8
DEFAULT_255_1_388
10
18.8274797
20
38.9004205
40
0.9701202
50
351.8071632
51
357.7957897
0
ARC
8
DEFAULT_255_1_388
10
18.4640274
20
38.9192724
40
1.3340376
50
357.5870923
51
359.2682493
0
LINE
8
DEFAULT_255_1_388
10
21.0042149
20
39.164269
11
21.0042149
21
38.9474135
0
LINE
8
DEFAULT_255_1_388
10
20.1738392
20
38.9248244
11
20.1738392
21
39.1480048
0
LINE
8
DEFAULT_255_1_388
10
20.8370555
20
38.9022353
11
20.8370555
21
39.1760153
0
LINE
8
DEFAULT_255_1_388
10
20.3409986
20
39.1886652
11
20.3409986
21
38.9212102
0
ARC
8
DEFAULT_255_1_388
10
19.6264483
20
38.9419118
40
1.3777776
50
353.8440855
51
0.2287917
0
ARC
8
DEFAULT_255_1_388
10
20.1483501
20
38.8836414
40
0.852639
50
344.4934746
51
353.9763743
0
ARC
8
DEFAULT_255_1_388
10
20.4850308
20
38.7879191
40
0.5026273
50
329.2803599
51
344.7473406
0
ARC
8
DEFAULT_255_1_388
10
20.5965804
20
38.7267038
40
0.3754848
50
324.9361395
51
328.6153007
0
ARC
8
DEFAULT_255_1_388
10
20.6391453
20
38.6969586
40
0.3235566
50
280.5801797
51
324.9173226
0
ARC
8
DEFAULT_255_1_388
10
20.5940082
20
38.8849236
40
0.5167077
50
269.5979457
51
281.6732777
0
ARC
8
DEFAULT_255_1_388
10
20.5858986
20
38.8714113
40
0.5032026
50
256.6228565
51
270.5105488
0
ARC
8
DEFAULT_255_1_388
10
20.5406728
20
38.6972345
40
0.3233092
50
215.8618351
51
257.2787793
0
ARC
8
DEFAULT_255_1_388
10
20.6555435
20
38.7743106
40
0.4615831
50
197.9695203
51
215.2622745
0
ARC
8
DEFAULT_255_1_388
10
20.9351111
20
38.8686641
40
0.7566307
50
187.8816486
51
198.2346584
0
ARC
8
DEFAULT_255_1_388
10
21.3804349
20
38.9329453
40
1.2065653
50
180.8977266
51
188.0054894
0
ARC
8
DEFAULT_255_1_388
10
21.6854563
20
38.94444
40
1.5117443
50
180.7434591
51
181.152202
0
ARC
8
DEFAULT_255_1_388
10
21.5179559
20
39.1534371
40
1.3441277
50
173.7674302
51
180.2315596
0
ARC
8
DEFAULT_255_1_388
10
21.0097428
20
39.2108779
40
0.8326847
50
164.3058537
51
173.9000553
0
ARC
8
DEFAULT_255_1_388
10
20.6821428
20
39.3052652
40
0.4917711
50
148.7922028
51
164.5682288
0
ARC
8
DEFAULT_255_1_388
10
20.5752165
20
39.3649457
40
0.3694204
50
144.5883979
51
148.1161588
0
ARC
8
DEFAULT_255_1_388
10
20.5364911
20
39.3919667
40
0.322202
50
101.6440149
51
144.5142619
0
ARC
8
DEFAULT_255_1_388
10
20.5843103
20
39.2019337
40
0.5180451
50
89.528284
51
102.5820197
0
ARC
8
DEFAULT_255_1_388
10
20.5932095
20
39.1975376
40
0.5224441
50
77.0437914
51
90.508231
0
ARC
8
DEFAULT_255_1_388
10
20.6384348
20
39.3823272
40
0.3322297
50
48.2777708
51
77.4996087
0
ARC
8
DEFAULT_255_1_388
10
20.6466088
20
39.3968557
40
0.315966
50
36.3141586
51
47.6307332
0
ARC
8
DEFAULT_255_1_388
10
20.5488811
20
39.3310159
40
0.4337313
50
18.2931065
51
35.6770203
0
ARC
8
DEFAULT_255_1_388
10
20.2627651
20
39.2328107
40
0.7362203
50
8.0246996
51
18.5605636
0
ARC
8
DEFAULT_255_1_388
10
19.7944007
20
39.1636432
40
1.2096583
50
1.127539
51
8.1718423
0
ARC
8
DEFAULT_255_1_388
10
19.429514
20
39.1493374
40
1.5747719
50
0.5432713
51
1.38669
0
ARC
8
DEFAULT_255_1_388
10
19.6352519
20
39.1800163
40
1.2018103
50
359.8092569
51
4.9408001
0
ARC
8
DEFAULT_255_1_388
10
20.10891
20
39.22229
40
0.7262727
50
4.8364937
51
12.2906017
0
ARC
8
DEFAULT_255_1_388
10
20.4188565
20
39.2913485
40
0.4087324
50
12.0806994
51
23.8171225
0
ARC
8
DEFAULT_255_1_388
10
20.5508961
20
39.3472508
40
0.2653719
50
24.2874621
51
31.3934353
0
ARC
8
DEFAULT_255_1_388
10
20.6099397
20
39.3858822
40
0.1948607
50
30.7407708
51
82.4658033
0
ARC
8
DEFAULT_255_1_388
10
20.5897058
20
39.2865017
40
0.2961198
50
81.1057101
51
90.2187368
0
ARC
8
DEFAULT_255_1_388
10
20.585687
20
39.3155421
40
0.2670929
50
89.380395
51
105.6763916
0
ARC
8
DEFAULT_255_1_388
10
20.5650592
20
39.390532
40
0.1893189
50
105.7980655
51
149.7387869
0
ARC
8
DEFAULT_255_1_388
10
20.6847732
20
39.3185719
40
0.3289892
50
149.4208441
51
163.628295
0
ARC
8
DEFAULT_255_1_388
10
20.9199961
20
39.2468345
40
0.5749004
50
163.3764549
51
172.141138
0
ARC
8
DEFAULT_255_1_388
10
21.2912683
20
39.1936582
40
0.9499585
50
172.0258462
51
178.0705453
0
ARC
8
DEFAULT_255_1_388
10
21.6334236
20
39.1774682
40
1.2924734
50
177.8639301
51
179.5036263
0
ARC
8
DEFAULT_255_1_388
10
21.5115254
20
38.9171151
40
1.170534
50
179.7995545
51
185.246089
0
ARC
8
DEFAULT_255_1_388
10
21.0566847
20
38.8740404
40
0.7136613
50
185.1411911
51
193.0082205
0
ARC
8
DEFAULT_255_1_388
10
20.7593108
20
38.8037441
40
0.4080987
50
192.7897338
51
205.2507384
0
ARC
8
DEFAULT_255_1_388
10
20.6415318
20
38.7511538
40
0.2791522
50
205.8001921
51
211.2545876
0
ARC
8
DEFAULT_255_1_388
10
20.5826857
20
38.7117132
40
0.2084074
50
210.3789935
51
238.4007996
0
ARC
8
DEFAULT_255_1_388
10
20.5804943
20
38.7169786
40
0.2117943
50
239.6521916
51
265.9793852
0
ARC
8
DEFAULT_255_1_388
10
20.5900792
20
38.7926358
40
0.2879689
50
265.1324455
51
270.0603288
0
ARC
8
DEFAULT_255_1_388
10
20.5933169
20
38.7561418
40
0.2514919
50
269.3314378
51
287.2180039
0
ARC
8
DEFAULT_255_1_388
10
20.6088251
20
38.6995291
40
0.1928357
50
287.7957942
51
329.0808983
0
ARC
8
DEFAULT_255_1_388
10
20.5011008
20
38.7667651
40
0.319808
50
328.6635261
51
343.3325043
0
ARC
8
DEFAULT_255_1_388
10
20.2566467
20
38.8429195
40
0.5758408
50
343.0498092
51
351.9392499
0
ARC
8
DEFAULT_255_1_388
10
19.8665789
20
38.9004205
40
0.9701202
50
351.8071632
51
357.7957897
0
ARC
8
DEFAULT_255_1_388
10
19.5031266
20
38.9192724
40
1.3340376
50
357.5870923
51
359.2682493
0
ARC
8
DEFAULT_255_2_778
10
8.4842378
20
42.3808433
40
0.4373747
50
56.3665942
51
72.7074496
0
ARC
8
DEFAULT_255_2_778
10
8.5215053
20
42.4944036
40
0.3178747
50
73.036784
51
89.7973226
0
ARC
8
DEFAULT_255_2_778
10
8.5288513
20
42.4720167
40
0.3403165
50
91.0475309
51
125.5485458
0
ARC
8
DEFAULT_255_2_778
10
8.6945904
20
42.2231582
40
0.6392287
50
124.6669492
51
139.114563
0
ARC
8
DEFAULT_255_2_778
10
8.9360319
20
41.9997476
40
0.9680575
50
138.4713305
51
142.1157612
0
ARC
8
DEFAULT_255_2_778
10
8.5585787
20
42.0304798
40
0.5212765
50
117.7453356
51
135.8758074
0
ARC
8
DEFAULT_255_2_778
10
8.4614378
20
42.2128273
40
0.3146729
50
90.4656379
51
117.5483702
0
ARC
8
DEFAULT_255_2_778
10
8.4553272
20
42.1975634
40
0.3299454
50
64.3679478
51
89.3829577
0
ARC
8
DEFAULT_255_2_778
10
8.4230062
20
42.1159901
40
0.4175182
50
64.8738747
51
65.2115951
0
LINE
8
DEFAULT_255_2_778
10
8.1719896
20
42.5942008
11
8.1719896
21
42.7702008
0
LINE
8
DEFAULT_255_2_778
10
8.1719896
20
42.7702008
11
7.8316896
21
42.7702008
0
LINE
8
DEFAULT_255_2_778
10
7.8316896
20
42.7702008
11
7.8316896
21
41.5515008
0
LINE
8
DEFAULT_255_2_778
10
7.8316896
20
41.5515008
11
8.1970896
21
41.5515008
0
LINE
8
DEFAULT_255_2_778
10
8.1970896
20
41.5515008
11
8.1843896
21
42.3934008
0
LINE
8
DEFAULT_255_2_778
10
8.6002896
20
42.4940008
11
8.7264896
21
42.7450008
0
ARC
8
DEFAULT_255_2_778
10
12.3462297
20
41.9389166
40
0.1058286
50
290.4109967
51
338.4144294
0
ARC
8
DEFAULT_255_2_778
10
12.162295
20
42.308021
40
0.5177505
50
282.5203845
51
295.2483499
0
ARC
8
DEFAULT_255_2_778
10
12.2164596
20
42.1746179
40
0.3756367
50
270.2518229
51
277.9224239
0
ARC
8
DEFAULT_255_2_778
10
12.2019255
20
41.9621058
40
0.163922
50
191.9135594
51
275.6664103
0
ARC
8
DEFAULT_255_2_778
10
12.266424
20
42.0896972
40
0.6680449
50
207.8643513
51
221.7718618
0
ARC
8
DEFAULT_255_2_778
10
12.0489477
20
41.8832613
40
0.3684417
50
220.3588923
51
270.0277924
0
ARC
8
DEFAULT_255_2_778
10
12.0434926
20
42.0153085
40
0.5005206
50
270.6449322
51
287.6494066
0
ARC
8
DEFAULT_255_2_778
10
11.9529907
20
42.3112608
40
0.8099892
50
287.4026496
51
297.6988649
0
ARC
8
DEFAULT_255_2_778
10
11.7449905
20
42.7144576
40
1.2636684
50
297.5514274
51
304.3018591
0
LINE
8
DEFAULT_255_2_778
10
12.0415344
20
41.9282664
11
12.0351344
21
42.7762664
0
LINE
8
DEFAULT_255_2_778
10
12.0351344
20
42.7762664
11
11.6758344
21
42.7762664
0
LINE
8
DEFAULT_255_2_778
10
11.6758344
20
42.7762664
11
11.6758344
21
41.7774664
0
LINE
8
DEFAULT_255_2_778
10
12.4571344
20
41.6705664
11
12.4698344
21
41.5575664
0
LINE
8
DEFAULT_255_2_778
10
12.4698344
20
41.5575664
11
12.8101344
21
41.5575664
0
LINE
8
DEFAULT_255_2_778
10
12.8101344
20
41.5575664
11
12.8101344
21
42.7889664
0
LINE
8
DEFAULT_255_2_778
10
12.8101344
20
42.7889664
11
12.4444344
21
42.7889664
0
LINE
8
DEFAULT_255_2_778
10
12.4444344
20
42.7889664
11
12.4444344
21
41.8967664
0
LINE
8
DEFAULT_255_2_778
10
15.1797344
20
41.5512664
11
15.1797344
21
42.7826664
0
LINE
8
DEFAULT_255_2_778
10
15.1797344
20
42.7826664
11
15.5453344
21
42.7826664
0
LINE
8
DEFAULT_255_2_778
10
15.5453344
20
42.7826664
11
15.5453344
21
41.5512664
0
LINE
8
DEFAULT_255_2_778
10
15.5453344
20
41.5512664
11
15.1797344
21
41.5512664
0
ARC
8
DEFAULT_255_2_778
10
15.3647435
20
43.175366
40
0.1978332
50
90.7257917
51
180.9507563
0
ARC
8
DEFAULT_255_2_778
10
15.3597161
20
43.1754493
40
0.1977501
50
359.0247012
51
89.2694187
0
ARC
8
DEFAULT_255_2_778
10
15.3597161
20
43.1687174
40
0.1977501
50
270.7305813
51
0.9752988
0
ARC
8
DEFAULT_255_2_778
10
15.3647435
20
43.1688007
40
0.1978332
50
179.0492437
51
269.2742083
0
LINE
8
DEFAULT_255_2_778
10
15.1669375
20
43.1720833
11
15.1669375
21
43.1720833
0
LINE
8
DEFAULT_255_2_778
10
16.8729729
20
41.5479854
11
16.8729729
21
42.7793854
0
LINE
8
DEFAULT_255_2_778
10
16.8729729
20
42.7793854
11
17.2386729
21
42.7793854
0
LINE
8
DEFAULT_255_2_778
10
17.2386729
20
42.7793854
11
17.2386729
21
41.5479854
0
LINE
8
DEFAULT_255_2_778
10
17.2386729
20
41.5479854
11
16.8729729
21
41.5479854
0
ARC
8
DEFAULT_255_2_778
10
17.0581435
20
43.172166
40
0.1978332
50
90.7257917
51
180.9507563
0
ARC
8
DEFAULT_255_2_778
10
17.0531161
20
43.1722493
40
0.1977501
50
359.0247012
51
89.2694187
0
ARC
8
DEFAULT_255_2_778
10
17.0531161
20
43.1655174
40
0.1977501
50
270.7305813
51
0.9752988
0
ARC
8
DEFAULT_255_2_778
10
17.0581435
20
43.1656007
40
0.1978332
50
179.0492437
51
269.2742083
0
LINE
8
DEFAULT_255_2_778
10
16.8603375
20
43.1688833
11
16.8603375
21
43.1688833
0
ARC
8
DEFAULT_255_2_778
10
21.970418
20
41.4064227
40
0.3997146
50
186.2131711
51
214.6577436
0
ARC
8
DEFAULT_255_2_778
10
21.8841491
20
41.3668601
40
0.3066997
50
217.744646
51
266.8145684
0
ARC
8
DEFAULT_255_2_778
10
21.9237244
20
41.5777036
40
0.5201599
50
263.7511447
51
266.7848801
0
ARC
8
DEFAULT_255_2_778
10
21.9002471
20
41.3834163
40
0.2402213
50
195.2759813
51
268.6413445
0
ARC
8
DEFAULT_255_2_778
10
22.1728439
20
41.5090818
40
0.5385664
50
193.3133601
51
200.5393414
0
ARC
8
DEFAULT_255_2_778
10
21.9558314
20
41.3561054
40
0.3084425
50
141.9154932
51
174.6130531
0
ARC
8
DEFAULT_255_2_778
10
21.8946765
20
41.3820396
40
0.2449229
50
90.0292982
51
137.86297
0
ARC
8
DEFAULT_255_2_778
10
21.8900311
20
41.4001835
40
0.3117117
50
89.169111
51
162.3562446
0
ARC
8
DEFAULT_255_2_778
10
22.1495641
20
41.2685256
40
0.6007672
50
157.8882743
51
162.6116909
0
ARC
8
DEFAULT_255_2_778
10
13.7518475
20
41.960969
40
0.434232
50
284.0737984
51
307.1283935
0
ARC
8
DEFAULT_255_2_778
10
13.6603344
20
42.2975455
40
0.7829896
50
272.5675489
51
284.5802087
0
ARC
8
DEFAULT_255_2_778
10
13.6344156
20
42.6564403
40
1.1427274
50
269.9523961
51
273.0596894
0
ARC
8
DEFAULT_255_2_778
10
13.6383034
20
43.0381179
40
1.5244123
50
264.3721605
51
269.8181894
0
ARC
8
DEFAULT_255_2_778
10
13.7027881
20
43.7098919
40
2.1992727
50
260.3040359
51
264.4165702
0
ARC
8
DEFAULT_255_2_778
10
13.7920902
20
44.2623156
40
2.75885
50
259.2299789
51
260.4081406
0
ARC
8
DEFAULT_255_2_778
10
13.5130405
20
42.1118783
40
0.6077178
50
188.8927198
51
247.0988028
0
ARC
8
DEFAULT_255_2_778
10
13.8555895
20
42.2030217
40
0.9609548
50
185.1081288
51
191.1050073
0
ARC
8
DEFAULT_255_2_778
10
13.7233792
20
42.130517
40
0.8250312
50
161.5072483
51
180.9066349
0
ARC
8
DEFAULT_255_2_778
10
13.4744453
20
42.2092627
40
0.5639907
50
120.4701872
51
161.0725957
0
ARC
8
DEFAULT_255_2_778
10
13.5600933
20
42.142527
40
0.6661417
50
90.0499347
51
123.9108507
0
ARC
8
DEFAULT_255_2_778
10
13.573003
20
41.985998
40
0.8227812
50
89.9974966
51
90.9394619
0
ARC
8
DEFAULT_255_2_778
10
13.567053
20
41.8249594
40
0.9838382
50
77.8335832
51
89.6513936
0
ARC
8
DEFAULT_255_2_778
10
13.4795686
20
41.4070554
40
1.4107957
50
69.8093959
51
77.9373312
0
ARC
8
DEFAULT_255_2_778
10
13.3760065
20
41.1052908
40
1.7297745
50
69.0266426
51
70.0397415
0
ARC
8
DEFAULT_255_2_778
10
13.5343739
20
41.1272164
40
1.4359408
50
73.9178594
51
79.2452957
0
ARC
8
DEFAULT_255_2_778
10
13.6318735
20
41.6475106
40
0.9065925
50
79.1629935
51
86.6049203
0
ARC
8
DEFAULT_255_2_778
10
13.649902
20
41.898833
40
0.654651
50
86.8774046
51
89.9568351
0
ARC
8
DEFAULT_255_2_778
10
13.64243
20
42.1361025
40
0.4174572
50
88.9067133
51
108.0688095
0
ARC
8
DEFAULT_255_2_778
10
13.5852023
20
42.3098459
40
0.2345328
50
107.942404
51
152.2459688
0
ARC
8
DEFAULT_255_2_778
10
14.2993316
20
41.9795872
40
1.0210941
50
154.5072776
51
162.5682748
0
ARC
8
DEFAULT_255_2_778
10
13.9273868
20
42.0943314
40
0.6318603
50
162.3915767
51
174.8213024
0
ARC
8
DEFAULT_255_2_778
10
13.7622439
20
42.1131421
40
0.4657093
50
175.2922289
51
179.9490984
0
ARC
8
DEFAULT_255_2_778
10
13.635088
20
42.1057528
40
0.338643
50
178.6796766
51
234.9381893
0
ARC
8
DEFAULT_255_2_778
10
13.6327313
20
42.1174177
40
0.3469445
50
236.3635337
51
264.9414885
0
ARC
8
DEFAULT_255_2_778
10
13.6587955
20
42.2929041
40
0.5241505
50
263.7947872
51
270.1188666
0
ARC
8
DEFAULT_255_2_778
10
13.6535226
20
42.5302912
40
0.7615633
50
270.4785196
51
281.0719661
0
ARC
8
DEFAULT_255_2_778
10
13.5692117
20
42.9841518
40
1.2231753
50
280.8649891
51
287.2606546
0
ARC
8
DEFAULT_255_2_778
10
14.6239491
20
43.8170775
40
2.2970478
50
276.5245429
51
279.5045514
0
ARC
8
DEFAULT_255_2_778
10
14.6893389
20
43.2394423
40
1.7157236
50
272.7759418
51
276.5469051
0
ARC
8
DEFAULT_255_2_778
10
14.7091281
20
42.8591849
40
1.3349546
50
270.0439674
51
272.7180028
0
ARC
8
DEFAULT_255_2_778
10
14.7005118
20
42.3910255
40
0.8668484
50
258.6359382
51
270.6372354
0
ARC
8
DEFAULT_255_2_778
10
14.6078537
20
41.9551002
40
0.4212409
50
235.5405817
51
259.3086539
0
ARC
8
DEFAULT_255_2_778
10
14.5467662
20
41.8477689
40
0.2983588
50
181.5929591
51
233.550276
0
ARC
8
DEFAULT_255_2_778
10
14.7449853
20
41.8777298
40
0.4979343
50
179.9387066
51
184.4062155
0
ARC
8
DEFAULT_255_2_778
10
14.8385536
20
41.9737996
40
0.2332136
50
194.3846046
51
259.805052
0
ARC
8
DEFAULT_255_2_778
10
14.9431857
20
42.3390482
40
0.6124159
50
256.2164989
51
270.9014371
0
ARC
8
DEFAULT_255_2_778
10
14.9523166
20
42.7059885
40
0.9792806
50
270.0294815
51
272.249316
0
LINE
8
DEFAULT_255_2_778
10
15.5956513
20
42.7762625
11
15.9422513
21
42.7762625
0
LINE
8
DEFAULT_255_2_778
10
15.9422513
20
42.7762625
11
16.2131513
21
42.0349625
0
LINE
8
DEFAULT_255_2_778
10
16.2131513
20
42.0349625
11
16.4840513
21
42.7826625
0
LINE
8
DEFAULT_255_2_778
10
16.4840513
20
42.7826625
11
16.7928513
21
42.7826625
0
LINE
8
DEFAULT_255_2_778
10
16.7928513
20
42.7826625
11
16.2885513
21
41.5324625
0
LINE
8
DEFAULT_255_2_778
10
16.2885513
20
41.5324625
11
16.0678513
21
41.5324625
0
LINE
8
DEFAULT_255_2_778
10
16.0678513
20
41.5324625
11
15.5956513
21
42.7762625
0
LINE
8
DEFAULT_255_2_778
10
6.2182513
20
43.4046625
11
6.3002513
21
43.4046625
0
LINE
8
DEFAULT_255_2_778
10
6.3002513
20
43.4046625
11
6.3002513
21
41.4477625
0
LINE
8
DEFAULT_255_2_778
10
6.3002513
20
41.4477625
11
18.5070513
21
41.4446625
0
LINE
8
DEFAULT_255_2_778
10
18.5070513
20
41.4446625
11
18.5102513
21
41.3628625
0
LINE
8
DEFAULT_255_2_778
10
18.5102513
20
41.3628625
11
6.2182513
21
41.3628625
0
LINE
8
DEFAULT_255_2_778
10
6.2182513
20
41.3628625
11
6.2182513
21
43.3983625
0
LINE
8
DEFAULT_255_2_778
10
18.9671513
20
41.4509625
11
18.9671513
21
41.3631625
0
LINE
8
DEFAULT_255_2_778
10
18.9671513
20
41.3631625
11
21.5730513
21
41.3631625
0
LINE
8
DEFAULT_255_2_778
10
21.8945513
20
41.0583625
11
21.8945513
21
41.1432625
0
LINE
8
DEFAULT_255_2_778
10
21.8945513
20
41.6269625
11
21.8945513
21
41.7118625
0
LINE
8
DEFAULT_255_2_778
10
21.5762513
20
41.4480625
11
18.9735513
21
41.4480625
0
LINE
8
DEFAULT_255_2_778
10
13.9382513
20
41.8158625
11
14.0139513
21
41.6147625
0
LINE
8
DEFAULT_255_2_778
10
13.9951513
20
42.7204625
11
13.9321513
21
42.5069625
0
LINE
8
DEFAULT_255_2_778
10
14.2470513
20
41.8782625
11
14.2470513
21
42.5690625
0
LINE
8
DEFAULT_255_2_778
10
14.2470513
20
42.5690625
11
14.0578513
21
42.5690625
0
LINE
8
DEFAULT_255_2_778
10
14.0578513
20
42.5690625
11
14.0578513
21
42.7826625
0
LINE
8
DEFAULT_255_2_778
10
14.0578513
20
42.7826625
11
14.2470513
21
42.7826625
0
LINE
8
DEFAULT_255_2_778
10
14.2470513
20
42.7826625
11
14.3856513
21
43.2850625
0
LINE
8
DEFAULT_255_2_778
10
14.3856513
20
43.2850625
11
14.5999513
21
43.2850625
0
LINE
8
DEFAULT_255_2_778
10
14.5999513
20
43.2850625
11
14.6126513
21
42.7826625
0
LINE
8
DEFAULT_255_2_778
10
14.6126513
20
42.7826625
11
14.9529513
21
42.7826625
0
LINE
8
DEFAULT_255_2_778
10
14.9529513
20
42.7826625
11
14.9529513
21
42.5690625
0
LINE
8
DEFAULT_255_2_778
10
14.9529513
20
42.5690625
11
14.6126513
21
42.5690625
0
LINE
8
DEFAULT_255_2_778
10
14.6126513
20
42.5690625
11
14.6126513
21
41.9158625
0
LINE
8
DEFAULT_255_2_778
10
14.9907513
20
41.7274625
11
15.0032513
21
41.5515625
0
ARC
8
DEFAULT_255_2_778
10
18.2771567
20
41.4108016
40
0.588921
50
314.1465216
51
331.9330914
0
ARC
8
DEFAULT_255_2_778
10
18.4147245
20
41.2706113
40
0.3925118
50
269.0312524
51
313.9901377
0
ARC
8
DEFAULT_255_2_778
10
18.4130071
20
41.4629619
40
0.584827
50
255.6549108
51
269.5180973
0
ARC
8
DEFAULT_255_2_778
10
18.4880411
20
41.7661139
40
0.8971207
50
246.7072254
51
255.8091359
0
ARC
8
DEFAULT_255_2_778
10
18.6124803
20
42.0686796
40
1.2242447
50
243.4735796
51
246.9574492
0
ARC
8
DEFAULT_255_2_778
10
18.3377307
20
41.4993958
40
0.365718
50
238.6975405
51
269.7536991
0
ARC
8
DEFAULT_255_2_778
10
18.3341625
20
41.5333672
40
0.3996911
50
270.2861506
51
285.9235992
0
ARC
8
DEFAULT_255_2_778
10
18.3190528
20
41.3540257
40
0.2399938
50
301.3239159
51
328.5484084
0
ARC
8
DEFAULT_255_2_778
10
17.8344662
20
41.6802796
40
0.8240117
50
326.7768178
51
337.3925755
0
ARC
8
DEFAULT_255_2_778
10
16.7758869
20
42.1389406
40
1.9776351
50
336.9149998
51
342.1307954
0
ARC
8
DEFAULT_255_2_778
10
18.1003835
20
41.9435501
40
0.1954042
50
190.120766
51
263.958695
0
ARC
8
DEFAULT_255_2_778
10
18.1765334
20
42.2461691
40
0.5062622
50
258.9866291
51
270.5697296
0
ARC
8
DEFAULT_255_2_778
10
18.179421
20
42.5636009
40
0.8236717
50
270.1493118
51
275.0745303
0
ARC
8
DEFAULT_255_2_778
10
18.1623931
20
42.7806991
40
1.0414275
50
274.9512067
51
276.4741818
0
ARC
8
DEFAULT_255_2_778
10
17.8865118
20
44.0369593
40
2.5197089
50
276.512457
51
279.4178429
0
ARC
8
DEFAULT_255_2_778
10
17.9623799
20
43.3666109
40
1.8450814
50
272.9002784
51
276.532699
0
ARC
8
DEFAULT_255_2_778
10
17.9860581
20
42.924308
40
1.4021477
50
270.0528156
51
272.8484525
0
ARC
8
DEFAULT_255_2_778
10
17.9780255
20
42.4155179
40
0.8934054
50
259.5071449
51
270.5980454
0
ARC
8
DEFAULT_255_2_778
10
17.887913
20
41.9545607
40
0.4237716
50
238.7101736
51
260.1371304
0
ARC
8
DEFAULT_255_2_778
10
17.8040731
20
41.8081077
40
0.2551147
50
181.256628
51
237.7180126
0
LINE
8
DEFAULT_255_2_778
10
18.0657198
20
40.9733129
11
18.1477198
21
41.1869129
0
LINE
8
DEFAULT_255_2_778
10
18.6581198
20
41.5321129
11
18.2295198
21
42.5624129
0
LINE
8
DEFAULT_255_2_778
10
18.2295198
20
42.5624129
11
17.9080198
21
42.5624129
0
LINE
8
DEFAULT_255_2_778
10
17.9080198
20
42.5624129
11
17.9080198
21
41.9092129
0
LINE
8
DEFAULT_255_2_778
10
18.2798198
20
41.7459129
11
18.2988198
21
41.5512129
0
LINE
8
DEFAULT_255_2_778
10
17.5490198
20
41.8025129
11
17.5363198
21
42.5690129
0
LINE
8
DEFAULT_255_2_778
10
17.5363198
20
42.5690129
11
17.3471198
21
42.5690129
0
LINE
8
DEFAULT_255_2_778
10
17.3471198
20
42.5690129
11
17.3471198
21
42.7826129
0
LINE
8
DEFAULT_255_2_778
10
17.3471198
20
42.7826129
11
17.5487198
21
42.7826129
0
LINE
8
DEFAULT_255_2_778
10
17.5487198
20
42.7826129
11
17.6747198
21
43.2850129
0
LINE
8
DEFAULT_255_2_778
10
17.6747198
20
43.2850129
11
17.8890198
21
43.2850129
0
LINE
8
DEFAULT_255_2_778
10
17.8890198
20
43.2850129
11
17.9017198
21
42.7826129
0
LINE
8
DEFAULT_255_2_778
10
17.9017198
20
42.7826129
11
18.5319198
21
42.7826129
0
LINE
8
DEFAULT_255_2_778
10
18.5319198
20
42.7826129
11
18.8343198
21
41.9534129
0
LINE
8
DEFAULT_255_2_778
10
18.8343198
20
41.9534129
11
19.1367198
21
42.7826129
0
LINE
8
DEFAULT_255_2_778
10
19.1367198
20
42.7826129
11
19.4519198
21
42.7826129
0
LINE
8
DEFAULT_255_2_778
10
19.4519198
20
42.7826129
11
18.7965198
21
41.1366129
0
ARC
8
DEFAULT_255_2_778
10
19.6924911
20
42.7365064
40
0.0240119
50
28.9725327
51
103.4850922
0
ARC
8
DEFAULT_255_2_778
10
19.6675258
20
42.5213978
40
0.2392435
50
85.3570436
51
90.3180147
0
ARC
8
DEFAULT_255_2_778
10
19.68302
20
42.1249354
40
0.7352792
50
91.4451573
51
94.5103719
0
ARC
8
DEFAULT_255_2_778
10
19.6762642
20
42.3500413
40
0.5100756
50
90.0204387
51
91.3242457
0
ARC
8
DEFAULT_255_2_778
10
19.6820782
20
42.6287926
40
0.231402
50
77.5838349
51
91.484776
0
ARC
8
DEFAULT_255_2_778
10
19.7300541
20
42.8229087
40
0.0319233
50
15.1916927
51
86.8071299
0
ARC
8
DEFAULT_255_2_778
10
19.7392759
20
42.8290197
40
0.0217032
50
359.9550511
51
5.9623374
0
ARC
8
DEFAULT_255_2_778
10
19.7113423
20
42.8339073
40
0.0498786
50
318.6903529
51
354.3569627
0
ARC
8
DEFAULT_255_2_778
10
19.59333
20
42.9214286
40
0.1966754
50
312.4194177
51
322.2354785
0
ARC
8
DEFAULT_255_2_778
10
19.7074456
20
42.7334292
40
0.0466555
50
7.7623904
51
66.56899
0
ARC
8
DEFAULT_255_2_778
10
19.5728806
20
42.7054086
40
0.184022
50
4.3922991
51
10.7492459
0
ARC
8
DEFAULT_255_2_778
10
19.7790464
20
42.7157679
40
0.0229895
50
170.6523659
51
230.6545988
0
ARC
8
DEFAULT_255_2_778
10
19.7669101
20
42.7062613
40
0.0086241
50
253.5721784
51
270.5831571
0
ARC
8
DEFAULT_255_2_778
10
19.6864906
20
42.8029188
40
0.034333
50
13.334954
51
106.2290103
0
ARC
8
DEFAULT_255_2_778
10
19.6694514
20
42.655895
40
0.1801426
50
87.631716
51
90.0488074
0
ARC
8
DEFAULT_255_2_778
10
19.6792828
20
42.8548746
40
0.0666888
50
261.3891358
51
304.5653386
0
ARC
8
DEFAULT_255_2_778
10
19.7080184
20
42.8075951
40
0.0118802
50
319.9940947
51
0.6866831
0
ARC
8
DEFAULT_255_2_778
10
19.6909745
20
42.7794613
40
0.1602765
50
89.8843696
51
180.00852
0
ARC
8
DEFAULT_255_2_778
10
19.6918123
20
42.7796526
40
0.1600857
50
359.923006
51
90.1841118
0
ARC
8
DEFAULT_255_2_778
10
19.6917276
20
42.7792075
40
0.1601705
50
269.8462838
51
0.0822692
0
ARC
8
DEFAULT_255_2_778
10
19.6908681
20
42.7792074
40
0.1601705
50
179.9177057
51
270.1537517
0
ARC
8
DEFAULT_255_2_778
10
19.6941702
20
42.7805588
40
0.1256773
50
179.9900739
51
180.5112141
0
ARC
8
DEFAULT_255_2_778
10
19.6929324
20
42.7806978
40
0.1244397
50
135.616881
51
180.0539568
0
ARC
8
DEFAULT_255_2_778
10
19.6926982
20
42.7809377
40
0.1241046
50
90.5079979
51
135.6204406
0
ARC
8
DEFAULT_255_2_778
10
19.6904941
20
42.7811676
40
0.1238749
50
44.3347873
51
89.4894407
0
ARC
8
DEFAULT_255_2_778
10
19.6901635
20
42.7806978
40
0.1244397
50
359.9460432
51
44.383119
0
ARC
8
DEFAULT_255_2_778
10
19.6889256
20
42.7805588
40
0.1256775
50
359.4887859
51
0.0099261
0
ARC
8
DEFAULT_255_2_778
10
19.6889212
20
42.7783161
40
0.1256817
50
359.9900717
51
0.5112118
0
ARC
8
DEFAULT_255_2_778
10
19.6899314
20
42.7781718
40
0.1246718
50
315.6604182
51
0.0563277
0
ARC
8
DEFAULT_255_2_778
10
19.690317
20
42.7780233
40
0.1242924
50
270.5905059
51
315.5851458
0
ARC
8
DEFAULT_255_2_778
10
19.6928761
20
42.7782548
40
0.1245239
50
224.4596468
51
269.4118891
0
ARC
8
DEFAULT_255_2_778
10
19.6931644
20
42.7781718
40
0.1246718
50
179.9436723
51
224.3395818
0
ARC
8
DEFAULT_255_2_778
10
19.6941746
20
42.7783161
40
0.1256819
50
179.4887882
51
180.0099283
0
LINE
8
DEFAULT_255_2_778
10
19.7671979
20
42.6979375
11
19.7261979
21
42.6979375
0
LINE
8
DEFAULT_255_2_778
10
19.7261979
20
42.6979375
11
19.7134979
21
42.7481375
0
LINE
8
DEFAULT_255_2_778
10
19.6661979
20
42.7606375
11
19.6661979
21
42.6979375
0
LINE
8
DEFAULT_255_2_778
10
19.6661979
20
42.6979375
11
19.6282979
21
42.6979375
0
LINE
8
DEFAULT_255_2_778
10
19.6282979
20
42.6979375
11
19.6251979
21
42.8579375
0
LINE
8
DEFAULT_255_2_778
10
19.7669979
20
42.6976375
11
19.7671979
21
42.6979375
0
LINE
8
DEFAULT_255_2_778
10
19.6692979
20
42.8360375
11
19.6692979
21
42.7889375
0
LINE
8
DEFAULT_255_2_778
10
19.5306979
20
42.7794375
11
19.5306979
21
42.7794375
0
LINE
8
DEFAULT_255_2_778
10
19.5684979
20
42.7794375
11
19.5684979
21
42.7794375
0
LINE
8
DEFAULT_255_2_778
10
11.0900688
20
42.5068698
11
11.0900688
21
41.8785698
0
ARC
8
DEFAULT_255_2_778
10
10.4258178
20
43.0717512
40
1.3656176
50
292.8223416
51
299.1049387
0
ARC
8
DEFAULT_255_2_778
10
10.6923229
20
42.4300623
40
0.6708024
50
282.4794629
51
293.1002978
0
ARC
8
DEFAULT_255_2_778
10
10.7656801
20
42.1045416
40
0.3371233
50
270.5838487
51
282.2615078
0
ARC
8
DEFAULT_255_2_778
10
10.7637817
20
41.937928
40
0.1705756
50
241.3798642
51
271.7918735
0
ARC
8
DEFAULT_255_2_778
10
10.7476697
20
41.901112
40
0.1305871
50
222.8095502
51
239.8477433
0
ARC
8
DEFAULT_255_2_778
10
10.8383448
20
42.0256648
40
0.2833162
50
195.5923976
51
228.8379937
0
ARC
8
DEFAULT_255_2_778
10
11.2233514
20
42.1494125
40
0.6875956
50
182.8988217
51
196.901328
0
ARC
8
DEFAULT_255_2_778
10
11.7297763
20
42.1915595
40
1.1956176
50
179.9089191
51
183.6886871
0
ARC
8
DEFAULT_255_2_778
10
12.0981229
20
42.1919544
40
1.5639636
50
177.2544012
51
179.9448392
0
LINE
8
DEFAULT_255_2_778
10
10.5359547
20
42.2668705
11
10.5359688
21
42.2671698
0
ARC
8
DEFAULT_255_2_778
10
11.0005754
20
42.2022208
40
0.4691244
50
149.0121274
51
172.0420019
0
ARC
8
DEFAULT_255_2_778
10
10.8347413
20
42.2926494
40
0.280511
50
88.5440138
51
147.4067729
0
ARC
8
DEFAULT_255_2_778
10
10.7657193
20
41.7424864
40
0.8340669
50
72.0203436
51
84.7616527
0
ARC
8
DEFAULT_255_2_778
10
10.8831282
20
42.1205191
40
0.4382821
50
61.8252032
51
71.3646611
0
ARC
8
DEFAULT_255_2_778
10
10.4737962
20
42.7909032
40
1.2918982
50
287.0682731
51
298.4915226
0
ARC
8
DEFAULT_255_2_778
10
10.6328818
20
42.2679772
40
0.7453122
50
270.6811176
51
287.1763457
0
ARC
8
DEFAULT_255_2_778
10
10.6416525
20
42.1019494
40
0.5792318
50
267.7358327
51
270.0088232
0
ARC
8
DEFAULT_255_2_778
10
10.6221952
20
41.9423768
40
0.4192211
50
203.9093897
51
269.5317059
0
ARC
8
DEFAULT_255_2_778
10
11.0896726
20
42.2017122
40
0.9528801
50
192.6009015
51
206.7737237
0
ARC
8
DEFAULT_255_2_778
10
11.4914822
20
42.3100427
40
1.3687639
50
192.6165694
51
193.3570279
0
ARC
8
DEFAULT_255_2_778
10
11.1915444
20
42.2042151
40
1.05363
50
182.6356817
51
190.5628607
0
ARC
8
DEFAULT_255_2_778
10
11.0380576
20
42.1946692
40
0.89987
50
180.0135228
51
182.4779265
0
ARC
8
DEFAULT_255_2_778
10
10.8122185
20
42.2105664
40
0.6742234
50
136.7456723
51
181.3691273
0
ARC
8
DEFAULT_255_2_778
10
10.662857
20
42.2993873
40
0.5059802
50
89.2314975
51
132.4774114
0
ARC
8
DEFAULT_255_2_778
10
10.6695571
20
42.1886601
40
0.6166618
50
87.8056342
51
89.9919799
0
ARC
8
DEFAULT_255_2_778
10
10.6807164
20
41.6469717
40
1.157965
50
70.3175508
51
89.3838437
0
ARC
8
DEFAULT_255_2_778
10
10.5893508
20
41.3394874
40
1.4783609
50
70.2024224
51
70.9971735
0
ARC
8
DEFAULT_255_2_778
10
9.3624819
20
42.1733426
40
0.1950108
50
91.6788031
51
181.813939
0
ARC
8
DEFAULT_255_2_778
10
9.350989
20
42.1732798
40
0.1950756
50
358.2051219
51
88.3021655
0
ARC
8
DEFAULT_255_2_778
10
9.3509891
20
42.1610596
40
0.1950754
50
271.6978133
51
1.7949071
0
ARC
8
DEFAULT_255_2_778
10
9.3624819
20
42.1609969
40
0.1950108
50
178.186061
51
268.3211969
0
ARC
8
DEFAULT_255_2_778
10
9.5084727
20
42.1739309
40
0.4668529
50
145.043768
51
180.8298084
0
ARC
8
DEFAULT_255_2_778
10
9.3653029
20
42.2816132
40
0.287883
50
91.6987406
51
146.2830079
0
ARC
8
DEFAULT_255_2_778
10
9.3415457
20
42.2646621
40
0.3050877
50
23.4934874
51
87.1398977
0
ARC
8
DEFAULT_255_2_778
10
9.1870732
20
42.1707629
40
0.484809
50
359.5753549
51
26.3944218
0
ARC
8
DEFAULT_255_2_778
10
9.2053375
20
42.16042
40
0.4665802
50
325.0256173
51
0.8288991
0
ARC
8
DEFAULT_255_2_778
10
9.3482106
20
42.0528699
40
0.2879274
50
271.7032906
51
326.2656695
0
ARC
8
DEFAULT_255_2_778
10
9.3720078
20
42.0699987
40
0.3053095
50
203.3271307
51
267.1389871
0
ARC
8
DEFAULT_255_2_778
10
9.5267258
20
42.163593
40
0.4850703
50
179.5775117
51
206.2433806
0
ARC
8
DEFAULT_255_2_778
10
9.3462242
20
42.1482025
40
0.6700752
50
95.9615992
51
178.9168048
0
ARC
8
DEFAULT_255_2_778
10
9.3692457
20
42.0801302
40
0.7403396
50
89.982733
51
97.186551
0
ARC
8
DEFAULT_255_2_778
10
9.3737015
20
42.1103279
40
0.7101545
50
48.1622127
51
90.3414937
0
ARC
8
DEFAULT_255_2_778
10
9.4198028
20
42.1593697
40
0.6428678
50
0.1336951
51
48.3079447
0
ARC
8
DEFAULT_255_2_778
10
9.3927134
20
42.173537
40
0.6700752
50
275.9615992
51
358.9168048
0
ARC
8
DEFAULT_255_2_778
10
9.3696919
20
42.2416094
40
0.7403396
50
269.982733
51
277.186551
0
ARC
8
DEFAULT_255_2_778
10
9.3652362
20
42.2114116
40
0.7101545
50
228.1622127
51
270.3414937
0
ARC
8
DEFAULT_255_2_778
10
9.3191349
20
42.1623698
40
0.6428678
50
180.1336951
51
228.3079447
0
ARC
8
DEFAULT_255_2_778
10
6.8107463
20
42.8578908
40
0.4410946
50
358.399361
51
20.0218069
0
ARC
8
DEFAULT_255_2_778
10
7.0252301
20
42.9339859
40
0.2135292
50
20.5419455
51
86.7410997
0
ARC
8
DEFAULT_255_2_778
10
6.9403671
20
42.8940134
40
0.3150485
50
287.9324001
51
351.1547913
0
ARC
8
DEFAULT_255_2_778
10
7.0381682
20
42.84225
40
0.6191268
50
4.9683528
51
29.9289322
0
ARC
8
DEFAULT_255_2_778
10
7.1427871
20
42.8833443
40
0.508227
50
31.7987523
51
73.6168205
0
ARC
8
DEFAULT_255_2_778
10
7.0076309
20
42.5022148
40
0.9122727
50
72.2244713
51
84.9667071
0
ARC
8
DEFAULT_255_2_778
10
6.9731565
20
43.2662673
40
0.9427779
50
276.9765222
51
292.3131775
0
ARC
8
DEFAULT_255_2_778
10
7.152457
20
42.8587302
40
0.4978062
50
291.0302401
51
353.4987619
0
ARC
8
DEFAULT_255_2_778
10
6.882936
20
42.9140679
40
0.7722473
50
351.6832812
51
358.6496898
0
LINE
8
DEFAULT_255_2_778
10
11.0900688
20
42.5068698
11
11.0900688
21
42.5068698
0
LINE
8
DEFAULT_255_2_778
10
11.0900688
20
42.7302698
11
11.0900688
21
43.4826698
0
LINE
8
DEFAULT_255_2_778
10
11.0900688
20
43.4826698
11
11.4538688
21
43.5239698
0
LINE
8
DEFAULT_255_2_778
10
11.4538688
20
43.5239698
11
11.4538688
21
41.5562698
0
LINE
8
DEFAULT_255_2_778
10
11.4538688
20
41.5562698
11
11.0982688
21
41.5562698
0
LINE
8
DEFAULT_255_2_778
10
11.0982688
20
41.5562698
11
11.0900688
21
41.6554698
0
LINE
8
DEFAULT_255_2_778
10
11.0900688
20
42.7304698
11
11.0900688
21
42.7302698
0
LINE
8
DEFAULT_255_2_778
10
9.1675688
20
42.1671698
11
9.1675688
21
42.1671698
0
LINE
8
DEFAULT_255_2_778
10
9.0416688
20
42.1671698
11
9.0416688
21
42.1671698
0
LINE
8
DEFAULT_255_2_778
10
8.6762688
20
42.1608698
11
8.6762688
21
42.1608698
0
LINE
8
DEFAULT_255_2_778
10
7.0373688
20
43.1471698
11
6.7728688
21
43.1471698
0
LINE
8
DEFAULT_255_2_778
10
6.7728688
20
43.1471698
11
6.7728688
21
42.5942698
0
LINE
8
DEFAULT_255_2_778
10
6.7728688
20
42.5942698
11
7.0373688
21
42.5942698
0
LINE
8
DEFAULT_255_2_778
10
7.2516688
20
42.8455698
11
7.2516688
21
42.8455698
0
LINE
8
DEFAULT_255_2_778
10
7.0876688
20
43.4109698
11
6.3817688
21
43.4109698
0
LINE
8
DEFAULT_255_2_778
10
6.3817688
20
43.4109698
11
6.3817688
21
41.5514698
0
LINE
8
DEFAULT_255_2_778
10
6.3817688
20
41.5514698
11
6.7725688
21
41.5514698
0
LINE
8
DEFAULT_255_2_778
10
6.7725688
20
41.5514698
11
6.7725688
21
42.3304698
0
LINE
8
DEFAULT_255_2_778
10
6.7725688
20
42.3304698
11
7.0876688
21
42.3304698
0
LINE
8
DEFAULT_255_2_778
10
7.6549688
20
42.8958698
11
7.6549688
21
42.8958698
0
ARC
8
DEFAULT_255_2_778
10
22.0341103
20
41.3896325
40
0.1933696
50
91.2195322
51
181.3554583
0
ARC
8
DEFAULT_255_2_778
10
22.0258793
20
41.3896325
40
0.1933696
50
358.6445319
51
88.7804717
0
ARC
8
DEFAULT_255_2_778
10
22.0258794
20
41.3804841
40
0.1933695
50
271.2194968
51
1.3554733
0
ARC
8
DEFAULT_255_2_778
10
22.0341102
20
41.3804841
40
0.1933696
50
178.6445267
51
268.7805032
0
ARC
8
DEFAULT_255_2_778
10
22.500592
20
41.3896522
40
0.1933518
50
91.2438577
51
181.3614136
0
ARC
8
DEFAULT_255_2_778
10
22.4922792
20
41.3896325
40
0.1933696
50
358.6445428
51
88.7804459
0
ARC
8
DEFAULT_255_2_778
10
22.4922795
20
41.3804841
40
0.1933694
50
271.219471
51
1.3554842
0
ARC
8
DEFAULT_255_2_778
10
22.5005921
20
41.3804647
40
0.1933519
50
178.638633
51
268.7561308
0
ARC
8
DEFAULT_255_2_778
10
22.966792
20
41.402352
40
0.1933518
50
91.2438477
51
181.3613675
0
ARC
8
DEFAULT_255_2_778
10
22.9584792
20
41.4023325
40
0.1933696
50
358.6445428
51
88.7804459
0
ARC
8
DEFAULT_255_2_778
10
22.9584795
20
41.3931841
40
0.1933694
50
271.219471
51
1.3554842
0
ARC
8
DEFAULT_255_2_778
10
22.9667921
20
41.3931645
40
0.1933517
50
178.6385825
51
268.7561312
0
LINE
8
DEFAULT_255_2_778
10
21.8407948
20
41.3850583
11
21.8407948
21
41.3850583
0
LINE
8
DEFAULT_255_2_778
10
22.3072948
20
41.3850583
11
22.3072948
21
41.3850583
0
LINE
8
DEFAULT_255_2_778
10
22.7734948
20
41.3977583
11
22.7734948
21
41.3977583
0
LINE
8
DEFAULT_255_2_778
10
21.8956365
20
41.141124
11
21.8665365
21
41.145924
0
LINE
8
DEFAULT_255_2_778
10
21.8665365
20
41.145924
11
21.8059365
21
41.155724
0
LINE
8
DEFAULT_255_2_778
10
21.8059365
20
41.155724
11
21.7299365
21
41.213924
0
LINE
8
DEFAULT_255_2_778
10
21.7299365
20
41.213924
11
21.6728365
21
41.289624
0
LINE
8
DEFAULT_255_2_778
10
21.6728365
20
41.289624
11
21.6476365
21
41.383024
0
LINE
8
DEFAULT_255_2_778
10
21.6476365
20
41.383024
11
21.6728365
21
41.476624
0
LINE
8
DEFAULT_255_2_778
10
21.6728365
20
41.476624
11
21.7294365
21
41.553424
0
LINE
8
DEFAULT_255_2_778
10
21.7294365
20
41.553424
11
21.8053365
21
41.612924
0
LINE
8
DEFAULT_255_2_778
10
21.8053365
20
41.612924
11
21.8665365
21
41.622924
0
LINE
8
DEFAULT_255_2_778
10
21.8665365
20
41.622924
11
21.8958365
21
41.627724
0
LINE
8
DEFAULT_255_2_778
10
21.8958365
20
41.058124
11
21.8546365
21
41.063624
0
LINE
8
DEFAULT_255_2_778
10
21.8546365
20
41.063624
11
21.7707365
21
41.075024
0
LINE
8
DEFAULT_255_2_778
10
21.7707365
20
41.075024
11
21.6683365
21
41.149624
0
LINE
8
DEFAULT_255_2_778
10
21.6683365
20
41.149624
11
21.5950365
21
41.248324
0
LINE
8
DEFAULT_255_2_778
10
21.5950365
20
41.248324
11
21.5733365
21
41.363924
0
ARC
8
DEFAULT_255_2_778
10
19.6071242
20
41.9821303
40
0.3581298
50
180.0162757
51
182.2699138
0
ARC
8
DEFAULT_255_2_778
10
19.4534829
20
41.9957764
40
0.2049502
50
100.1638691
51
183.8462269
0
ARC
8
DEFAULT_255_2_778
10
19.5515993
20
41.6671455
40
0.5471003
50
90.0234402
51
104.2080975
0
ARC
8
DEFAULT_255_2_778
10
19.5528834
20
42.0204699
40
0.1937818
50
5.5175223
51
90.4458723
0
ARC
8
DEFAULT_255_2_778
10
19.3612362
20
41.9800775
40
0.3890348
50
359.7014597
51
8.726641
0
ARC
8
DEFAULT_255_2_778
10
19.2420729
20
41.9782577
40
0.5081929
50
357.7544822
51
359.976639
0
ARC
8
DEFAULT_255_2_778
10
19.3404742
20
42.023607
40
0.4145702
50
340.5439579
51
350.9428846
0
ARC
8
DEFAULT_255_2_778
10
19.6818113
20
41.9026061
40
0.0524224
50
319.3350621
51
340.9786234
0
ARC
8
DEFAULT_255_2_778
10
19.1300329
20
42.085169
40
0.4858933
50
337.8212904
51
346.2526281
0
ARC
8
DEFAULT_255_2_778
10
19.5379362
20
41.9840825
40
0.0656649
50
347.3486169
51
358.3972422
0
ARC
8
DEFAULT_255_2_778
10
19.3892367
20
41.9912112
40
0.2145262
50
357.6048162
51
359.9743471
0
ARC
8
DEFAULT_255_2_778
10
19.521739
20
42.0046395
40
0.0831313
50
350.6371276
51
96.844243
0
ARC
8
DEFAULT_255_2_778
10
19.5122091
20
41.8865521
40
0.2006266
50
90.1076454
51
94.8990763
0
ARC
8
DEFAULT_255_2_778
10
19.5034127
20
41.9831153
40
0.1036663
50
94.6129189
51
177.4610849
0
ARC
8
DEFAULT_255_2_778
10
19.6883706
20
41.9284397
40
0.2945469
50
168.391873
51
173.2331892
0
LINE
8
DEFAULT_255_2_778
10
19.3955754
20
41.9631458
11
19.2492754
21
41.9679458
0
LINE
8
DEFAULT_255_2_778
10
19.7215754
20
41.8684458
11
19.4572754
21
41.5699458
0
LINE
8
DEFAULT_255_2_778
10
19.4572754
20
41.5699458
11
19.7784754
21
41.5699458
0
LINE
8
DEFAULT_255_2_778
10
19.7784754
20
41.5699458
11
19.7784754
21
41.4469458
0
LINE
8
DEFAULT_255_2_778
10
19.7784754
20
41.4469458
11
19.2682754
21
41.4469458
0
LINE
8
DEFAULT_255_2_778
10
19.2682754
20
41.4469458
11
19.2682754
21
41.5512458
0
LINE
8
DEFAULT_255_2_778
10
19.2682754
20
41.5512458
11
19.5799754
21
41.9017458
0
LINE
8
DEFAULT_255_2_778
10
19.3958754
20
41.9631458
11
19.3955754
21
41.9631458
0
ARC
8
DEFAULT_255_2_778
10
21.6491338
20
41.8479013
40
0.5330281
50
158.8297779
51
180.8126209
0
ARC
8
DEFAULT_255_2_778
10
21.3443043
20
41.9740829
40
0.2033429
50
124.0119958
51
160.9659866
0
ARC
8
DEFAULT_255_2_778
10
21.2743176
20
42.067462
40
0.0869831
50
90.4994457
51
120.2017555
0
ARC
8
DEFAULT_255_2_778
10
21.2600082
20
42.0290586
40
0.1261132
50
24.6798401
51
83.8315083
0
ARC
8
DEFAULT_255_2_778
10
21.0025231
20
41.873952
40
0.4261556
50
6.130385
51
29.1785479
0
ARC
8
DEFAULT_255_2_778
10
20.8148831
20
41.8409702
40
0.6163766
50
359.941576
51
7.3161118
0
ARC
8
DEFAULT_255_2_778
10
20.8991049
20
41.8327366
40
0.5322088
50
338.8055679
51
0.8187669
0
ARC
8
DEFAULT_255_2_778
10
21.2033747
20
41.7066684
40
0.203082
50
303.9150541
51
340.932466
0
ARC
8
DEFAULT_255_2_778
10
21.2728185
20
41.6137902
40
0.0874515
50
270.4854298
51
300.1080748
0
ARC
8
DEFAULT_255_2_778
10
21.2871918
20
41.6520041
40
0.1263997
50
204.3281643
51
263.8084993
0
ARC
8
DEFAULT_255_2_778
10
21.5498039
20
41.8080123
40
0.4313014
50
185.613152
51
208.8453558
0
ARC
8
DEFAULT_255_2_778
10
21.738281
20
41.8397819
40
0.6221217
50
179.9484445
51
186.8272745
0
ARC
8
DEFAULT_255_2_778
10
21.5396261
20
41.8444048
40
0.5243157
50
152.5254433
51
180.7827883
0
ARC
8
DEFAULT_255_2_778
10
21.3138339
20
41.9718837
40
0.2653266
50
108.4095367
51
154.4544086
0
ARC
8
DEFAULT_255_2_778
10
21.2768034
20
42.0506783
40
0.1791635
50
90.0140927
51
105.1293658
0
ARC
8
DEFAULT_255_2_778
10
21.2623719
20
41.9989205
40
0.231369
50
28.2822033
51
86.4348199
0
ARC
8
DEFAULT_255_2_778
10
21.0418618
20
41.8517258
40
0.4959362
50
2.837394
51
31.1881489
0
ARC
8
DEFAULT_255_2_778
10
20.9404116
20
41.8373304
40
0.5980477
50
359.9914968
51
3.7337628
0
ARC
8
DEFAULT_255_2_778
10
21.0137058
20
41.8301164
40
0.524802
50
332.6504535
51
0.7779361
0
ARC
8
DEFAULT_255_2_778
10
21.2395936
20
41.7031026
40
0.265965
50
288.44039
51
334.5981325
0
ARC
8
DEFAULT_255_2_778
10
21.2767199
20
41.6243438
40
0.1798021
50
270.0125899
51
285.1541198
0
ARC
8
DEFAULT_255_2_778
10
21.2909632
20
41.6751186
40
0.2310141
50
208.1688806
51
266.4749618
0
ARC
8
DEFAULT_255_2_778
10
21.513001
20
41.8225235
40
0.4969751
50
182.8019459
51
211.0671432
0
ARC
8
DEFAULT_255_2_778
10
21.6169279
20
41.8371537
40
0.6015684
50
179.9916184
51
183.7098813
0
LINE
8
DEFAULT_255_2_778
10
21.1161594
20
41.8403417
11
21.1161594
21
41.8403417
0
LINE
8
DEFAULT_255_2_778
10
21.0153594
20
41.8372417
11
21.0153594
21
41.8372417
0
ARC
8
DEFAULT_255_2_778
10
21.0567338
20
41.8479013
40
0.5330281
50
158.8297779
51
180.8126209
0
ARC
8
DEFAULT_255_2_778
10
20.7519043
20
41.9740829
40
0.2033429
50
124.0119958
51
160.9659866
0
ARC
8
DEFAULT_255_2_778
10
20.6819176
20
42.067462
40
0.0869831
50
90.4994457
51
120.2017555
0
ARC
8
DEFAULT_255_2_778
10
20.6676082
20
42.0290586
40
0.1261132
50
24.6798401
51
83.8315083
0
ARC
8
DEFAULT_255_2_778
10
20.4101231
20
41.873952
40
0.4261556
50
6.130385
51
29.1785479
0
ARC
8
DEFAULT_255_2_778
10
20.2224831
20
41.8409702
40
0.6163766
50
359.941576
51
7.3161118
0
ARC
8
DEFAULT_255_2_778
10
20.3067049
20
41.8327366
40
0.5322088
50
338.8055679
51
0.8187669
0
ARC
8
DEFAULT_255_2_778
10
20.6109747
20
41.7066684
40
0.203082
50
303.9150541
51
340.932466
0
ARC
8
DEFAULT_255_2_778
10
20.6804185
20
41.6137902
40
0.0874515
50
270.4854298
51
300.1080748
0
ARC
8
DEFAULT_255_2_778
10
20.6947918
20
41.6520041
40
0.1263997
50
204.3281643
51
263.8084993
0
ARC
8
DEFAULT_255_2_778
10
20.9574039
20
41.8080123
40
0.4313014
50
185.613152
51
208.8453558
0
ARC
8
DEFAULT_255_2_778
10
21.145881
20
41.8397819
40
0.6221217
50
179.9484445
51
186.8272745
0
ARC
8
DEFAULT_255_2_778
10
20.9472261
20
41.8444048
40
0.5243157
50
152.5254433
51
180.7827883
0
ARC
8
DEFAULT_255_2_778
10
20.7214339
20
41.9718837
40
0.2653266
50
108.4095367
51
154.4544086
0
ARC
8
DEFAULT_255_2_778
10
20.6844034
20
42.0506783
40
0.1791635
50
90.0140927
51
105.1293658
0
ARC
8
DEFAULT_255_2_778
10
20.6699719
20
41.9989205
40
0.231369
50
28.2822033
51
86.4348199
0
ARC
8
DEFAULT_255_2_778
10
20.4494618
20
41.8517258
40
0.4959362
50
2.837394
51
31.1881489
0
ARC
8
DEFAULT_255_2_778
10
20.3480116
20
41.8373304
40
0.5980477
50
359.9914968
51
3.7337628
0
ARC
8
DEFAULT_255_2_778
10
20.4213058
20
41.8301164
40
0.524802
50
332.6504535
51
0.7779361
0
ARC
8
DEFAULT_255_2_778
10
20.6471936
20
41.7031026
40
0.265965
50
288.44039
51
334.5981325
0
ARC
8
DEFAULT_255_2_778
10
20.6843199
20
41.6243438
40
0.1798021
50
270.0125899
51
285.1541198
0
ARC
8
DEFAULT_255_2_778
10
20.6985632
20
41.6751186
40
0.2310141
50
208.1688806
51
266.4749618
0
ARC
8
DEFAULT_255_2_778
10
20.920601
20
41.8225235
40
0.4969751
50
182.8019459
51
211.0671432
0
ARC
8
DEFAULT_255_2_778
10
21.0245279
20
41.8371537
40
0.6015684
50
179.9916184
51
183.7098813
0
LINE
8
DEFAULT_255_2_778
10
20.5237594
20
41.8403417
11
20.5237594
21
41.8403417
0
LINE
8
DEFAULT_255_2_778
10
20.4229594
20
41.8372417
11
20.4229594
21
41.8372417
0
ARC
8
DEFAULT_255_2_778
10
20.4643338
20
41.8479013
40
0.5330281
50
158.8297779
51
180.8126209
0
ARC
8
DEFAULT_255_2_778
10
20.1595043
20
41.9740829
40
0.2033429
50
124.0119958
51
160.9659866
0
ARC
8
DEFAULT_255_2_778
10
20.0895176
20
42.067462
40
0.0869831
50
90.4994457
51
120.2017555
0
ARC
8
DEFAULT_255_2_778
10
20.0752082
20
42.0290586
40
0.1261132
50
24.6798401
51
83.8315083
0
ARC
8
DEFAULT_255_2_778
10
19.8177231
20
41.873952
40
0.4261556
50
6.130385
51
29.1785479
0
ARC
8
DEFAULT_255_2_778
10
19.6300831
20
41.8409702
40
0.6163766
50
359.941576
51
7.3161118
0
ARC
8
DEFAULT_255_2_778
10
19.7143049
20
41.8327366
40
0.5322088
50
338.8055679
51
0.8187669
0
ARC
8
DEFAULT_255_2_778
10
20.0185747
20
41.7066684
40
0.203082
50
303.9150541
51
340.932466
0
ARC
8
DEFAULT_255_2_778
10
20.0880185
20
41.6137902
40
0.0874515
50
270.4854298
51
300.1080748
0
ARC
8
DEFAULT_255_2_778
10
20.1023918
20
41.6520041
40
0.1263997
50
204.3281643
51
263.8084993
0
ARC
8
DEFAULT_255_2_778
10
20.3650039
20
41.8080123
40
0.4313014
50
185.613152
51
208.8453558
0
ARC
8
DEFAULT_255_2_778
10
20.553481
20
41.8397819
40
0.6221217
50
179.9484445
51
186.8272745
0
ARC
8
DEFAULT_255_2_778
10
20.3548261
20
41.8444048
40
0.5243157
50
152.5254433
51
180.7827883
0
ARC
8
DEFAULT_255_2_778
10
20.1290339
20
41.9718837
40
0.2653266
50
108.4095367
51
154.4544086
0
ARC
8
DEFAULT_255_2_778
10
20.0920034
20
42.0506783
40
0.1791635
50
90.0140927
51
105.1293658
0
ARC
8
DEFAULT_255_2_778
10
20.0775719
20
41.9989205
40
0.231369
50
28.2822033
51
86.4348199
0
ARC
8
DEFAULT_255_2_778
10
19.8570618
20
41.8517258
40
0.4959362
50
2.837394
51
31.1881489
0
ARC
8
DEFAULT_255_2_778
10
19.7556116
20
41.8373304
40
0.5980477
50
359.9914968
51
3.7337628
0
ARC
8
DEFAULT_255_2_778
10
19.8289058
20
41.8301164
40
0.524802
50
332.6504535
51
0.7779361
0
ARC
8
DEFAULT_255_2_778
10
20.0547936
20
41.7031026
40
0.265965
50
288.44039
51
334.5981325
0
ARC
8
DEFAULT_255_2_778
10
20.0919199
20
41.6243438
40
0.1798021
50
270.0125899
51
285.1541198
0
ARC
8
DEFAULT_255_2_778
10
20.1061632
20
41.6751186
40
0.2310141
50
208.1688806
51
266.4749618
0
ARC
8
DEFAULT_255_2_778
10
20.328201
20
41.8225235
40
0.4969751
50
182.8019459
51
211.0671432
0
ARC
8
DEFAULT_255_2_778
10
20.4321279
20
41.8371537
40
0.6015684
50
179.9916184
51
183.7098813
0
LINE
8
DEFAULT_255_2_778
10
19.9313594
20
41.8403417
11
19.9313594
21
41.8403417
0
LINE
8
DEFAULT_255_2_778
10
19.8305594
20
41.8372417
11
19.8305594
21
41.8372417
0
LINE
8
DEFAULT_255_2_778
10
19.9765417
20
28.9719082
11
18.6536417
21
28.9719082
0
LINE
8
DEFAULT_255_2_778
10
18.6536417
20
28.9719082
11
18.6536417
21
19.7115082
0
LINE
8
DEFAULT_255_2_778
10
17.3307834
20
19.7114333
11
19.9765834
21
19.7114333
0
LINE
8
DEFAULT_255_2_778
10
19.9765834
20
19.7114333
11
19.9765834
21
14.4197333
0
LINE
8
DEFAULT_255_2_778
10
19.9765834
20
14.4197333
11
17.3307834
21
14.4197333
0
LINE
8
DEFAULT_255_2_778
10
17.3307834
20
14.4197333
11
17.3307834
21
19.7114333
0
ARC
8
DEFAULT_255_2_778_1
10
21.1303591
20
14.522177
40
4.816461
50
120.9442904
51
122.351755
0
ARC
8
DEFAULT_255_2_778_1
10
20.6837523
20
15.2258039
40
3.9830657
50
122.3407904
51
124.1946752
0
ARC
8
DEFAULT_255_2_778_1
10
20.2438464
20
15.8723306
40
3.2010724
50
124.1855758
51
126.4338849
0
ARC
8
DEFAULT_255_2_778_1
10
19.8579129
20
16.3950611
40
2.5513094
50
126.4326926
51
128.8877368
0
ARC
8
DEFAULT_255_2_778_1
10
19.5230968
20
16.8094658
40
2.0185498
50
128.8749205
51
131.8726567
0
ARC
8
DEFAULT_255_2_778_1
10
19.2259677
20
17.1404854
40
1.5737356
50
131.8616166
51
135.4168838
0
ARC
8
DEFAULT_255_2_778_1
10
18.963168
20
17.3986765
40
1.2053256
50
135.3893975
51
139.9687014
0
ARC
8
DEFAULT_255_2_778_1
10
18.7302889
20
17.5935102
40
0.9016937
50
139.9301659
51
145.9260426
0
ARC
8
DEFAULT_255_2_778_1
10
18.534154
20
17.7255104
40
0.6652776
50
145.8787362
51
153.8146208
0
ARC
8
DEFAULT_255_2_778_1
10
18.3820553
20
17.7998797
40
0.4959714
50
153.770634
51
164.3484794
0
ARC
8
DEFAULT_255_2_778_1
10
18.2807387
20
17.8280786
40
0.3908039
50
164.3220276
51
179.8083066
0
ARC
8
DEFAULT_255_2_778_1
10
18.3017789
20
17.836215
40
0.4118985
50
180.9499449
51
213.8111542
0
ARC
8
DEFAULT_255_2_778_1
10
18.5776828
20
18.0057896
40
0.73561
50
212.8271214
51
224.258472
0
ARC
8
DEFAULT_255_2_778_1
10
18.9605335
20
18.3751236
40
1.267567
50
224.1376218
51
231.4508261
0
ARC
8
DEFAULT_255_2_778_1
10
19.6032195
20
19.1781168
40
2.2960809
50
231.3955893
51
236.1256478
0
ARC
8
DEFAULT_255_2_778_1
10
21.4355223
20
21.9246293
40
5.5976905
50
236.2233172
51
239.1314682
0
ARC
8
DEFAULT_255_2_778_1
10
33.385427
20
41.6523568
40
28.6623793
50
238.8606853
51
239.0711101
0
ARC
8
DEFAULT_255_2_778_1
10
14.2132281
20
9.5552653
40
8.7248518
50
57.2420924
51
59.4062964
0
ARC
8
DEFAULT_255_2_778_1
10
17.4409241
20
14.5862102
40
2.747542
50
52.8289294
51
57.079028
0
ARC
8
DEFAULT_255_2_778_1
10
18.2155783
20
15.6065488
40
1.466457
50
46.3041868
51
52.8596521
0
ARC
8
DEFAULT_255_2_778_1
10
18.6478073
20
16.0566842
40
0.8424061
50
36.2174211
51
46.4090895
0
ARC
8
DEFAULT_255_2_778_1
10
18.9323088
20
16.2615128
40
0.4918609
50
17.400375
51
36.5489745
0
ARC
8
DEFAULT_255_2_778_1
10
19.0463994
20
16.3013754
40
0.3710912
50
0.0676858
51
16.7951297
0
ARC
8
DEFAULT_255_2_778_1
10
19.0253613
20
16.3032428
40
0.3921317
50
343.8035191
51
359.7912046
0
ARC
8
DEFAULT_255_2_778_1
10
18.9190912
20
16.3337167
40
0.5026844
50
333.2506233
51
343.8465691
0
ARC
8
DEFAULT_255_2_778_1
10
18.7652757
20
16.4104313
40
0.6745679
50
325.6600948
51
333.3122657
0
ARC
8
DEFAULT_255_2_778_1
10
18.5698344
20
16.5432296
40
0.9108568
50
319.7560915
51
325.6976089
0
ARC
8
DEFAULT_255_2_778_1
10
18.341699
20
16.7350002
40
1.2088854
50
315.4577584
51
319.8037947
0
ARC
8
DEFAULT_255_2_778_1
10
18.0783127
20
16.9938507
40
1.5781764
50
311.7298824
51
315.4670864
0
ARC
8
DEFAULT_255_2_778_1
10
17.7692879
20
17.3394074
40
2.0417554
50
308.723055
51
311.7470879
0
ARC
8
DEFAULT_255_2_778_1
10
17.415089
20
17.7806492
40
2.6075745
50
306.1165163
51
308.7300151
0
ARC
8
DEFAULT_255_2_778_1
10
17.0121091
20
18.3319523
40
3.2904564
50
303.9559446
51
306.1266333
0
ARC
8
DEFAULT_255_2_778_1
10
16.6005432
20
18.941215
40
4.0257023
50
302.3733397
51
303.9712246
0
ARC
8
DEFAULT_255_2_778_1
10
16.1809347
20
19.6027058
40
4.8090549
50
300.9434827
51
302.3758078
0
LINE
8
DEFAULT_255_2_778
10
18.6536417
20
14.4198082
11
18.6536417
21
5.1594082
0
LINE
8
DEFAULT_255_2_778
10
18.6536417
20
5.1594082
11
19.9765417
21
5.1594082
0
LINE
8
DEFAULT_255_1_388
10
4.8809318
20
36.5383382
11
4.8809318
21
36.4019
0
LINE
8
DEFAULT_255_1_388
10
4.8809318
20
36.4019
11
4.0189313
21
36.4019
0
LINE
8
DEFAULT_255_1_388
10
4.0189313
20
36.4019
11
4.0189313
21
36.5220741
0
LINE
8
DEFAULT_255_1_388
10
4.0189313
20
36.5220741
11
4.4743278
21
37.0280702
0
LINE
8
DEFAULT_255_1_388
10
4.1607909
20
37.3298607
11
3.9936315
21
37.3298607
0
LINE
8
DEFAULT_255_1_388
10
4.5728163
20
36.920546
11
4.2204262
21
36.5383382
0
LINE
8
DEFAULT_255_1_388
10
4.2204262
20
36.5383382
11
4.8809318
21
36.5383382
0
ARC
8
DEFAULT_255_1_388
10
2.9567337
20
38.3700983
40
2.0258655
50
318.5132526
51
320.7829045
0
ARC
8
DEFAULT_255_1_388
10
3.5515294
20
37.8859929
40
1.2589638
50
320.7372878
51
323.9739031
0
ARC
8
DEFAULT_255_1_388
10
3.9924226
20
37.5665554
40
0.7145141
50
323.8962701
51
328.64194
0
ARC
8
DEFAULT_255_1_388
10
4.2226484
20
37.4245545
40
0.4440242
50
328.8294576
51
331.7891185
0
ARC
8
DEFAULT_255_1_388
10
4.3348804
20
37.3666374
40
0.3177517
50
331.4254512
51
352.9365785
0
ARC
8
DEFAULT_255_1_388
10
4.3501804
20
37.363205
40
0.3021496
50
353.2257659
51
0.0166158
0
ARC
8
DEFAULT_255_1_388
10
4.3738564
20
37.3657894
40
0.2784847
50
359.486299
51
15.9343185
0
ARC
8
DEFAULT_255_1_388
10
4.4308831
20
37.3811269
40
0.2194403
50
16.1712913
51
43.5286088
0
ARC
8
DEFAULT_255_1_388
10
4.4395776
20
37.3898191
40
0.2071504
50
43.4417391
51
83.1661095
0
ARC
8
DEFAULT_255_1_388
10
4.4244937
20
37.3069316
40
0.2912888
50
82.160179
51
90.1505708
0
ARC
8
DEFAULT_255_1_388
10
4.4209418
20
37.2465279
40
0.3517025
50
89.5460741
51
102.5418361
0
ARC
8
DEFAULT_255_1_388
10
4.3936138
20
37.3624933
40
0.2325748
50
102.1738499
51
129.206123
0
ARC
8
DEFAULT_255_1_388
10
4.3847592
20
37.3764664
40
0.2161591
50
129.72865
51
135.753947
0
ARC
8
DEFAULT_255_1_388
10
4.3984074
20
37.3655728
40
0.2335433
50
136.1757367
51
166.3673339
0
ARC
8
DEFAULT_255_1_388
10
4.5116762
20
37.3352148
40
0.3507873
50
165.9090694
51
178.8684636
0
ARC
8
DEFAULT_255_1_388
10
4.6092534
20
37.3299263
40
0.4484624
50
178.4391136
51
180.0083808
0
ARC
8
DEFAULT_255_1_388
10
4.4513235
20
37.3343197
40
0.4577138
50
163.2878482
51
180.5581842
0
ARC
8
DEFAULT_255_1_388
10
4.3611276
20
37.3591393
40
0.3641968
50
133.4540601
51
162.947111
0
ARC
8
DEFAULT_255_1_388
10
4.3812158
20
37.3377789
40
0.3935189
50
100.7869829
51
133.4382499
0
ARC
8
DEFAULT_255_1_388
10
4.4203403
20
37.1635399
40
0.5720313
50
89.660664
51
101.3702276
0
ARC
8
DEFAULT_255_1_388
10
4.4278012
20
37.1704263
40
0.5651495
50
78.2172678
51
90.412935
0
ARC
8
DEFAULT_255_1_388
10
4.4677478
20
37.3531511
40
0.378122
50
55.9269121
51
78.4888449
0
ARC
8
DEFAULT_255_1_388
10
4.4898193
20
37.3912187
40
0.3342379
50
47.929771
51
55.4049217
0
ARC
8
DEFAULT_255_1_388
10
4.5012723
20
37.4028618
40
0.3179217
50
4.334829
51
48.0560205
0
ARC
8
DEFAULT_255_1_388
10
4.3780525
20
37.3837487
40
0.442341
50
359.9251713
51
5.5971671
0
ARC
8
DEFAULT_255_1_388
10
4.426268
20
37.3900728
40
0.3941854
50
337.8914027
51
358.9967534
0
ARC
8
DEFAULT_255_1_388
10
4.121025
20
37.5078295
40
0.7213271
50
326.9132501
51
338.3508308
0
ARC
8
DEFAULT_255_1_388
10
3.6726362
20
37.7952105
40
1.2538973
50
319.6471833
51
327.0959558
0
ARC
8
DEFAULT_255_1_388
10
3.241302
20
38.151005
40
1.8129975
50
317.2588228
51
319.9045804
0
LINE
8
DEFAULT_255_1_388
10
5.7637143
20
37.7174898
11
5.7637143
21
36.843743
0
LINE
8
DEFAULT_255_1_388
10
5.7637143
20
36.843743
11
5.9462343
21
36.843743
0
LINE
8
DEFAULT_255_1_388
10
5.9462343
20
36.843743
11
5.9462343
21
36.7073048
0
LINE
8
DEFAULT_255_1_388
10
5.9462343
20
36.7073048
11
5.7637143
21
36.7073048
0
LINE
8
DEFAULT_255_1_388
10
5.7637143
20
36.7073048
11
5.7637143
21
36.4019
0
LINE
8
DEFAULT_255_1_388
10
5.7637143
20
36.4019
11
5.5956513
21
36.4019
0
LINE
8
DEFAULT_255_1_388
10
5.5956513
20
36.4019
11
5.5956513
21
36.7073048
0
LINE
8
DEFAULT_255_1_388
10
5.5956513
20
36.7073048
11
4.996588
21
36.7073048
0
LINE
8
DEFAULT_255_1_388
10
4.996588
20
36.7073048
11
4.996588
21
36.8057933
0
LINE
8
DEFAULT_255_1_388
10
4.996588
20
36.8057933
11
5.5857121
21
37.7174898
0
LINE
8
DEFAULT_255_1_388
10
5.5857121
20
37.7174898
11
5.7637143
21
37.7174898
0
LINE
8
DEFAULT_255_1_388
10
5.5757729
20
37.4527455
11
5.1863366
21
36.843743
0
LINE
8
DEFAULT_255_1_388
10
5.1863366
20
36.843743
11
5.5956513
21
36.843743
0
LINE
8
DEFAULT_255_1_388
10
5.5956513
20
36.843743
11
5.5956513
21
37.488888
0
LINE
8
DEFAULT_255_1_388
10
5.5956513
20
37.488888
11
5.5757729
21
37.4527455
0
LINE
8
DEFAULT_255_1_388
10
6.201943
20
37.7174898
11
6.5760187
21
36.6323089
0
LINE
8
DEFAULT_255_1_388
10
6.5760187
20
36.6323089
11
6.9519015
21
37.7174898
0
LINE
8
DEFAULT_255_1_388
10
6.9519015
20
37.7174898
11
7.14165
21
37.7174898
0
LINE
8
DEFAULT_255_1_388
10
7.14165
20
37.7174898
11
6.6537252
21
36.4019
0
LINE
8
DEFAULT_255_1_388
10
6.6537252
20
36.4019
11
6.5001193
21
36.4019
0
LINE
8
DEFAULT_255_1_388
10
6.5001193
20
36.4019
11
6.013098
21
37.7174898
0
LINE
8
DEFAULT_255_1_388
10
6.013098
20
37.7174898
11
6.201943
21
37.7174898
0
LINE
8
DEFAULT_255_1_388
10
23.1203856
20
37.179869
11
23.1203856
21
36.9630135
0
LINE
8
DEFAULT_255_1_388
10
22.2900099
20
36.9404244
11
22.2900099
21
37.1636048
0
LINE
8
DEFAULT_255_1_388
10
22.9532262
20
36.9178353
11
22.9532262
21
37.1916153
0
LINE
8
DEFAULT_255_1_388
10
22.4571693
20
37.2042652
11
22.4571693
21
36.9368102
0
ARC
8
DEFAULT_255_1_388
10
21.742619
20
36.9575118
40
1.3777776
50
353.8440855
51
0.2287917
0
ARC
8
DEFAULT_255_1_388
10
22.2645208
20
36.8992414
40
0.852639
50
344.4934746
51
353.9763743
0
ARC
8
DEFAULT_255_1_388
10
22.6012015
20
36.8035191
40
0.5026273
50
329.2803599
51
344.7473406
0
ARC
8
DEFAULT_255_1_388
10
22.7127511
20
36.7423038
40
0.3754848
50
324.9361395
51
328.6153007
0
ARC
8
DEFAULT_255_1_388
10
22.7553161
20
36.7125586
40
0.3235566
50
280.5801797
51
324.9173226
0
ARC
8
DEFAULT_255_1_388
10
22.7101789
20
36.9005236
40
0.5167077
50
269.5979457
51
281.6732777
0
ARC
8
DEFAULT_255_1_388
10
22.7020693
20
36.8870113
40
0.5032026
50
256.6228565
51
270.5105488
0
ARC
8
DEFAULT_255_1_388
10
22.6568435
20
36.7128345
40
0.3233092
50
215.8618351
51
257.2787793
0
ARC
8
DEFAULT_255_1_388
10
22.7717142
20
36.7899106
40
0.4615831
50
197.9695203
51
215.2622745
0
ARC
8
DEFAULT_255_1_388
10
23.0512818
20
36.8842641
40
0.7566307
50
187.8816486
51
198.2346584
0
ARC
8
DEFAULT_255_1_388
10
23.4966056
20
36.9485453
40
1.2065653
50
180.8977266
51
188.0054894
0
ARC
8
DEFAULT_255_1_388
10
23.801627
20
36.96004
40
1.5117443
50
180.7434591
51
181.152202
0
ARC
8
DEFAULT_255_1_388
10
23.6341266
20
37.1690371
40
1.3441277
50
173.7674302
51
180.2315596
0
ARC
8
DEFAULT_255_1_388
10
23.1259135
20
37.2264779
40
0.8326847
50
164.3058537
51
173.9000553
0
ARC
8
DEFAULT_255_1_388
10
22.7983135
20
37.3208652
40
0.4917711
50
148.7922028
51
164.5682288
0
ARC
8
DEFAULT_255_1_388
10
22.6913872
20
37.3805457
40
0.3694204
50
144.5883979
51
148.1161588
0
ARC
8
DEFAULT_255_1_388
10
22.6526618
20
37.4075667
40
0.322202
50
101.6440149
51
144.5142619
0
ARC
8
DEFAULT_255_1_388
10
22.700481
20
37.2175337
40
0.5180451
50
89.528284
51
102.5820197
0
ARC
8
DEFAULT_255_1_388
10
22.7093802
20
37.2131376
40
0.5224441
50
77.0437914
51
90.508231
0
ARC
8
DEFAULT_255_1_388
10
22.7546055
20
37.3979272
40
0.3322297
50
48.2777708
51
77.4996087
0
ARC
8
DEFAULT_255_1_388
10
22.7627795
20
37.4124557
40
0.315966
50
36.3141586
51
47.6307332
0
ARC
8
DEFAULT_255_1_388
10
22.6650518
20
37.3466159
40
0.4337313
50
18.2931065
51
35.6770203
0
ARC
8
DEFAULT_255_1_388
10
22.3789358
20
37.2484107
40
0.7362203
50
8.0246996
51
18.5605636
0
ARC
8
DEFAULT_255_1_388
10
21.9105714
20
37.1792432
40
1.2096583
50
1.127539
51
8.1718423
0
ARC
8
DEFAULT_255_1_388
10
21.5456847
20
37.1649374
40
1.5747719
50
0.5432713
51
1.38669
0
ARC
8
DEFAULT_255_1_388
10
21.7514226
20
37.1956163
40
1.2018103
50
359.8092569
51
4.9408001
0
ARC
8
DEFAULT_255_1_388
10
22.2250807
20
37.23789
40
0.7262727
50
4.8364937
51
12.2906017
0
ARC
8
DEFAULT_255_1_388
10
22.5350272
20
37.3069485
40
0.4087324
50
12.0806994
51
23.8171225
0
ARC
8
DEFAULT_255_1_388
10
22.6670668
20
37.3628508
40
0.2653719
50
24.2874621
51
31.3934353
0
ARC
8
DEFAULT_255_1_388
10
22.7261104
20
37.4014822
40
0.1948607
50
30.7407708
51
82.4658033
0
ARC
8
DEFAULT_255_1_388
10
22.7058765
20
37.3021017
40
0.2961198
50
81.1057101
51
90.2187368
0
ARC
8
DEFAULT_255_1_388
10
22.7018577
20
37.3311421
40
0.2670929
50
89.380395
51
105.6763916
0
ARC
8
DEFAULT_255_1_388
10
22.6812299
20
37.406132
40
0.1893189
50
105.7980655
51
149.7387869
0
ARC
8
DEFAULT_255_1_388
10
22.8009439
20
37.3341719
40
0.3289892
50
149.4208441
51
163.628295
0
ARC
8
DEFAULT_255_1_388
10
23.0361668
20
37.2624345
40
0.5749004
50
163.3764549
51
172.141138
0
ARC
8
DEFAULT_255_1_388
10
23.407439
20
37.2092582
40
0.9499585
50
172.0258462
51
178.0705453
0
ARC
8
DEFAULT_255_1_388
10
23.7495943
20
37.1930682
40
1.2924734
50
177.8639301
51
179.5036263
0
ARC
8
DEFAULT_255_1_388
10
23.6276961
20
36.9327151
40
1.170534
50
179.7995545
51
185.246089
0
ARC
8
DEFAULT_255_1_388
10
23.1728554
20
36.8896404
40
0.7136613
50
185.1411911
51
193.0082205
0
ARC
8
DEFAULT_255_1_388
10
22.8754815
20
36.8193441
40
0.4080987
50
192.7897338
51
205.2507384
0
ARC
8
DEFAULT_255_1_388
10
22.7577025
20
36.7667538
40
0.2791522
50
205.8001921
51
211.2545876
0
ARC
8
DEFAULT_255_1_388
10
22.6988564
20
36.7273132
40
0.2084074
50
210.3789935
51
238.4007996
0
ARC
8
DEFAULT_255_1_388
10
22.696665
20
36.7325786
40
0.2117943
50
239.6521916
51
265.9793852
0
ARC
8
DEFAULT_255_1_388
10
22.7062499
20
36.8082358
40
0.2879689
50
265.1324455
51
270.0603288
0
ARC
8
DEFAULT_255_1_388
10
22.7094876
20
36.7717418
40
0.2514919
50
269.3314378
51
287.2180039
0
ARC
8
DEFAULT_255_1_388
10
22.7249958
20
36.7151291
40
0.1928357
50
287.7957942
51
329.0808983
0
ARC
8
DEFAULT_255_1_388
10
22.6172715
20
36.7823651
40
0.319808
50
328.6635261
51
343.3325043
0
ARC
8
DEFAULT_255_1_388
10
22.3728174
20
36.8585195
40
0.5758408
50
343.0498092
51
351.9392499
0
ARC
8
DEFAULT_255_1_388
10
21.9827496
20
36.9160205
40
0.9701202
50
351.8071632
51
357.7957897
0
ARC
8
DEFAULT_255_1_388
10
21.6192973
20
36.9348724
40
1.3340376
50
357.5870923
51
359.2682493
0
LINE
8
DEFAULT_255_1_388
10
23.4393439
20
37.7174898
11
23.8134196
21
36.6323089
0
LINE
8
DEFAULT_255_1_388
10
23.8134196
20
36.6323089
11
24.1893024
21
37.7174898
0
LINE
8
DEFAULT_255_1_388
10
24.1893024
20
37.7174898
11
24.3790509
21
37.7174898
0
LINE
8
DEFAULT_255_1_388
10
24.3790509
20
37.7174898
11
23.8911261
21
36.4019
0
LINE
8
DEFAULT_255_1_388
10
23.8911261
20
36.4019
11
23.7375202
21
36.4019
0
LINE
8
DEFAULT_255_1_388
10
23.7375202
20
36.4019
11
23.2504989
21
37.7174898
0
LINE
8
DEFAULT_255_1_388
10
23.2504989
20
37.7174898
11
23.4393439
21
37.7174898
0
LINE
8
DEFAULT_255_1_388
10
22.2183367
20
5.9674898
11
22.2183367
21
4.6519
0
LINE
8
DEFAULT_255_1_388
10
22.2183367
20
4.6519
11
22.0448523
21
4.6519
0
LINE
8
DEFAULT_255_1_388
10
22.0448523
20
4.6519
11
22.0448523
21
5.9674898
0
LINE
8
DEFAULT_255_1_388
10
22.0448523
20
5.9674898
11
22.2183367
21
5.9674898
0
LINE
8
DEFAULT_255_1_388
10
23.1978005
20
5.9674898
11
23.1978005
21
5.093743
0
LINE
8
DEFAULT_255_1_388
10
23.1978005
20
5.093743
11
23.3803206
21
5.093743
0
LINE
8
DEFAULT_255_1_388
10
23.3803206
20
5.093743
11
23.3803206
21
4.9573048
0
LINE
8
DEFAULT_255_1_388
10
23.3803206
20
4.9573048
11
23.1978005
21
4.9573048
0
LINE
8
DEFAULT_255_1_388
10
23.1978005
20
4.9573048
11
23.1978005
21
4.6519
0
LINE
8
DEFAULT_255_1_388
10
23.1978005
20
4.6519
11
23.0297375
21
4.6519
0
LINE
8
DEFAULT_255_1_388
10
23.0297375
20
4.6519
11
23.0297375
21
4.9573048
0
LINE
8
DEFAULT_255_1_388
10
23.0297375
20
4.9573048
11
22.4306743
21
4.9573048
0
LINE
8
DEFAULT_255_1_388
10
22.4306743
20
4.9573048
11
22.4306743
21
5.0557933
0
LINE
8
DEFAULT_255_1_388
10
22.4306743
20
5.0557933
11
23.0197983
21
5.9674898
0
LINE
8
DEFAULT_255_1_388
10
23.0197983
20
5.9674898
11
23.1978005
21
5.9674898
0
LINE
8
DEFAULT_255_1_388
10
23.0098591
20
5.7027455
11
22.6204229
21
5.093743
0
LINE
8
DEFAULT_255_1_388
10
22.6204229
20
5.093743
11
23.0297375
21
5.093743
0
LINE
8
DEFAULT_255_1_388
10
23.0297375
20
5.093743
11
23.0297375
21
5.738888
0
LINE
8
DEFAULT_255_1_388
10
23.0297375
20
5.738888
11
23.0098591
21
5.7027455
0
LINE
8
DEFAULT_255_1_388
10
24.0272727
20
5.7415987
11
24.0272727
21
5.3575838
0
LINE
8
DEFAULT_255_1_388
10
24.0272727
20
5.3575838
11
24.3941199
21
5.3575838
0
LINE
8
DEFAULT_255_1_388
10
24.3941199
20
5.3575838
11
24.3941199
21
5.1994601
0
LINE
8
DEFAULT_255_1_388
10
24.3941199
20
5.1994601
11
24.0272727
21
5.1994601
0
LINE
8
DEFAULT_255_1_388
10
24.0272727
20
5.1994601
11
24.0272727
21
4.7838204
0
LINE
8
DEFAULT_255_1_388
10
24.0272727
20
4.7838204
11
23.8592097
21
4.7838204
0
LINE
8
DEFAULT_255_1_388
10
23.8592097
20
4.7838204
11
23.8592097
21
5.1994601
0
LINE
8
DEFAULT_255_1_388
10
23.8592097
20
5.1994601
11
23.4923625
21
5.1994601
0
LINE
8
DEFAULT_255_1_388
10
23.4923625
20
5.1994601
11
23.4923625
21
5.3575838
0
LINE
8
DEFAULT_255_1_388
10
23.4923625
20
5.3575838
11
23.8592097
21
5.3575838
0
LINE
8
DEFAULT_255_1_388
10
23.8592097
20
5.3575838
11
23.8592097
21
5.7415987
0
LINE
8
DEFAULT_255_1_388
10
23.8592097
20
5.7415987
11
24.0272727
21
5.7415987
0
LINE
8
DEFAULT_255_1_388
10
22.2183367
20
13.9049898
11
22.2183367
21
12.5894
0
LINE
8
DEFAULT_255_1_388
10
22.2183367
20
12.5894
11
22.0448523
21
12.5894
0
LINE
8
DEFAULT_255_1_388
10
22.0448523
20
12.5894
11
22.0448523
21
13.9049898
0
LINE
8
DEFAULT_255_1_388
10
22.0448523
20
13.9049898
11
22.2183367
21
13.9049898
0
LINE
8
DEFAULT_255_1_388
10
22.7351755
20
13.1920775
11
22.7351755
21
13.3285157
0
LINE
8
DEFAULT_255_1_388
10
22.7351755
20
13.3285157
11
22.860771
21
13.3285157
0
LINE
8
DEFAULT_255_1_388
10
22.6466262
20
13.5598282
11
22.4794668
21
13.5598282
0
LINE
8
DEFAULT_255_1_388
10
22.4677205
20
12.9363687
11
22.6357834
21
12.9363687
0
LINE
8
DEFAULT_255_1_388
10
22.860771
20
13.1920775
11
22.7351755
21
13.1920775
0
ARC
8
DEFAULT_255_1_388
10
22.8574936
20
13.7101922
40
0.3816905
50
270.491971
51
281.8953028
0
ARC
8
DEFAULT_255_1_388
10
22.8846363
20
13.5862199
40
0.2547877
50
281.6690378
51
301.2943765
0
ARC
8
DEFAULT_255_1_388
10
22.9037815
20
13.5511926
40
0.2149197
50
301.7834992
51
311.754567
0
ARC
8
DEFAULT_255_1_388
10
22.9140856
20
13.539765
40
0.1995326
50
311.7325027
51
354.2803031
0
ARC
8
DEFAULT_255_1_388
10
22.8323272
20
13.553828
40
0.2823461
50
353.0941646
51
0.1174696
0
ARC
8
DEFAULT_255_1_388
10
22.780483
20
13.5591874
40
0.3342238
50
359.1804452
51
15.0452323
0
ARC
8
DEFAULT_255_1_388
10
22.9318888
20
13.6033546
40
0.1765747
50
13.957816
51
77.6713812
0
ARC
8
DEFAULT_255_1_388
10
22.8884124
20
13.4475464
40
0.3381982
50
76.111571
51
90.7028736
0
ARC
8
DEFAULT_255_1_388
10
22.8817536
20
13.478325
40
0.3074046
50
89.5321574
51
103.5319393
0
ARC
8
DEFAULT_255_1_388
10
22.859192
20
13.5682443
40
0.2147041
50
103.2930114
51
133.5619756
0
ARC
8
DEFAULT_255_1_388
10
22.8541861
20
13.5749351
40
0.2064084
50
133.8349761
51
173.5343225
0
ARC
8
DEFAULT_255_1_388
10
22.9355519
20
13.5605144
40
0.2889266
50
172.5097183
51
180.1360699
0
ARC
8
DEFAULT_255_1_388
10
22.8285283
20
13.564388
40
0.3490913
50
155.3483706
51
180.7484035
0
ARC
8
DEFAULT_255_1_388
10
22.8230258
20
13.5611519
40
0.3454798
50
131.5745177
51
154.4799474
0
ARC
8
DEFAULT_255_1_388
10
22.8582541
20
13.5255422
40
0.3955058
50
96.9874487
51
131.9690874
0
ARC
8
DEFAULT_255_1_388
10
22.8829434
20
13.3854407
40
0.537622
50
89.8592909
51
97.7827481
0
ARC
8
DEFAULT_255_1_388
10
22.8883543
20
13.355936
40
0.5671399
50
78.3654493
51
90.4132586
0
ARC
8
DEFAULT_255_1_388
10
22.9286184
20
13.5425918
40
0.3762034
50
56.6229818
51
78.6387103
0
ARC
8
DEFAULT_255_1_388
10
22.9528013
20
13.5848846
40
0.3275964
50
47.0254604
51
56.085558
0
ARC
8
DEFAULT_255_1_388
10
22.9550264
20
13.5893189
40
0.3228382
50
10.9207523
51
46.777927
0
ARC
8
DEFAULT_255_1_388
10
22.8015858
20
13.5538401
40
0.4802559
50
359.6364235
51
11.6087615
0
ARC
8
DEFAULT_255_1_388
10
23.0080024
20
13.5521404
40
0.273833
50
332.3549969
51
359.7179765
0
ARC
8
DEFAULT_255_1_388
10
22.9348424
20
13.5868285
40
0.3547505
50
325.2332381
51
332.8746682
0
ARC
8
DEFAULT_255_1_388
10
22.9520007
20
13.5748763
40
0.3338396
50
292.9803892
51
325.2391113
0
ARC
8
DEFAULT_255_1_388
10
22.9209203
20
13.6353679
40
0.4016959
50
292.542178
51
293.6931461
0
ARC
8
DEFAULT_255_1_388
10
22.9652775
20
12.9088036
40
0.372079
50
57.643292
51
72.8626085
0
ARC
8
DEFAULT_255_1_388
10
23.0051609
20
12.9734273
40
0.2961455
50
36.7246661
51
57.4701329
0
ARC
8
DEFAULT_255_1_388
10
23.0038766
20
12.974847
40
0.2963321
50
8.054535
51
36.3561529
0
ARC
8
DEFAULT_255_1_388
10
22.9068439
20
12.9574073
40
0.3948682
50
359.8316595
51
8.5873361
0
ARC
8
DEFAULT_255_1_388
10
22.8645913
20
12.951997
40
0.4371398
50
343.9831631
51
0.557075
0
ARC
8
DEFAULT_255_1_388
10
22.9642962
20
12.9246963
40
0.3337749
50
311.6358204
51
343.7652116
0
ARC
8
DEFAULT_255_1_388
10
22.9217216
20
12.9726955
40
0.3979351
50
279.7829743
51
311.625622
0
ARC
8
DEFAULT_255_1_388
10
22.8878351
20
13.1343642
40
0.5630417
50
269.7285092
51
280.3857694
0
ARC
8
DEFAULT_255_1_388
10
22.8808664
20
13.1297241
40
0.5584119
50
256.6827433
51
270.4412869
0
ARC
8
DEFAULT_255_1_388
10
22.8427651
20
12.9739698
40
0.3980715
50
229.4223821
51
256.8554507
0
ARC
8
DEFAULT_255_1_388
10
22.7961204
20
12.9214683
40
0.3278564
50
181.8183354
51
229.6455015
0
ARC
8
DEFAULT_255_1_388
10
22.9130814
20
12.9361825
40
0.4453611
50
179.9760419
51
183.2330638
0
ARC
8
DEFAULT_255_1_388
10
22.8937366
20
12.9338781
40
0.2579652
50
179.4467996
51
196.2871626
0
ARC
8
DEFAULT_255_1_388
10
22.838882
20
12.9188709
40
0.2011057
50
196.5661293
51
227.7059371
0
ARC
8
DEFAULT_255_1_388
10
22.8573427
20
12.9395155
40
0.2287994
50
227.7653015
51
257.8763321
0
ARC
8
DEFAULT_255_1_388
10
22.882651
20
13.0455961
40
0.3378385
50
257.4583525
51
270.4267406
0
ARC
8
DEFAULT_255_1_388
10
22.887776
20
13.078223
40
0.3704652
50
269.5965319
51
280.8788143
0
ARC
8
DEFAULT_255_1_388
10
22.9135988
20
12.9492529
40
0.2389415
50
280.6347277
51
299.8594068
0
ARC
8
DEFAULT_255_1_388
10
22.9350757
20
12.9084736
40
0.19289
50
300.3575552
51
314.5515667
0
ARC
8
DEFAULT_255_1_388
10
22.9257433
20
12.9153025
40
0.204312
50
315.0730962
51
345.0429362
0
ARC
8
DEFAULT_255_1_388
10
22.8218941
20
12.9455539
40
0.31246
50
344.598526
51
357.9270698
0
ARC
8
DEFAULT_255_1_388
10
22.7209245
20
12.9524705
40
0.4136265
50
357.4755098
51
0.0224936
0
ARC
8
DEFAULT_255_1_388
10
22.8362123
20
12.9552099
40
0.2983498
50
359.5051035
51
13.4236939
0
ARC
8
DEFAULT_255_1_388
10
22.9337213
20
12.9801637
40
0.1977186
50
12.9497905
51
48.7550905
0
ARC
8
DEFAULT_255_1_388
10
22.9132135
20
12.9521373
40
0.2323321
50
49.509109
51
72.1832965
0
ARC
8
DEFAULT_255_1_388
10
22.8729603
20
12.8326632
40
0.358397
50
71.9008458
51
84.3555134
0
ARC
8
DEFAULT_255_1_388
10
22.8547998
20
12.6794712
40
0.512641
50
84.019632
51
89.3326067
0
LINE
8
DEFAULT_255_1_388
10
24.0272727
20
13.6790987
11
24.0272727
21
13.2950838
0
LINE
8
DEFAULT_255_1_388
10
24.0272727
20
13.2950838
11
24.3941199
21
13.2950838
0
LINE
8
DEFAULT_255_1_388
10
24.3941199
20
13.2950838
11
24.3941199
21
13.1369601
0
LINE
8
DEFAULT_255_1_388
10
24.3941199
20
13.1369601
11
24.0272727
21
13.1369601
0
LINE
8
DEFAULT_255_1_388
10
24.0272727
20
13.1369601
11
24.0272727
21
12.7213204
0
LINE
8
DEFAULT_255_1_388
10
24.0272727
20
12.7213204
11
23.8592097
21
12.7213204
0
LINE
8
DEFAULT_255_1_388
10
23.8592097
20
12.7213204
11
23.8592097
21
13.1369601
0
LINE
8
DEFAULT_255_1_388
10
23.8592097
20
13.1369601
11
23.4923625
21
13.1369601
0
LINE
8
DEFAULT_255_1_388
10
23.4923625
20
13.1369601
11
23.4923625
21
13.2950838
0
LINE
8
DEFAULT_255_1_388
10
23.4923625
20
13.2950838
11
23.8592097
21
13.2950838
0
LINE
8
DEFAULT_255_1_388
10
23.8592097
20
13.2950838
11
23.8592097
21
13.6790987
0
LINE
8
DEFAULT_255_1_388
10
23.8592097
20
13.6790987
11
24.0272727
21
13.6790987
0
LINE
8
DEFAULT_255_1_388
10
22.2183367
20
21.8424898
11
22.2183367
21
20.5269
0
LINE
8
DEFAULT_255_1_388
10
22.2183367
20
20.5269
11
22.0448523
21
20.5269
0
LINE
8
DEFAULT_255_1_388
10
22.0448523
20
20.5269
11
22.0448523
21
21.8424898
0
LINE
8
DEFAULT_255_1_388
10
22.0448523
20
21.8424898
11
22.2183367
21
21.8424898
0
LINE
8
DEFAULT_255_1_388
10
23.3541172
20
20.6633382
11
23.3541172
21
20.5269
0
LINE
8
DEFAULT_255_1_388
10
23.3541172
20
20.5269
11
22.4921167
21
20.5269
0
LINE
8
DEFAULT_255_1_388
10
22.4921167
20
20.5269
11
22.4921167
21
20.6470741
0
LINE
8
DEFAULT_255_1_388
10
22.4921167
20
20.6470741
11
22.9475132
21
21.1530702
0
LINE
8
DEFAULT_255_1_388
10
22.6339763
20
21.4548607
11
22.4668169
21
21.4548607
0
LINE
8
DEFAULT_255_1_388
10
23.0460017
20
21.045546
11
22.6936116
21
20.6633382
0
LINE
8
DEFAULT_255_1_388
10
22.6936116
20
20.6633382
11
23.3541172
21
20.6633382
0
ARC
8
DEFAULT_255_1_388
10
21.4299191
20
22.4950983
40
2.0258655
50
318.5132526
51
320.7829045
0
ARC
8
DEFAULT_255_1_388
10
22.0247148
20
22.0109929
40
1.2589638
50
320.7372878
51
323.9739031
0
ARC
8
DEFAULT_255_1_388
10
22.465608
20
21.6915554
40
0.7145141
50
323.8962701
51
328.64194
0
ARC
8
DEFAULT_255_1_388
10
22.6958338
20
21.5495545
40
0.4440242
50
328.8294576
51
331.7891185
0
ARC
8
DEFAULT_255_1_388
10
22.8080658
20
21.4916374
40
0.3177517
50
331.4254512
51
352.9365785
0
ARC
8
DEFAULT_255_1_388
10
22.8233658
20
21.488205
40
0.3021496
50
353.2257659
51
0.0166158
0
ARC
8
DEFAULT_255_1_388
10
22.8470418
20
21.4907894
40
0.2784847
50
359.486299
51
15.9343185
0
ARC
8
DEFAULT_255_1_388
10
22.9040685
20
21.5061269
40
0.2194403
50
16.1712913
51
43.5286088
0
ARC
8
DEFAULT_255_1_388
10
22.912763
20
21.5148191
40
0.2071504
50
43.4417391
51
83.1661095
0
ARC
8
DEFAULT_255_1_388
10
22.8976791
20
21.4319316
40
0.2912888
50
82.160179
51
90.1505708
0
ARC
8
DEFAULT_255_1_388
10
22.8941272
20
21.3715279
40
0.3517025
50
89.5460741
51
102.5418361
0
ARC
8
DEFAULT_255_1_388
10
22.8667992
20
21.4874933
40
0.2325748
50
102.1738499
51
129.206123
0
ARC
8
DEFAULT_255_1_388
10
22.8579446
20
21.5014664
40
0.2161591
50
129.72865
51
135.753947
0
ARC
8
DEFAULT_255_1_388
10
22.8715928
20
21.4905728
40
0.2335433
50
136.1757367
51
166.3673339
0
ARC
8
DEFAULT_255_1_388
10
22.9848616
20
21.4602148
40
0.3507873
50
165.9090694
51
178.8684636
0
ARC
8
DEFAULT_255_1_388
10
23.0824388
20
21.4549263
40
0.4484624
50
178.4391136
51
180.0083808
0
ARC
8
DEFAULT_255_1_388
10
22.9245089
20
21.4593197
40
0.4577138
50
163.2878482
51
180.5581842
0
ARC
8
DEFAULT_255_1_388
10
22.834313
20
21.4841393
40
0.3641968
50
133.4540601
51
162.947111
0
ARC
8
DEFAULT_255_1_388
10
22.8544012
20
21.4627789
40
0.3935189
50
100.7869829
51
133.4382499
0
ARC
8
DEFAULT_255_1_388
10
22.8935257
20
21.2885399
40
0.5720313
50
89.660664
51
101.3702276
0
ARC
8
DEFAULT_255_1_388
10
22.9009866
20
21.2954263
40
0.5651495
50
78.2172678
51
90.412935
0
ARC
8
DEFAULT_255_1_388
10
22.9409332
20
21.4781511
40
0.378122
50
55.9269121
51
78.4888449
0
ARC
8
DEFAULT_255_1_388
10
22.9630047
20
21.5162187
40
0.3342379
50
47.929771
51
55.4049217
0
ARC
8
DEFAULT_255_1_388
10
22.9744577
20
21.5278618
40
0.3179217
50
4.334829
51
48.0560205
0
ARC
8
DEFAULT_255_1_388
10
22.8512379
20
21.5087487
40
0.442341
50
359.9251713
51
5.5971671
0
ARC
8
DEFAULT_255_1_388
10
22.8994534
20
21.5150728
40
0.3941854
50
337.8914027
51
358.9967534
0
ARC
8
DEFAULT_255_1_388
10
22.5942104
20
21.6328295
40
0.7213271
50
326.9132501
51
338.3508308
0
ARC
8
DEFAULT_255_1_388
10
22.1458216
20
21.9202105
40
1.2538973
50
319.6471833
51
327.0959558
0
ARC
8
DEFAULT_255_1_388
10
21.7144874
20
22.276005
40
1.8129975
50
317.2588228
51
319.9045804
0
LINE
8
DEFAULT_255_1_388
10
24.0272727
20
21.6165987
11
24.0272727
21
21.2325838
0
LINE
8
DEFAULT_255_1_388
10
24.0272727
20
21.2325838
11
24.3941199
21
21.2325838
0
LINE
8
DEFAULT_255_1_388
10
24.3941199
20
21.2325838
11
24.3941199
21
21.0744601
0
LINE
8
DEFAULT_255_1_388
10
24.3941199
20
21.0744601
11
24.0272727
21
21.0744601
0
LINE
8
DEFAULT_255_1_388
10
24.0272727
20
21.0744601
11
24.0272727
21
20.6588204
0
LINE
8
DEFAULT_255_1_388
10
24.0272727
20
20.6588204
11
23.8592097
21
20.6588204
0
LINE
8
DEFAULT_255_1_388
10
23.8592097
20
20.6588204
11
23.8592097
21
21.0744601
0
LINE
8
DEFAULT_255_1_388
10
23.8592097
20
21.0744601
11
23.4923625
21
21.0744601
0
LINE
8
DEFAULT_255_1_388
10
23.4923625
20
21.0744601
11
23.4923625
21
21.2325838
0
LINE
8
DEFAULT_255_1_388
10
23.4923625
20
21.2325838
11
23.8592097
21
21.2325838
0
LINE
8
DEFAULT_255_1_388
10
23.8592097
20
21.2325838
11
23.8592097
21
21.6165987
0
LINE
8
DEFAULT_255_1_388
10
23.8592097
20
21.6165987
11
24.0272727
21
21.6165987
0
LINE
8
DEFAULT_255_1_388
10
22.2183367
20
29.7799898
11
22.2183367
21
28.4644
0
LINE
8
DEFAULT_255_1_388
10
22.2183367
20
28.4644
11
22.0448523
21
28.4644
0
LINE
8
DEFAULT_255_1_388
10
22.0448523
20
28.4644
11
22.0448523
21
29.7799898
0
LINE
8
DEFAULT_255_1_388
10
22.0448523
20
29.7799898
11
22.2183367
21
29.7799898
0
LINE
8
DEFAULT_255_1_388
10
23.0414839
20
29.7863148
11
23.0414839
21
28.4644
0
LINE
8
DEFAULT_255_1_388
10
23.0414839
20
28.4644
11
22.8734209
21
28.4644
0
LINE
8
DEFAULT_255_1_388
10
22.8734209
20
28.4644
11
22.8734209
21
29.578495
0
LINE
8
DEFAULT_255_1_388
10
22.8734209
20
29.578495
11
22.5363914
21
29.4547066
0
LINE
8
DEFAULT_255_1_388
10
22.5363914
20
29.4547066
11
22.5363914
21
29.6065055
0
LINE
8
DEFAULT_255_1_388
10
22.5363914
20
29.6065055
11
23.0152805
21
29.7863148
0
LINE
8
DEFAULT_255_1_388
10
23.0152805
20
29.7863148
11
23.0414839
21
29.7863148
0
LINE
8
DEFAULT_255_1_388
10
24.0272727
20
29.5540987
11
24.0272727
21
29.1700838
0
LINE
8
DEFAULT_255_1_388
10
24.0272727
20
29.1700838
11
24.3941199
21
29.1700838
0
LINE
8
DEFAULT_255_1_388
10
24.3941199
20
29.1700838
11
24.3941199
21
29.0119601
0
LINE
8
DEFAULT_255_1_388
10
24.3941199
20
29.0119601
11
24.0272727
21
29.0119601
0
LINE
8
DEFAULT_255_1_388
10
24.0272727
20
29.0119601
11
24.0272727
21
28.5963204
0
LINE
8
DEFAULT_255_1_388
10
24.0272727
20
28.5963204
11
23.8592097
21
28.5963204
0
LINE
8
DEFAULT_255_1_388
10
23.8592097
20
28.5963204
11
23.8592097
21
29.0119601
0
LINE
8
DEFAULT_255_1_388
10
23.8592097
20
29.0119601
11
23.4923625
21
29.0119601
0
LINE
8
DEFAULT_255_1_388
10
23.4923625
20
29.0119601
11
23.4923625
21
29.1700838
0
LINE
8
DEFAULT_255_1_388
10
23.4923625
20
29.1700838
11
23.8592097
21
29.1700838
0
LINE
8
DEFAULT_255_1_388
10
23.8592097
20
29.1700838
11
23.8592097
21
29.5540987
0
LINE
8
DEFAULT_255_1_388
10
23.8592097
20
29.5540987
11
24.0272727
21
29.5540987
0
ENDSEC
0
EOF