0
SECTION
2
HEADER
9
$MEASUREMENT
70
1
0
ENDSEC
0
SECTION
2
TABLES
0
TABLE
2
LTYPE
0
LTYPE
72
65
70
64
2
CONTINUOUS
3
______
73
0
40
0
0
ENDTAB
0
TABLE
2
LAYER
0
LAYER
2
DEFAULT_255_2_778
70
0
62
255
6
CONTINUOUS
0
LAYER
2
DEFAULT_255_1_388
70
0
62
255
6
CONTINUOUS
0
LAYER
2
DEFAULT_255_2_778_1
70
0
62
255
6
CONTINUOUS
0
ENDTAB
0
ENDSEC
0
SECTION
2
ENTITIES
0
ARC
8
DEFAULT_255_2_778
10
3.5700693
20
147.242652
40
0.7914215
50
129.1312896
51
180.1450914
0
ARC
8
DEFAULT_255_2_778
10
3.5703345
20
147.2431391
40
0.7912112
50
89.854026
51
129.1684493
0
ARC
8
DEFAULT_255_2_778
10
25.7993937
20
147.2428257
40
0.7915249
50
39.4792447
51
90.147911
0
ARC
8
DEFAULT_255_2_778
10
25.7999935
20
147.2426723
40
0.7911595
50
359.8533901
51
39.5154338
0
ARC
8
DEFAULT_255_2_778
10
25.7996693
20
-1.9864002
40
0.7914836
50
309.4761667
51
0.1482649
0
ARC
8
DEFAULT_255_2_778
10
25.799398
20
-1.9868313
40
0.7913235
50
269.8517415
51
309.511178
0
ARC
8
DEFAULT_255_2_778
10
3.570342
20
-1.9867731
40
0.7913815
50
219.1282118
51
270.1454017
0
ARC
8
DEFAULT_255_2_778
10
3.5700247
20
-1.9863907
40
0.7913769
50
179.8524075
51
219.1641908
0
LINE
8
DEFAULT_255_2_778
10
3.5723503
20
148.0343479
11
25.7973503
21
148.0343479
0
LINE
8
DEFAULT_255_2_778
10
26.5911503
20
147.2406479
11
26.5911503
21
-1.9843521
0
LINE
8
DEFAULT_255_2_778
10
25.7973503
20
-2.7781521
11
3.5723503
21
-2.7781521
0
LINE
8
DEFAULT_255_2_778
10
2.7786503
20
-1.9843521
11
2.7786503
21
147.2406479
0
LINE
8
DEFAULT_255_1_388
10
10.4131094
20
-0.1247683
11
10.1031868
21
-0.1247683
0
LINE
8
DEFAULT_255_1_388
10
10.1031868
20
-0.1247683
11
10.1031868
21
-0.6398
0
LINE
8
DEFAULT_255_1_388
10
10.1031868
20
-0.6398
11
9.9297024
21
-0.6398
0
LINE
8
DEFAULT_255_1_388
10
9.9297024
20
-0.6398
11
9.9297024
21
0.6757898
0
LINE
8
DEFAULT_255_1_388
10
9.9297024
20
0.6757898
11
10.4149165
21
0.6757898
0
LINE
8
DEFAULT_255_1_388
10
10.1031868
20
0.5330267
11
10.1031868
21
0.0170914
0
LINE
8
DEFAULT_255_1_388
10
10.1031868
20
0.0170914
11
10.4149165
21
0.0170914
0
LINE
8
DEFAULT_255_1_388
10
10.4248557
20
0.5330267
11
10.1031868
21
0.5330267
0
ARC
8
DEFAULT_255_1_388
10
10.4196538
20
-0.0058666
40
0.6816729
50
78.8380084
51
90.398184
0
ARC
8
DEFAULT_255_1_388
10
10.4664569
20
0.2214796
40
0.449571
50
58.9633273
51
79.0810717
0
ARC
8
DEFAULT_255_1_388
10
10.5003953
20
0.2844823
40
0.3781049
50
48.0194715
51
58.4475592
0
ARC
8
DEFAULT_255_1_388
10
10.5103773
20
0.2940818
40
0.3642936
50
3.3374546
51
48.1766642
0
ARC
8
DEFAULT_255_1_388
10
10.371858
20
0.2741581
40
0.5038766
50
359.9483251
51
4.6822857
0
ARC
8
DEFAULT_255_1_388
10
10.3858503
20
0.2693779
40
0.4899031
50
346.1879032
51
0.5059221
0
ARC
8
DEFAULT_255_1_388
10
10.5387295
20
0.2296763
40
0.3319729
50
310.8832219
51
346.5426612
0
ARC
8
DEFAULT_255_1_388
10
10.5040143
20
0.2765853
40
0.3901853
50
286.6925305
51
310.228778
0
ARC
8
DEFAULT_255_1_388
10
10.4399873
20
0.4779585
40
0.6014737
50
274.6848219
51
287.0247342
0
ARC
8
DEFAULT_255_1_388
10
10.4146422
20
0.7264088
40
0.8511785
50
269.8968222
51
275.0192639
0
ARC
8
DEFAULT_255_1_388
10
10.4177415
20
0.4926144
40
0.4755314
50
269.6596206
51
279.4150542
0
ARC
8
DEFAULT_255_1_388
10
10.4466873
20
0.3248945
40
0.3053379
50
279.2050006
51
294.9901776
0
ARC
8
DEFAULT_255_1_388
10
10.4793508
20
0.2520353
40
0.2255036
50
295.2886769
51
311.2912669
0
ARC
8
DEFAULT_255_1_388
10
10.4873249
20
0.2401938
40
0.2113522
50
311.7853512
51
347.2860549
0
ARC
8
DEFAULT_255_1_388
10
10.376641
20
0.268643
40
0.3256011
50
346.6891629
51
0.1057086
0
ARC
8
DEFAULT_255_1_388
10
10.284387
20
0.2719247
40
0.417863
50
359.63239
51
359.9961329
0
ARC
8
DEFAULT_255_1_388
10
10.4008475
20
0.2746987
40
0.3014155
50
359.4673371
51
15.5931159
0
ARC
8
DEFAULT_255_1_388
10
10.4711538
20
0.2936937
40
0.2285918
50
15.7441779
51
46.620186
0
ARC
8
DEFAULT_255_1_388
10
10.4545298
20
0.2745361
40
0.2539359
50
46.8628482
51
75.6676625
0
ARC
8
DEFAULT_255_1_388
10
10.4214354
20
0.1554243
40
0.3775415
50
75.2763152
51
88.2916439
0
ARC
8
DEFAULT_255_1_388
10
10.4148354
20
0.0552097
40
0.4779221
50
87.8589087
51
88.7986197
0
LINE
8
DEFAULT_255_1_388
10
11.9157371
20
-0.5033618
11
11.9157371
21
-0.6398
0
LINE
8
DEFAULT_255_1_388
10
11.9157371
20
-0.6398
11
11.0537366
21
-0.6398
0
LINE
8
DEFAULT_255_1_388
10
11.0537366
20
-0.6398
11
11.0537366
21
-0.5196259
0
LINE
8
DEFAULT_255_1_388
10
11.0537366
20
-0.5196259
11
11.5091331
21
-0.0136298
0
LINE
8
DEFAULT_255_1_388
10
11.1955962
20
0.2881607
11
11.0284368
21
0.2881607
0
LINE
8
DEFAULT_255_1_388
10
11.6076216
20
-0.121154
11
11.2552314
21
-0.5033618
0
LINE
8
DEFAULT_255_1_388
10
11.2552314
20
-0.5033618
11
11.9157371
21
-0.5033618
0
ARC
8
DEFAULT_255_1_388
10
9.991539
20
1.3283983
40
2.0258655
50
318.5132526
51
320.7829045
0
ARC
8
DEFAULT_255_1_388
10
10.5863347
20
0.8442929
40
1.2589638
50
320.7372878
51
323.9739031
0
ARC
8
DEFAULT_255_1_388
10
11.0272279
20
0.5248554
40
0.7145141
50
323.8962701
51
328.64194
0
ARC
8
DEFAULT_255_1_388
10
11.2574536
20
0.3828545
40
0.4440242
50
328.8294576
51
331.7891185
0
ARC
8
DEFAULT_255_1_388
10
11.3696856
20
0.3249374
40
0.3177517
50
331.4254512
51
352.9365785
0
ARC
8
DEFAULT_255_1_388
10
11.3849856
20
0.321505
40
0.3021496
50
353.2257659
51
0.0166158
0
ARC
8
DEFAULT_255_1_388
10
11.4086617
20
0.3240894
40
0.2784847
50
359.486299
51
15.9343185
0
ARC
8
DEFAULT_255_1_388
10
11.4656884
20
0.3394269
40
0.2194403
50
16.1712913
51
43.5286088
0
ARC
8
DEFAULT_255_1_388
10
11.4743828
20
0.3481191
40
0.2071504
50
43.4417391
51
83.1661095
0
ARC
8
DEFAULT_255_1_388
10
11.4592989
20
0.2652316
40
0.2912888
50
82.160179
51
90.1505708
0
ARC
8
DEFAULT_255_1_388
10
11.4557471
20
0.2048279
40
0.3517025
50
89.5460741
51
102.5418361
0
ARC
8
DEFAULT_255_1_388
10
11.4284191
20
0.3207933
40
0.2325748
50
102.1738499
51
129.206123
0
ARC
8
DEFAULT_255_1_388
10
11.4195644
20
0.3347664
40
0.2161591
50
129.72865
51
135.753947
0
ARC
8
DEFAULT_255_1_388
10
11.4332127
20
0.3238728
40
0.2335433
50
136.1757367
51
166.3673339
0
ARC
8
DEFAULT_255_1_388
10
11.5464815
20
0.2935148
40
0.3507873
50
165.9090694
51
178.8684636
0
ARC
8
DEFAULT_255_1_388
10
11.6440586
20
0.2882263
40
0.4484624
50
178.4391136
51
180.0083808
0
ARC
8
DEFAULT_255_1_388
10
11.4861288
20
0.2926197
40
0.4577138
50
163.2878482
51
180.5581842
0
ARC
8
DEFAULT_255_1_388
10
11.3959329
20
0.3174393
40
0.3641968
50
133.4540601
51
162.947111
0
ARC
8
DEFAULT_255_1_388
10
11.4160211
20
0.2960789
40
0.3935189
50
100.7869829
51
133.4382499
0
ARC
8
DEFAULT_255_1_388
10
11.4551456
20
0.1218399
40
0.5720313
50
89.660664
51
101.3702276
0
ARC
8
DEFAULT_255_1_388
10
11.4626065
20
0.1287263
40
0.5651495
50
78.2172678
51
90.412935
0
ARC
8
DEFAULT_255_1_388
10
11.5025531
20
0.3114511
40
0.378122
50
55.9269121
51
78.4888449
0
ARC
8
DEFAULT_255_1_388
10
11.5246246
20
0.3495187
40
0.3342379
50
47.929771
51
55.4049217
0
ARC
8
DEFAULT_255_1_388
10
11.5360776
20
0.3611618
40
0.3179217
50
4.334829
51
48.0560205
0
ARC
8
DEFAULT_255_1_388
10
11.4128578
20
0.3420487
40
0.442341
50
359.9251713
51
5.5971671
0
ARC
8
DEFAULT_255_1_388
10
11.4610732
20
0.3483728
40
0.3941854
50
337.8914027
51
358.9967534
0
ARC
8
DEFAULT_255_1_388
10
11.1558303
20
0.4661295
40
0.7213271
50
326.9132501
51
338.3508308
0
ARC
8
DEFAULT_255_1_388
10
10.7074414
20
0.7535105
40
1.2538973
50
319.6471833
51
327.0959558
0
ARC
8
DEFAULT_255_1_388
10
10.2761073
20
1.109305
40
1.8129975
50
317.2588228
51
319.9045804
0
LINE
8
DEFAULT_255_1_388
10
12.4578757
20
-0.0127263
11
12.4578757
21
-0.1491645
0
LINE
8
DEFAULT_255_1_388
10
12.4578757
20
-0.1491645
11
12.0169363
21
-0.1491645
0
LINE
8
DEFAULT_255_1_388
10
12.0169363
20
-0.1491645
11
12.0169363
21
-0.0127263
0
LINE
8
DEFAULT_255_1_388
10
12.0169363
20
-0.0127263
11
12.4578757
21
-0.0127263
0
LINE
8
DEFAULT_255_1_388
10
13.1527168
20
0.6821148
11
13.1527168
21
-0.6398
0
LINE
8
DEFAULT_255_1_388
10
13.1527168
20
-0.6398
11
12.9846538
21
-0.6398
0
LINE
8
DEFAULT_255_1_388
10
12.9846538
20
-0.6398
11
12.9846538
21
0.474295
0
LINE
8
DEFAULT_255_1_388
10
12.9846538
20
0.474295
11
12.6476243
21
0.3505066
0
LINE
8
DEFAULT_255_1_388
10
12.6476243
20
0.3505066
11
12.6476243
21
0.5023055
0
LINE
8
DEFAULT_255_1_388
10
12.6476243
20
0.5023055
11
13.1265134
21
0.6821148
0
LINE
8
DEFAULT_255_1_388
10
13.1265134
20
0.6821148
11
13.1527168
21
0.6821148
0
LINE
8
DEFAULT_255_1_388
10
14.2686189
20
0.6766934
11
14.2984365
21
0.6766934
0
LINE
8
DEFAULT_255_1_388
10
14.2984365
20
0.6766934
11
14.2984365
21
0.5348338
0
LINE
8
DEFAULT_255_1_388
10
14.2984365
20
0.5348338
11
14.2677153
21
0.5348338
0
LINE
8
DEFAULT_255_1_388
10
13.6523879
20
-0.1392253
11
13.6523879
21
-0.0750722
0
LINE
8
DEFAULT_255_1_388
10
13.8204509
20
-0.0967578
11
13.8204509
21
-0.1582001
0
ARC
8
DEFAULT_255_1_388
10
14.2736045
20
-0.0274174
40
0.562282
50
90.6001079
51
104.5146616
0
ARC
8
DEFAULT_255_1_388
10
14.2299004
20
0.13511
40
0.3939917
50
104.2855758
51
133.8630124
0
ARC
8
DEFAULT_255_1_388
10
14.2483257
20
0.1229243
40
0.4155734
50
134.5304124
51
161.6210222
0
ARC
8
DEFAULT_255_1_388
10
14.4343189
20
0.0573421
40
0.6127682
50
161.2850533
51
174.2074364
0
ARC
8
DEFAULT_255_1_388
10
14.5932756
20
0.0354437
40
0.7731446
50
173.7817938
51
174.9251711
0
ARC
8
DEFAULT_255_1_388
10
14.080695
20
-0.120073
40
0.3412588
50
95.8332067
51
138.995412
0
ARC
8
DEFAULT_255_1_388
10
14.105823
20
-0.2639305
40
0.4870358
50
89.8755506
51
97.0540979
0
ARC
8
DEFAULT_255_1_388
10
14.1111619
20
-0.1699159
40
0.3930432
50
71.6407016
51
90.6240821
0
ARC
8
DEFAULT_255_1_388
10
14.1281013
20
-0.1075567
40
0.3285421
50
39.6368051
51
71.0190743
0
ARC
8
DEFAULT_255_1_388
10
14.056492
20
-0.1694414
40
0.4231706
50
10.6588054
51
39.9044509
0
ARC
8
DEFAULT_255_1_388
10
13.8823466
20
-0.2072777
40
0.60133
50
359.6827842
51
11.1326896
0
ARC
8
DEFAULT_255_1_388
10
13.8778802
20
-0.2152285
40
0.6058047
50
347.2485908
51
0.4371098
0
ARC
8
DEFAULT_255_1_388
10
14.0654587
20
-0.2603621
40
0.4128987
50
318.1408565
51
347.6118497
0
ARC
8
DEFAULT_255_1_388
10
14.1020184
20
-0.2904097
40
0.3656244
50
275.6342406
51
317.824739
0
ARC
8
DEFAULT_255_1_388
10
14.0771705
20
-0.1442173
40
0.513655
50
269.8872513
51
276.7916069
0
ARC
8
DEFAULT_255_1_388
10
14.0709897
20
-0.2595819
40
0.398323
50
246.9139443
51
270.7436787
0
ARC
8
DEFAULT_255_1_388
10
14.0717093
20
-0.2755956
40
0.3839368
50
218.1665534
51
245.8780431
0
ARC
8
DEFAULT_255_1_388
10
14.1706465
20
-0.1928097
40
0.5128958
50
191.4115343
51
218.6077624
0
ARC
8
DEFAULT_255_1_388
10
14.3886781
20
-0.1439223
40
0.7363054
50
179.6344971
51
191.7836758
0
ARC
8
DEFAULT_255_1_388
10
15.0166656
20
-0.0675505
40
1.3642984
50
171.4523743
51
180.3158856
0
ARC
8
DEFAULT_255_1_388
10
14.5222383
20
0.0093895
40
0.8639311
50
157.9802296
51
171.6246761
0
ARC
8
DEFAULT_255_1_388
10
14.2731733
20
0.1087038
40
0.5958004
50
141.4299236
51
157.8541251
0
ARC
8
DEFAULT_255_1_388
10
14.2009817
20
0.1597746
40
0.5075416
50
102.871586
51
140.8564533
0
ARC
8
DEFAULT_255_1_388
10
14.273837
20
-0.1147057
40
0.7914163
50
90.377773
51
103.5868422
0
ARC
8
DEFAULT_255_1_388
10
14.0782891
20
-0.1827457
40
0.2667015
50
89.8751238
51
126.2072139
0
ARC
8
DEFAULT_255_1_388
10
14.0834362
20
-0.2001153
40
0.2838229
50
124.9742447
51
144.8960197
0
ARC
8
DEFAULT_255_1_388
10
14.0636607
20
-0.1840019
40
0.2583845
50
145.2974778
51
160.2660922
0
ARC
8
DEFAULT_255_1_388
10
14.4093095
20
-0.1617849
40
0.5888695
50
179.6512124
51
190.285571
0
ARC
8
DEFAULT_255_1_388
10
14.2187575
20
-0.1977032
40
0.3949683
50
190.0944895
51
207.5099647
0
ARC
8
DEFAULT_255_1_388
10
14.1551157
20
-0.2279823
40
0.3245464
50
207.9585471
51
216.325377
0
ARC
8
DEFAULT_255_1_388
10
14.1168794
20
-0.2594288
40
0.2751259
50
215.7661336
51
232.5457193
0
ARC
8
DEFAULT_255_1_388
10
14.0737909
20
-0.3141727
40
0.2054668
50
232.8005815
51
270.6605497
0
ARC
8
DEFAULT_255_1_388
10
14.0789334
20
-0.2732147
40
0.2464268
50
269.3550767
51
288.474612
0
ARC
8
DEFAULT_255_1_388
10
14.0893841
20
-0.3125279
40
0.2058436
50
289.1831976
51
322.9685307
0
ARC
8
DEFAULT_255_1_388
10
14.0205942
20
-0.2582721
40
0.2934408
50
322.6007085
51
346.5183319
0
ARC
8
DEFAULT_255_1_388
10
13.8903699
20
-0.2250566
40
0.4278249
50
346.2584622
51
358.7739592
0
ARC
8
DEFAULT_255_1_388
10
13.7752274
20
-0.2188171
40
0.5430876
50
358.3757628
51
0.0082477
0
ARC
8
DEFAULT_255_1_388
10
13.8609092
20
-0.2157144
40
0.4574157
50
359.6211417
51
11.28403
0
ARC
8
DEFAULT_255_1_388
10
14.0045699
20
-0.1857465
40
0.3106708
50
11.0483152
51
31.8145585
0
ARC
8
DEFAULT_255_1_388
10
14.0393404
20
-0.1668955
40
0.2711963
50
32.3028554
51
38.0820598
0
ARC
8
DEFAULT_255_1_388
10
14.0866637
20
-0.1240283
40
0.2075566
50
36.8249851
51
85.741667
0
ARC
8
DEFAULT_255_1_388
10
14.0791049
20
-0.1803935
40
0.2643487
50
85.0150021
51
90.050843
0
LINE
8
DEFAULT_255_1_388
10
15.5769802
20
-0.6398
11
15.4513848
21
-0.2964455
0
LINE
8
DEFAULT_255_1_388
10
15.4513848
20
-0.2964455
11
14.9002104
21
-0.2964455
0
LINE
8
DEFAULT_255_1_388
10
14.9002104
20
-0.2964455
11
14.7764221
21
-0.6398
0
LINE
8
DEFAULT_255_1_388
10
14.7764221
20
-0.6398
11
14.5975164
21
-0.6398
0
LINE
8
DEFAULT_255_1_388
10
14.5975164
20
-0.6398
11
15.0998982
21
0.6757898
0
LINE
8
DEFAULT_255_1_388
10
15.0998982
20
0.6757898
11
15.251697
21
0.6757898
0
LINE
8
DEFAULT_255_1_388
10
15.251697
20
0.6757898
11
15.7549824
21
-0.6398
0
LINE
8
DEFAULT_255_1_388
10
15.7549824
20
-0.6398
11
15.5769802
21
-0.6398
0
LINE
8
DEFAULT_255_1_388
10
15.1757976
20
0.4616451
11
14.9526172
21
-0.1536823
0
LINE
8
DEFAULT_255_1_388
10
14.9526172
20
-0.1536823
11
15.3998816
21
-0.1536823
0
LINE
8
DEFAULT_255_1_388
10
15.3998816
20
-0.1536823
11
15.1757976
21
0.4616451
0
LINE
8
DEFAULT_255_1_388
10
16.2962175
20
-0.6398
11
15.9320811
21
-0.6398
0
LINE
8
DEFAULT_255_1_388
10
15.9320811
20
-0.6398
11
15.9320811
21
0.6757898
0
LINE
8
DEFAULT_255_1_388
10
15.9320811
20
0.6757898
11
16.303446
21
0.6757898
0
LINE
8
DEFAULT_255_1_388
10
16.8835344
20
0.0622696
11
16.8835344
21
-0.0217619
0
LINE
8
DEFAULT_255_1_388
10
16.3079639
20
0.5330267
11
16.1055654
21
0.5330267
0
LINE
8
DEFAULT_255_1_388
10
16.1055654
20
0.5330267
11
16.1055654
21
-0.4979404
0
LINE
8
DEFAULT_255_1_388
10
16.1055654
20
-0.4979404
11
16.2880854
21
-0.4979404
0
LINE
8
DEFAULT_255_1_388
10
16.7118572
20
-0.0181477
11
16.7118572
21
0.0586553
0
ARC
8
DEFAULT_255_1_388
10
16.3078255
20
0.0159436
40
0.6598608
50
75.4100343
51
90.3802731
0
ARC
8
DEFAULT_255_1_388
10
16.3336501
20
0.1235691
40
0.5492049
50
60.1455157
51
75.1889627
0
ARC
8
DEFAULT_255_1_388
10
16.3515092
20
0.1546914
40
0.5133226
50
26.525419
51
60.1451222
0
ARC
8
DEFAULT_255_1_388
10
16.2254878
20
0.0878642
40
0.6559324
50
7.4029944
51
26.832209
0
ARC
8
DEFAULT_255_1_388
10
16.0461276
20
0.0599229
40
0.8374103
50
0.1605597
51
7.7176135
0
ARC
8
DEFAULT_255_1_388
10
16.0645676
20
-0.0260679
40
0.8189782
50
348.7289744
51
0.30125
0
ARC
8
DEFAULT_255_1_388
10
16.250914
20
-0.0630844
40
0.628991
50
333.0706936
51
348.7181455
0
ARC
8
DEFAULT_255_1_388
10
16.3596768
20
-0.1221551
40
0.5052808
50
299.2531435
51
333.4571133
0
ARC
8
DEFAULT_255_1_388
10
16.3190799
20
-0.0450371
40
0.5924066
50
278.1072193
51
299.0340218
0
ARC
8
DEFAULT_255_1_388
10
16.2902848
20
0.1245979
40
0.7644209
50
270.4446841
51
278.4508355
0
ARC
8
DEFAULT_255_1_388
10
16.2926331
20
0.02003
40
0.5179903
50
269.4969684
51
284.0204874
0
ARC
8
DEFAULT_255_1_388
10
16.332605
20
-0.1335585
40
0.3592968
50
283.7699076
51
318.1557121
0
ARC
8
DEFAULT_255_1_388
10
16.2946595
20
-0.1051601
40
0.4065308
50
318.7417595
51
343.687252
0
ARC
8
DEFAULT_255_1_388
10
16.0917174
20
-0.0417725
40
0.6191194
50
343.3324891
51
355.8548594
0
ARC
8
DEFAULT_255_1_388
10
15.8556211
20
-0.0193281
40
0.856237
50
355.4988754
51
0.0789913
0
ARC
8
DEFAULT_255_1_388
10
15.943701
20
0.063408
40
0.7681709
50
359.6455047
51
9.8607559
0
ARC
8
DEFAULT_255_1_388
10
16.2092734
20
0.1113664
40
0.498312
50
9.6573037
51
26.1931522
0
ARC
8
DEFAULT_255_1_388
10
16.3136808
20
0.1598587
40
0.3832303
50
26.5777895
51
40.1533752
0
ARC
8
DEFAULT_255_1_388
10
16.3424473
20
0.182302
40
0.3467742
50
40.3839958
51
80.1430923
0
ARC
8
DEFAULT_255_1_388
10
16.3056729
20
0.0192486
40
0.5137832
50
79.2153636
51
89.7445174
0
LINE
8
DEFAULT_255_1_388
10
17.4672371
20
-0.0127263
11
17.4672371
21
-0.1491645
0
LINE
8
DEFAULT_255_1_388
10
17.4672371
20
-0.1491645
11
17.0262976
21
-0.1491645
0
LINE
8
DEFAULT_255_1_388
10
17.0262976
20
-0.1491645
11
17.0262976
21
-0.0127263
0
LINE
8
DEFAULT_255_1_388
10
17.0262976
20
-0.0127263
11
17.4672371
21
-0.0127263
0
LINE
8
DEFAULT_255_1_388
10
18.4747114
20
-0.5033618
11
18.4747114
21
-0.6398
0
LINE
8
DEFAULT_255_1_388
10
18.4747114
20
-0.6398
11
17.6127109
21
-0.6398
0
LINE
8
DEFAULT_255_1_388
10
17.6127109
20
-0.6398
11
17.6127109
21
-0.5196259
0
LINE
8
DEFAULT_255_1_388
10
17.6127109
20
-0.5196259
11
18.0681074
21
-0.0136298
0
LINE
8
DEFAULT_255_1_388
10
17.7545706
20
0.2881607
11
17.5874111
21
0.2881607
0
LINE
8
DEFAULT_255_1_388
10
18.1665959
20
-0.121154
11
17.8142058
21
-0.5033618
0
LINE
8
DEFAULT_255_1_388
10
17.8142058
20
-0.5033618
11
18.4747114
21
-0.5033618
0
ARC
8
DEFAULT_255_1_388
10
16.5505134
20
1.3283983
40
2.0258655
50
318.5132526
51
320.7829045
0
ARC
8
DEFAULT_255_1_388
10
17.1453091
20
0.8442929
40
1.2589638
50
320.7372878
51
323.9739031
0
ARC
8
DEFAULT_255_1_388
10
17.5862022
20
0.5248554
40
0.7145141
50
323.8962701
51
328.64194
0
ARC
8
DEFAULT_255_1_388
10
17.816428
20
0.3828545
40
0.4440242
50
328.8294576
51
331.7891185
0
ARC
8
DEFAULT_255_1_388
10
17.92866
20
0.3249374
40
0.3177517
50
331.4254512
51
352.9365785
0
ARC
8
DEFAULT_255_1_388
10
17.94396
20
0.321505
40
0.3021496
50
353.2257659
51
0.0166158
0
ARC
8
DEFAULT_255_1_388
10
17.9676361
20
0.3240894
40
0.2784847
50
359.486299
51
15.9343185
0
ARC
8
DEFAULT_255_1_388
10
18.0246627
20
0.3394269
40
0.2194403
50
16.1712913
51
43.5286088
0
ARC
8
DEFAULT_255_1_388
10
18.0333572
20
0.3481191
40
0.2071504
50
43.4417391
51
83.1661095
0
ARC
8
DEFAULT_255_1_388
10
18.0182733
20
0.2652316
40
0.2912888
50
82.160179
51
90.1505708
0
ARC
8
DEFAULT_255_1_388
10
18.0147215
20
0.2048279
40
0.3517025
50
89.5460741
51
102.5418361
0
ARC
8
DEFAULT_255_1_388
10
17.9873935
20
0.3207933
40
0.2325748
50
102.1738499
51
129.206123
0
ARC
8
DEFAULT_255_1_388
10
17.9785388
20
0.3347664
40
0.2161591
50
129.72865
51
135.753947
0
ARC
8
DEFAULT_255_1_388
10
17.992187
20
0.3238728
40
0.2335433
50
136.1757367
51
166.3673339
0
ARC
8
DEFAULT_255_1_388
10
18.1054559
20
0.2935148
40
0.3507873
50
165.9090694
51
178.8684636
0
ARC
8
DEFAULT_255_1_388
10
18.203033
20
0.2882263
40
0.4484624
50
178.4391136
51
180.0083808
0
ARC
8
DEFAULT_255_1_388
10
18.0451032
20
0.2926197
40
0.4577138
50
163.2878482
51
180.5581842
0
ARC
8
DEFAULT_255_1_388
10
17.9549073
20
0.3174393
40
0.3641968
50
133.4540601
51
162.947111
0
ARC
8
DEFAULT_255_1_388
10
17.9749955
20
0.2960789
40
0.3935189
50
100.7869829
51
133.4382499
0
ARC
8
DEFAULT_255_1_388
10
18.01412
20
0.1218399
40
0.5720313
50
89.660664
51
101.3702276
0
ARC
8
DEFAULT_255_1_388
10
18.0215809
20
0.1287263
40
0.5651495
50
78.2172678
51
90.412935
0
ARC
8
DEFAULT_255_1_388
10
18.0615274
20
0.3114511
40
0.378122
50
55.9269121
51
78.4888449
0
ARC
8
DEFAULT_255_1_388
10
18.0835989
20
0.3495187
40
0.3342379
50
47.929771
51
55.4049217
0
ARC
8
DEFAULT_255_1_388
10
18.095052
20
0.3611618
40
0.3179217
50
4.334829
51
48.0560205
0
ARC
8
DEFAULT_255_1_388
10
17.9718321
20
0.3420487
40
0.442341
50
359.9251713
51
5.5971671
0
ARC
8
DEFAULT_255_1_388
10
18.0200476
20
0.3483728
40
0.3941854
50
337.8914027
51
358.9967534
0
ARC
8
DEFAULT_255_1_388
10
17.7148046
20
0.4661295
40
0.7213271
50
326.9132501
51
338.3508308
0
ARC
8
DEFAULT_255_1_388
10
17.2664158
20
0.7535105
40
1.2538973
50
319.6471833
51
327.0959558
0
ARC
8
DEFAULT_255_1_388
10
16.8350816
20
1.109305
40
1.8129975
50
317.2588228
51
319.9045804
0
LINE
8
DEFAULT_255_1_388
10
7.8500094
20
142.0888317
11
7.5400868
21
142.0888317
0
LINE
8
DEFAULT_255_1_388
10
7.5400868
20
142.0888317
11
7.5400868
21
141.5738
0
LINE
8
DEFAULT_255_1_388
10
7.5400868
20
141.5738
11
7.3666024
21
141.5738
0
LINE
8
DEFAULT_255_1_388
10
7.3666024
20
141.5738
11
7.3666024
21
142.8893898
0
LINE
8
DEFAULT_255_1_388
10
7.3666024
20
142.8893898
11
7.8518165
21
142.8893898
0
LINE
8
DEFAULT_255_1_388
10
7.5400868
20
142.7466267
11
7.5400868
21
142.2306914
0
LINE
8
DEFAULT_255_1_388
10
7.5400868
20
142.2306914
11
7.8518165
21
142.2306914
0
LINE
8
DEFAULT_255_1_388
10
7.8617557
20
142.7466267
11
7.5400868
21
142.7466267
0
ARC
8
DEFAULT_255_1_388
10
7.8565538
20
142.2077334
40
0.6816729
50
78.8380084
51
90.398184
0
ARC
8
DEFAULT_255_1_388
10
7.9033569
20
142.4350796
40
0.449571
50
58.9633273
51
79.0810717
0
ARC
8
DEFAULT_255_1_388
10
7.9372953
20
142.4980823
40
0.3781049
50
48.0194715
51
58.4475592
0
ARC
8
DEFAULT_255_1_388
10
7.9472773
20
142.5076818
40
0.3642936
50
3.3374546
51
48.1766642
0
ARC
8
DEFAULT_255_1_388
10
7.808758
20
142.4877581
40
0.5038766
50
359.9483251
51
4.6822857
0
ARC
8
DEFAULT_255_1_388
10
7.8227503
20
142.4829779
40
0.4899031
50
346.1879032
51
0.5059221
0
ARC
8
DEFAULT_255_1_388
10
7.9756295
20
142.4432763
40
0.3319729
50
310.8832219
51
346.5426612
0
ARC
8
DEFAULT_255_1_388
10
7.9409143
20
142.4901853
40
0.3901853
50
286.6925305
51
310.228778
0
ARC
8
DEFAULT_255_1_388
10
7.8768873
20
142.6915585
40
0.6014737
50
274.6848219
51
287.0247342
0
ARC
8
DEFAULT_255_1_388
10
7.8515422
20
142.9400088
40
0.8511785
50
269.8968222
51
275.0192639
0
ARC
8
DEFAULT_255_1_388
10
7.8546415
20
142.7062144
40
0.4755314
50
269.6596206
51
279.4150542
0
ARC
8
DEFAULT_255_1_388
10
7.8835873
20
142.5384945
40
0.3053379
50
279.2050006
51
294.9901776
0
ARC
8
DEFAULT_255_1_388
10
7.9162508
20
142.4656353
40
0.2255036
50
295.2886769
51
311.2912669
0
ARC
8
DEFAULT_255_1_388
10
7.9242249
20
142.4537938
40
0.2113522
50
311.7853512
51
347.2860549
0
ARC
8
DEFAULT_255_1_388
10
7.813541
20
142.482243
40
0.3256011
50
346.6891629
51
0.1057086
0
ARC
8
DEFAULT_255_1_388
10
7.721287
20
142.4855247
40
0.417863
50
359.63239
51
359.9961329
0
ARC
8
DEFAULT_255_1_388
10
7.8377475
20
142.4882987
40
0.3014155
50
359.4673371
51
15.5931159
0
ARC
8
DEFAULT_255_1_388
10
7.9080538
20
142.5072937
40
0.2285918
50
15.7441779
51
46.620186
0
ARC
8
DEFAULT_255_1_388
10
7.8914298
20
142.4881361
40
0.2539359
50
46.8628482
51
75.6676625
0
ARC
8
DEFAULT_255_1_388
10
7.8583354
20
142.3690243
40
0.3775415
50
75.2763152
51
88.2916439
0
ARC
8
DEFAULT_255_1_388
10
7.8517354
20
142.2688097
40
0.4779221
50
87.8589087
51
88.7986197
0
LINE
8
DEFAULT_255_1_388
10
8.9803685
20
142.5568781
11
8.9803685
21
142.401465
0
LINE
8
DEFAULT_255_1_388
10
8.6749637
20
142.2677375
11
8.6749637
21
141.5738
0
LINE
8
DEFAULT_255_1_388
10
8.6749637
20
141.5738
11
8.5078043
21
141.5738
0
LINE
8
DEFAULT_255_1_388
10
8.5078043
20
141.5738
11
8.5078043
21
142.5514567
0
LINE
8
DEFAULT_255_1_388
10
8.5078043
20
142.5514567
11
8.6704459
21
142.5514567
0
LINE
8
DEFAULT_255_1_388
10
8.6704459
20
142.5514567
11
8.6731566
21
142.4385112
0
ARC
8
DEFAULT_255_1_388
10
8.9053845
20
141.9448068
40
0.4627735
50
80.6751522
51
86.893806
0
ARC
8
DEFAULT_255_1_388
10
8.8985675
20
141.8356103
40
0.5721798
50
86.8046851
51
90.0423898
0
ARC
8
DEFAULT_255_1_388
10
8.8944094
20
142.1123197
40
0.2954939
50
89.2758283
51
106.6212906
0
ARC
8
DEFAULT_255_1_388
10
8.8714119
20
142.1959009
40
0.2088351
50
107.1347109
51
157.6456887
0
ARC
8
DEFAULT_255_1_388
10
8.9482181
20
142.1531908
40
0.296292
50
155.6557383
51
157.256838
0
ARC
8
DEFAULT_255_1_388
10
8.9261795
20
142.2842472
40
0.296341
50
127.8167201
51
148.6300223
0
ARC
8
DEFAULT_255_1_388
10
8.8976543
20
142.3135066
40
0.2557782
50
91.3329934
51
126.7875218
0
ARC
8
DEFAULT_255_1_388
10
8.906193
20
142.2331718
40
0.3363561
50
89.9858247
51
92.4688453
0
ARC
8
DEFAULT_255_1_388
10
8.9071423
20
142.2640114
40
0.3055179
50
85.3587643
51
90.1624243
0
ARC
8
DEFAULT_255_1_388
10
8.9166488
20
142.3769458
40
0.1921848
50
78.4019195
51
85.4592653
0
ARC
8
DEFAULT_255_1_388
10
8.9329549
20
142.4547142
40
0.1127267
50
67.7849217
51
78.573798
0
ARC
8
DEFAULT_255_1_388
10
8.9451183
20
142.4862374
40
0.0789473
50
63.4805074
51
67.3074739
0
LINE
8
DEFAULT_255_1_388
10
9.0716285
20
142.0599177
11
9.0716285
21
142.071664
0
LINE
8
DEFAULT_255_1_388
10
9.9616395
20
142.0635319
11
9.9616395
21
142.0517856
0
ARC
8
DEFAULT_255_1_388
10
9.700073
20
142.075304
40
0.628455
50
166.3005265
51
180.3318609
0
ARC
8
DEFAULT_255_1_388
10
9.6030079
20
142.0970267
40
0.52901
50
153.8608648
51
166.0965672
0
ARC
8
DEFAULT_255_1_388
10
9.5281245
20
142.1371652
40
0.4441126
50
135.1317053
51
154.2534962
0
ARC
8
DEFAULT_255_1_388
10
9.4967896
20
142.1648431
40
0.4023863
50
121.7042632
51
134.7771455
0
ARC
8
DEFAULT_255_1_388
10
9.5043328
20
142.1503469
40
0.4186852
50
93.4001111
51
121.5399523
0
ARC
8
DEFAULT_255_1_388
10
9.5150162
20
142.0573759
40
0.5121521
50
89.9706387
51
93.9763381
0
ARC
8
DEFAULT_255_1_388
10
9.5203147
20
142.1013563
40
0.4681988
50
71.3321659
51
90.6162917
0
ARC
8
DEFAULT_255_1_388
10
9.538618
20
142.1691003
40
0.3981841
50
41.1813875
51
70.7072086
0
ARC
8
DEFAULT_255_1_388
10
9.4848897
20
142.120313
40
0.4707474
50
12.1971434
51
41.3446641
0
ARC
8
DEFAULT_255_1_388
10
9.268216
20
142.0687328
40
0.6934429
50
359.5702713
51
12.5803533
0
ARC
8
DEFAULT_255_1_388
10
9.3214476
20
142.0482207
40
0.6402018
50
347.0196754
51
0.3190452
0
ARC
8
DEFAULT_255_1_388
10
9.429253
20
142.0250189
40
0.5299421
50
334.350439
51
346.8460534
0
ARC
8
DEFAULT_255_1_388
10
9.5243776
20
141.9756244
40
0.4228234
50
310.4228125
51
334.8045131
0
ARC
8
DEFAULT_255_1_388
10
9.5335754
20
141.9684301
40
0.4113892
50
301.8488154
51
310.0972985
0
ARC
8
DEFAULT_255_1_388
10
9.5299495
20
141.9769573
40
0.4205483
50
274.3078723
51
301.6554173
0
ARC
8
DEFAULT_255_1_388
10
9.517495
20
142.0756943
40
0.5199658
50
269.954904
51
274.859116
0
ARC
8
DEFAULT_255_1_388
10
9.5119774
20
142.0193239
40
0.4636233
50
250.8887647
51
270.6313164
0
ARC
8
DEFAULT_255_1_388
10
9.4950935
20
141.9564405
40
0.398705
50
221.1701369
51
250.2227012
0
ARC
8
DEFAULT_255_1_388
10
9.54956
20
142.0060716
40
0.4723796
50
191.6263861
51
221.3526879
0
ARC
8
DEFAULT_255_1_388
10
9.7619446
20
142.0552203
40
0.6903321
50
179.6101251
51
192.0694841
0
ARC
8
DEFAULT_255_1_388
10
9.8095793
20
142.0481681
40
0.5698993
50
179.636304
51
190.6161344
0
ARC
8
DEFAULT_255_1_388
10
9.6248125
20
142.0121635
40
0.3816643
50
190.4136062
51
208.7168709
0
ARC
8
DEFAULT_255_1_388
10
9.5674159
20
141.9836905
40
0.3176572
50
209.187109
51
217.4221816
0
ARC
8
DEFAULT_255_1_388
10
9.507863
20
141.9312729
40
0.2385702
50
216.1156863
51
265.2575395
0
ARC
8
DEFAULT_255_1_388
10
9.5167666
20
141.9957608
40
0.3035941
50
264.5891546
51
270.0602378
0
ARC
8
DEFAULT_255_1_388
10
9.5204863
20
141.9530539
40
0.2609091
50
269.2532353
51
291.8793864
0
ARC
8
DEFAULT_255_1_388
10
9.5237742
20
141.9330359
40
0.241148
50
292.9269367
51
323.1777736
0
ARC
8
DEFAULT_255_1_388
10
9.4767027
20
141.9743762
40
0.3036446
50
322.25666
51
323.087958
0
ARC
8
DEFAULT_255_1_388
10
9.4464285
20
141.9926332
40
0.3388345
50
323.6941379
51
343.8493587
0
ARC
8
DEFAULT_255_1_388
10
9.2688721
20
142.0466698
40
0.5244204
50
343.5746655
51
355.008149
0
ARC
8
DEFAULT_255_1_388
10
9.0430413
20
142.0700797
40
0.7514406
50
354.728272
51
0.1208026
0
ARC
8
DEFAULT_255_1_388
10
9.2419438
20
142.0752947
40
0.5525482
50
359.6235211
51
11.2016685
0
ARC
8
DEFAULT_255_1_388
10
9.4145265
20
142.1108284
40
0.3763527
50
10.9991302
51
30.8317616
0
ARC
8
DEFAULT_255_1_388
10
9.4590569
20
142.1342988
40
0.3260975
50
31.3007463
51
37.395541
0
ARC
8
DEFAULT_255_1_388
10
9.5149288
20
142.1814773
40
0.253082
50
36.5918894
51
62.2439906
0
ARC
8
DEFAULT_255_1_388
10
9.520158
20
142.1811378
40
0.2509927
50
63.3364883
51
89.7193846
0
ARC
8
DEFAULT_255_1_388
10
9.5153033
20
142.1163375
40
0.3158485
50
88.8962924
51
90.004475
0
ARC
8
DEFAULT_255_1_388
10
9.5117461
20
142.1816071
40
0.250604
50
89.1923115
51
114.7099029
0
ARC
8
DEFAULT_255_1_388
10
9.5149802
20
142.1858675
40
0.2481307
50
115.7996284
51
142.2901353
0
ARC
8
DEFAULT_255_1_388
10
9.5618073
20
142.1439752
40
0.310833
50
141.4607507
51
142.383894
0
ARC
8
DEFAULT_255_1_388
10
9.5765925
20
142.1371449
40
0.3267335
50
143.0176473
51
163.2340089
0
ARC
8
DEFAULT_255_1_388
10
9.7541213
20
142.0809553
40
0.5129308
50
162.9446504
51
174.3733893
0
ARC
8
DEFAULT_255_1_388
10
9.9955186
20
142.0538483
40
0.75583
50
174.1225809
51
180.1563667
0
LINE
8
DEFAULT_255_1_388
10
10.1306061
20
142.0581105
11
10.1306061
21
142.0707604
0
LINE
8
DEFAULT_255_1_388
10
10.788401
20
142.4520646
11
10.788401
21
142.961675
0
LINE
8
DEFAULT_255_1_388
10
10.788401
20
142.961675
11
10.9555604
21
142.961675
0
LINE
8
DEFAULT_255_1_388
10
10.9555604
20
142.961675
11
10.9555604
21
141.5738
0
LINE
8
DEFAULT_255_1_388
10
10.9555604
20
141.5738
11
10.8019544
21
141.5738
0
LINE
8
DEFAULT_255_1_388
10
10.8019544
20
141.5738
11
10.7938224
21
141.6786135
0
LINE
8
DEFAULT_255_1_388
10
10.788401
20
141.8403515
11
10.788401
21
142.289423
0
ARC
8
DEFAULT_255_1_388
10
10.9040754
20
142.0757084
40
0.7734851
50
169.1662656
51
180.3665225
0
ARC
8
DEFAULT_255_1_388
10
10.6569663
20
142.1249773
40
0.5215235
50
150.2837807
51
169.3798657
0
ARC
8
DEFAULT_255_1_388
10
10.5857114
20
142.1614124
40
0.4415937
50
142.1063912
51
149.8065902
0
ARC
8
DEFAULT_255_1_388
10
10.5213326
20
142.2174913
40
0.3563766
50
118.4282495
51
142.8642233
0
ARC
8
DEFAULT_255_1_388
10
10.5102338
20
142.2245109
40
0.3449797
50
89.9199141
51
117.3621403
0
ARC
8
DEFAULT_255_1_388
10
10.516419
20
142.1370171
40
0.4325108
50
89.9988001
51
90.7555106
0
ARC
8
DEFAULT_255_1_388
10
10.5206268
20
142.1657362
40
0.4038136
50
72.8979482
51
90.595751
0
ARC
8
DEFAULT_255_1_388
10
10.5428948
20
142.2461099
40
0.3204539
50
39.9932308
51
72.4773248
0
ARC
8
DEFAULT_255_1_388
10
10.5396039
20
141.8847007
40
0.3272598
50
275.0849466
51
320.9693562
0
ARC
8
DEFAULT_255_1_388
10
10.5154955
20
142.0272895
40
0.4715615
50
269.8937433
51
276.4672347
0
ARC
8
DEFAULT_255_1_388
10
10.5078495
20
141.884715
40
0.3290559
50
222.0839188
51
271.1791339
0
ARC
8
DEFAULT_255_1_388
10
10.5766004
20
141.9550998
40
0.4272982
50
217.5168262
51
222.9097935
0
ARC
8
DEFAULT_255_1_388
10
10.6320877
20
141.9932851
40
0.4945763
50
193.0962732
51
217.1109075
0
ARC
8
DEFAULT_255_1_388
10
10.8522607
20
142.0482252
40
0.7214806
50
181.1071959
51
193.3839643
0
ARC
8
DEFAULT_255_1_388
10
11.0406983
20
142.0579904
40
0.9100921
50
179.9924355
51
181.4926257
0
ARC
8
DEFAULT_255_1_388
10
10.947834
20
142.0482904
40
0.650078
50
179.6919448
51
188.655086
0
ARC
8
DEFAULT_255_1_388
10
10.7206397
20
142.0125086
40
0.420088
50
188.4934981
51
202.2188222
0
ARC
8
DEFAULT_255_1_388
10
10.6118204
20
141.9693888
40
0.3030458
50
202.4516374
51
215.9308342
0
ARC
8
DEFAULT_255_1_388
10
10.5451628
20
141.916269
40
0.2179351
50
214.9061987
51
264.2076983
0
ARC
8
DEFAULT_255_1_388
10
10.5557166
20
141.9834867
40
0.2858989
50
263.4629438
51
270.0938577
0
ARC
8
DEFAULT_255_1_388
10
10.56021
20
141.973173
40
0.2756141
50
269.1632216
51
291.0932257
0
ARC
8
DEFAULT_255_1_388
10
10.5694005
20
141.9358218
40
0.2375078
50
292.2675188
51
328.1937653
0
ARC
8
DEFAULT_255_1_388
10
10.4916663
20
141.9919245
40
0.3332054
50
327.040169
51
332.941918
0
ARC
8
DEFAULT_255_1_388
10
10.5380876
20
142.1581122
40
0.2826647
50
27.6808655
51
48.7895461
0
ARC
8
DEFAULT_255_1_388
10
10.5699512
20
142.1874738
40
0.2396281
50
49.8958562
51
87.0102063
0
ARC
8
DEFAULT_255_1_388
10
10.5582356
20
142.0988941
40
0.3287745
50
85.7763593
51
90.0424518
0
ARC
8
DEFAULT_255_1_388
10
10.5549423
20
142.1730766
40
0.25461
50
89.3136862
51
109.426258
0
ARC
8
DEFAULT_255_1_388
10
10.5465845
20
142.207391
40
0.2194978
50
110.3479382
51
145.1577921
0
ARC
8
DEFAULT_255_1_388
10
10.6201325
20
142.153819
40
0.3104736
50
144.7981654
51
162.8715843
0
ARC
8
DEFAULT_255_1_388
10
10.8107925
20
142.0925138
40
0.5107383
50
162.598526
51
173.3417416
0
ARC
8
DEFAULT_255_1_388
10
11.1109298
20
142.0552767
40
0.8131718
50
173.1877249
51
180.2459848
0
LINE
8
DEFAULT_255_1_388
10
11.8220787
20
141.5738
11
11.8184645
21
141.6704814
0
LINE
8
DEFAULT_255_1_388
10
11.2112691
20
141.9153474
11
11.2112691
21
142.5514567
0
LINE
8
DEFAULT_255_1_388
10
11.2112691
20
142.5514567
11
11.3784286
21
142.5514567
0
LINE
8
DEFAULT_255_1_388
10
11.3784286
20
142.5514567
11
11.3784286
21
141.9198652
0
LINE
8
DEFAULT_255_1_388
10
11.8139466
20
141.8403515
11
11.8139466
21
142.5514567
0
LINE
8
DEFAULT_255_1_388
10
11.8139466
20
142.5514567
11
11.9811061
21
142.5514567
0
LINE
8
DEFAULT_255_1_388
10
11.9811061
20
142.5514567
11
11.9811061
21
141.5738
0
LINE
8
DEFAULT_255_1_388
10
11.9811061
20
141.5738
11
11.8220787
21
141.5738
0
ARC
8
DEFAULT_255_1_388
10
11.5804683
20
141.8749675
40
0.3137782
50
282.5436457
51
319.3308483
0
ARC
8
DEFAULT_255_1_388
10
11.5369109
20
142.0444138
40
0.4886732
50
269.8919644
51
283.213949
0
ARC
8
DEFAULT_255_1_388
10
11.5320078
20
142.1848412
40
0.6291125
50
270.0024363
51
270.3626317
0
ARC
8
DEFAULT_255_1_388
10
11.5286056
20
141.9847026
40
0.4289875
50
257.7354503
51
270.4579702
0
ARC
8
DEFAULT_255_1_388
10
11.4951594
20
141.8385679
40
0.2790881
50
233.3385202
51
258.072161
0
ARC
8
DEFAULT_255_1_388
10
11.4800459
20
141.8138828
40
0.250276
50
221.9625878
51
232.7397557
0
ARC
8
DEFAULT_255_1_388
10
11.5115422
20
141.8380961
40
0.2899023
50
197.9449652
51
221.3587453
0
ARC
8
DEFAULT_255_1_388
10
11.6684927
20
141.8917197
40
0.4557469
50
185.8086112
51
198.2791204
0
ARC
8
DEFAULT_255_1_388
10
11.8813675
20
141.9170327
40
0.6701004
50
180.1441004
51
186.1197471
0
ARC
8
DEFAULT_255_1_388
10
11.7799353
20
141.9158589
40
0.4015267
50
179.428312
51
191.0738067
0
ARC
8
DEFAULT_255_1_388
10
11.5905535
20
141.876762
40
0.2081712
50
190.5250706
51
212.6989599
0
ARC
8
DEFAULT_255_1_388
10
11.5383303
20
141.8479416
40
0.1487075
50
214.2246262
51
264.4398306
0
ARC
8
DEFAULT_255_1_388
10
11.5582816
20
141.9502845
40
0.2526976
50
262.1851951
51
270.1949702
0
ARC
8
DEFAULT_255_1_388
10
11.562992
20
142.093846
40
0.3962764
50
269.4432626
51
282.9581304
0
ARC
8
DEFAULT_255_1_388
10
11.600872
20
141.9397077
40
0.2375807
50
282.3910141
51
311.9723859
0
ARC
8
DEFAULT_255_1_388
10
11.6017253
20
141.9315255
40
0.2309774
50
313.1724921
51
336.7508062
0
LINE
8
DEFAULT_255_1_388
10
12.8575636
20
141.8819155
11
13.0156874
21
141.8819155
0
LINE
8
DEFAULT_255_1_388
10
12.1916366
20
142.0535927
11
12.1916366
21
142.0816032
0
LINE
8
DEFAULT_255_1_388
10
13.0156874
20
142.2153308
11
12.8575636
21
142.2153308
0
LINE
8
DEFAULT_255_1_388
10
12.358796
20
142.0752783
11
12.358796
21
142.0436535
0
ARC
8
DEFAULT_255_1_388
10
12.6312193
20
141.9329109
40
0.2407783
50
269.0327343
51
309.2224588
0
ARC
8
DEFAULT_255_1_388
10
12.6548196
20
141.908719
40
0.207135
50
308.3965377
51
329.6987678
0
ARC
8
DEFAULT_255_1_388
10
12.6703255
20
141.8969899
40
0.1878439
50
330.4013397
51
355.3970937
0
ARC
8
DEFAULT_255_1_388
10
12.7217239
20
141.8989312
40
0.2944555
50
329.2357424
51
356.6872018
0
ARC
8
DEFAULT_255_1_388
10
12.6599134
20
141.9316153
40
0.3643032
50
324.8702872
51
329.7911998
0
ARC
8
DEFAULT_255_1_388
10
12.6510416
20
141.9392113
40
0.3759315
50
298.8769973
51
324.7015261
0
ARC
8
DEFAULT_255_1_388
10
12.613696
20
141.998729
40
0.4461015
50
296.902888
51
299.3854973
0
ARC
8
DEFAULT_255_1_388
10
12.6282957
20
141.9663595
40
0.4106323
50
269.8407861
51
297.1298875
0
ARC
8
DEFAULT_255_1_388
10
12.6222953
20
142.0381354
40
0.4824312
50
253.3156606
51
270.5771301
0
ARC
8
DEFAULT_255_1_388
10
12.5945131
20
141.9375943
40
0.3781531
50
221.1002518
51
252.9743523
0
ARC
8
DEFAULT_255_1_388
10
12.6462601
20
141.9820131
40
0.4463481
50
194.5394284
51
221.0302764
0
ARC
8
DEFAULT_255_1_388
10
12.8542422
20
142.0399897
40
0.6622359
50
182.0498004
51
194.8774376
0
ARC
8
DEFAULT_255_1_388
10
13.0535511
20
142.0532778
40
0.8619146
50
179.9790673
51
182.4586753
0
ARC
8
DEFAULT_255_1_388
10
12.8578825
20
142.0849412
40
0.6662543
50
168.615001
51
180.2870547
0
ARC
8
DEFAULT_255_1_388
10
12.7226734
20
142.1114636
40
0.5284705
50
154.9162417
51
168.5402053
0
ARC
8
DEFAULT_255_1_388
10
12.619001
20
142.1626942
40
0.4128641
50
133.5745308
51
155.2559538
0
ARC
8
DEFAULT_255_1_388
10
12.6006853
20
142.1783116
40
0.3889328
50
122.0165845
51
133.2056002
0
ARC
8
DEFAULT_255_1_388
10
12.6047177
20
142.1683977
40
0.3994808
50
97.8732516
51
121.753124
0
ARC
8
DEFAULT_255_1_388
10
12.6248635
20
142.049459
40
0.5200708
50
89.8471322
51
98.2768545
0
ARC
8
DEFAULT_255_1_388
10
12.6303483
20
142.1180809
40
0.4514657
50
73.3760755
51
90.5199878
0
ARC
8
DEFAULT_255_1_388
10
12.6524399
20
142.199355
40
0.3672743
50
47.7085939
51
73.0510707
0
ARC
8
DEFAULT_255_1_388
10
12.6670502
20
142.2120231
40
0.3480795
50
3.7442743
51
48.0844373
0
ARC
8
DEFAULT_255_1_388
10
12.5558496
20
142.1942946
40
0.4603187
50
2.6192831
51
5.0424684
0
ARC
8
DEFAULT_255_1_388
10
12.6073967
20
142.1987986
40
0.2507126
50
3.78087
51
23.9354314
0
ARC
8
DEFAULT_255_1_388
10
12.6331226
20
142.2078644
40
0.2235311
50
24.4867863
51
46.9439952
0
ARC
8
DEFAULT_255_1_388
10
12.6332172
20
142.2104874
40
0.2215567
50
46.4987715
51
89.3298168
0
ARC
8
DEFAULT_255_1_388
10
12.626283
20
142.1438742
40
0.2883121
50
88.1066411
51
90.0063536
0
ARC
8
DEFAULT_255_1_388
10
12.6231806
20
142.1496548
40
0.2825481
50
89.3773571
51
107.2070287
0
ARC
8
DEFAULT_255_1_388
10
12.6071075
20
142.2078667
40
0.2221946
50
107.688418
51
143.3582986
0
ARC
8
DEFAULT_255_1_388
10
12.6709369
20
142.1599064
40
0.3020337
50
143.2845866
51
162.9352432
0
ARC
8
DEFAULT_255_1_388
10
12.8403385
20
142.1055401
40
0.4799362
50
162.6652705
51
174.0802646
0
ARC
8
DEFAULT_255_1_388
10
13.0813866
20
142.0775287
40
0.7225942
50
173.8422673
51
180.1784414
0
ARC
8
DEFAULT_255_1_388
10
13.0197536
20
142.0402276
40
0.6609665
50
179.7030218
51
188.2277356
0
ARC
8
DEFAULT_255_1_388
10
12.7833144
20
142.0048143
40
0.4218948
50
188.0630838
51
201.115837
0
ARC
8
DEFAULT_255_1_388
10
12.6598029
20
141.957673
40
0.2896941
50
201.2186162
51
216.9761863
0
ARC
8
DEFAULT_255_1_388
10
12.6090186
20
141.9196225
40
0.2262366
50
217.0136373
51
265.2055518
0
ARC
8
DEFAULT_255_1_388
10
12.6265523
20
142.0233503
40
0.3311837
50
263.6824874
51
270.1042034
0
LINE
8
DEFAULT_255_1_388
10
13.263264
20
142.7881906
11
13.4304234
21
142.7881906
0
LINE
8
DEFAULT_255_1_388
10
13.4304234
20
142.7881906
11
13.4304234
21
142.5514567
0
LINE
8
DEFAULT_255_1_388
10
13.4304234
20
142.5514567
11
13.6129435
21
142.5514567
0
LINE
8
DEFAULT_255_1_388
10
13.6129435
20
142.5514567
11
13.6129435
21
142.422247
0
LINE
8
DEFAULT_255_1_388
10
13.6129435
20
142.422247
11
13.4304234
21
142.422247
0
LINE
8
DEFAULT_255_1_388
10
13.4304234
20
142.422247
11
13.4304234
21
141.8159553
0
LINE
8
DEFAULT_255_1_388
10
13.6174613
20
141.7093347
11
13.6174613
21
141.5738
0
LINE
8
DEFAULT_255_1_388
10
13.263264
20
141.8159553
11
13.263264
21
142.422247
0
LINE
8
DEFAULT_255_1_388
10
13.263264
20
142.422247
11
13.0852618
21
142.422247
0
LINE
8
DEFAULT_255_1_388
10
13.0852618
20
142.422247
11
13.0852618
21
142.5514567
0
LINE
8
DEFAULT_255_1_388
10
13.0852618
20
142.5514567
11
13.263264
21
142.5514567
0
LINE
8
DEFAULT_255_1_388
10
13.263264
20
142.5514567
11
13.263264
21
142.7881906
0
ARC
8
DEFAULT_255_1_388
10
13.6562742
20
141.8147842
40
0.2258538
50
179.7029045
51
187.9180047
0
ARC
8
DEFAULT_255_1_388
10
13.5723316
20
141.8027019
40
0.1410477
50
187.7540838
51
200.2454047
0
ARC
8
DEFAULT_255_1_388
10
13.5250221
20
141.7850591
40
0.0905561
50
200.1304287
51
219.1733455
0
ARC
8
DEFAULT_255_1_388
10
13.5097388
20
141.7746695
40
0.0721626
50
220.4434631
51
249.6169985
0
ARC
8
DEFAULT_255_1_388
10
13.5271614
20
141.8184919
40
0.1193141
50
249.1038184
51
262.7745376
0
ARC
8
DEFAULT_255_1_388
10
13.5370796
20
141.8892481
40
0.1907583
50
262.4921618
51
270.2607019
0
ARC
8
DEFAULT_255_1_388
10
13.5367878
20
141.9134817
40
0.2149929
50
270.309081
51
275.6615459
0
ARC
8
DEFAULT_255_1_388
10
13.5207286
20
142.0823342
40
0.3846066
50
275.5607354
51
279.087751
0
ARC
8
DEFAULT_255_1_388
10
13.4835218
20
142.3184428
40
0.6236283
50
279.0369545
51
281.5000133
0
ARC
8
DEFAULT_255_1_388
10
13.4444486
20
142.5161499
40
0.825157
50
281.4217093
51
282.1031556
0
ARC
8
DEFAULT_255_1_388
10
13.4820461
20
142.0618229
40
0.5064619
50
275.2597791
51
285.5081125
0
ARC
8
DEFAULT_255_1_388
10
13.4889475
20
141.9992452
40
0.4435166
50
270.0268175
51
275.1130565
0
ARC
8
DEFAULT_255_1_388
10
13.4866927
20
141.8499367
40
0.2942182
50
257.3572424
51
270.4795428
0
ARC
8
DEFAULT_255_1_388
10
13.4627197
20
141.7488952
40
0.1903838
50
230.8036715
51
257.7414447
0
ARC
8
DEFAULT_255_1_388
10
13.4550693
20
141.7365723
40
0.1760087
50
219.9745381
51
230.1985446
0
ARC
8
DEFAULT_255_1_388
10
13.492398
20
141.7651116
40
0.2229598
50
196.5081334
51
219.4319996
0
ARC
8
DEFAULT_255_1_388
10
13.6066592
20
141.8009617
40
0.3427033
50
184.6408645
51
196.8266009
0
ARC
8
DEFAULT_255_1_388
10
13.7467497
20
141.815101
40
0.4834863
50
179.8987586
51
184.9677262
0
LINE
8
DEFAULT_255_1_388
10
13.9897298
20
142.5514567
11
13.9897298
21
141.5738
0
LINE
8
DEFAULT_255_1_388
10
13.9897298
20
141.5738
11
13.8225704
21
141.5738
0
LINE
8
DEFAULT_255_1_388
10
13.8225704
20
141.5738
11
13.8225704
21
142.5514567
0
LINE
8
DEFAULT_255_1_388
10
13.8225704
20
142.5514567
11
13.9897298
21
142.5514567
0
ARC
8
DEFAULT_255_1_388
10
13.9191066
20
142.8118428
40
0.1100948
50
161.4148232
51
180.5532607
0
ARC
8
DEFAULT_255_1_388
10
13.9051376
20
142.8156875
40
0.0956324
50
138.1830164
51
160.9307633
0
ARC
8
DEFAULT_255_1_388
10
13.8927563
20
142.8264313
40
0.0792417
50
104.6371663
51
138.0036136
0
ARC
8
DEFAULT_255_1_388
10
13.9048102
20
142.7851963
40
0.1221906
50
92.0601206
51
105.2198859
0
ARC
8
DEFAULT_255_1_388
10
13.9074466
20
142.7463583
40
0.161103
50
89.9790681
51
92.5006086
0
ARC
8
DEFAULT_255_1_388
10
13.9085642
20
142.7719998
40
0.1354654
50
78.0234649
51
90.4478111
0
ARC
8
DEFAULT_255_1_388
10
13.9189227
20
142.8185203
40
0.0878096
50
55.0521508
51
78.336297
0
ARC
8
DEFAULT_255_1_388
10
13.9245761
20
142.8280168
40
0.0767913
50
42.0506198
51
54.4508489
0
ARC
8
DEFAULT_255_1_388
10
13.9093794
20
142.8140821
40
0.0974091
50
1.7493657
51
42.1498724
0
ARC
8
DEFAULT_255_1_388
10
13.88077
20
142.8108166
40
0.1261276
50
359.9832635
51
2.8353994
0
ARC
8
DEFAULT_255_1_388
10
13.8994109
20
142.8097412
40
0.1074916
50
342.1062453
51
0.5535864
0
ARC
8
DEFAULT_255_1_388
10
13.9154534
20
142.8053197
40
0.0908695
50
316.7110111
51
341.6513114
0
ARC
8
DEFAULT_255_1_388
10
13.9229966
20
142.7985607
40
0.0807447
50
285.4398289
51
316.5320129
0
ARC
8
DEFAULT_255_1_388
10
13.9106136
20
142.8397023
40
0.1237022
50
272.3543902
51
285.8951677
0
ARC
8
DEFAULT_255_1_388
10
13.9075846
20
142.8812742
40
0.1653687
50
269.9725761
51
272.8112722
0
ARC
8
DEFAULT_255_1_388
10
13.9064898
20
142.8561727
40
0.1402709
50
258.8433431
51
270.4148607
0
ARC
8
DEFAULT_255_1_388
10
13.8963678
20
142.8071739
40
0.0902407
50
238.54281
51
259.1289544
0
ARC
8
DEFAULT_255_1_388
10
13.8887
20
142.7932694
40
0.0743817
50
222.5056676
51
237.9918132
0
ARC
8
DEFAULT_255_1_388
10
13.9030593
20
142.8063295
40
0.0937918
50
184.1070774
51
222.4604165
0
ARC
8
DEFAULT_255_1_388
10
13.9333007
20
142.8106538
40
0.1242838
50
179.9419581
51
185.0970785
0
LINE
8
DEFAULT_255_1_388
10
14.3312772
20
142.5514567
11
14.5797574
21
141.8005947
0
LINE
8
DEFAULT_255_1_388
10
14.5797574
20
141.8005947
11
14.8219127
21
142.5514567
0
LINE
8
DEFAULT_255_1_388
10
14.8219127
20
142.5514567
11
14.9926864
21
142.5514567
0
LINE
8
DEFAULT_255_1_388
10
14.9926864
20
142.5514567
11
14.6421034
21
141.5738
0
LINE
8
DEFAULT_255_1_388
10
14.6421034
20
141.5738
11
14.5147008
21
141.5738
0
LINE
8
DEFAULT_255_1_388
10
14.5147008
20
141.5738
11
14.1605035
21
142.5514567
0
LINE
8
DEFAULT_255_1_388
10
14.1605035
20
142.5514567
11
14.3312772
21
142.5514567
0
LINE
8
DEFAULT_255_1_388
10
15.3351373
20
142.5514567
11
15.3351373
21
141.5738
0
LINE
8
DEFAULT_255_1_388
10
15.3351373
20
141.5738
11
15.1679779
21
141.5738
0
LINE
8
DEFAULT_255_1_388
10
15.1679779
20
141.5738
11
15.1679779
21
142.5514567
0
LINE
8
DEFAULT_255_1_388
10
15.1679779
20
142.5514567
11
15.3351373
21
142.5514567
0
ARC
8
DEFAULT_255_1_388
10
15.2645141
20
142.8118428
40
0.1100948
50
161.4148232
51
180.5532607
0
ARC
8
DEFAULT_255_1_388
10
15.2505451
20
142.8156875
40
0.0956324
50
138.1830164
51
160.9307633
0
ARC
8
DEFAULT_255_1_388
10
15.2381638
20
142.8264313
40
0.0792417
50
104.6371663
51
138.0036136
0
ARC
8
DEFAULT_255_1_388
10
15.2502177
20
142.7851963
40
0.1221906
50
92.0601206
51
105.2198859
0
ARC
8
DEFAULT_255_1_388
10
15.2528541
20
142.7463583
40
0.161103
50
89.9790681
51
92.5006086
0
ARC
8
DEFAULT_255_1_388
10
15.2539717
20
142.7719998
40
0.1354654
50
78.0234649
51
90.4478111
0
ARC
8
DEFAULT_255_1_388
10
15.2643301
20
142.8185203
40
0.0878096
50
55.0521508
51
78.336297
0
ARC
8
DEFAULT_255_1_388
10
15.2699836
20
142.8280168
40
0.0767913
50
42.0506198
51
54.4508489
0
ARC
8
DEFAULT_255_1_388
10
15.2547869
20
142.8140821
40
0.0974091
50
1.7493657
51
42.1498724
0
ARC
8
DEFAULT_255_1_388
10
15.2261774
20
142.8108166
40
0.1261276
50
359.9832635
51
2.8353994
0
ARC
8
DEFAULT_255_1_388
10
15.2448184
20
142.8097412
40
0.1074916
50
342.1062453
51
0.5535864
0
ARC
8
DEFAULT_255_1_388
10
15.2608608
20
142.8053197
40
0.0908695
50
316.7110111
51
341.6513114
0
ARC
8
DEFAULT_255_1_388
10
15.268404
20
142.7985607
40
0.0807447
50
285.4398289
51
316.5320129
0
ARC
8
DEFAULT_255_1_388
10
15.2560211
20
142.8397023
40
0.1237022
50
272.3543902
51
285.8951677
0
ARC
8
DEFAULT_255_1_388
10
15.2529921
20
142.8812742
40
0.1653687
50
269.9725761
51
272.8112722
0
ARC
8
DEFAULT_255_1_388
10
15.2518973
20
142.8561727
40
0.1402709
50
258.8433431
51
270.4148607
0
ARC
8
DEFAULT_255_1_388
10
15.2417753
20
142.8071739
40
0.0902407
50
238.54281
51
259.1289544
0
ARC
8
DEFAULT_255_1_388
10
15.2341074
20
142.7932694
40
0.0743817
50
222.5056676
51
237.9918132
0
ARC
8
DEFAULT_255_1_388
10
15.2484668
20
142.8063295
40
0.0937918
50
184.1070774
51
222.4604165
0
ARC
8
DEFAULT_255_1_388
10
15.2787081
20
142.8106538
40
0.1242838
50
179.9419581
51
185.0970785
0
LINE
8
DEFAULT_255_1_388
10
15.6622276
20
142.7881906
11
15.8293871
21
142.7881906
0
LINE
8
DEFAULT_255_1_388
10
15.8293871
20
142.7881906
11
15.8293871
21
142.5514567
0
LINE
8
DEFAULT_255_1_388
10
15.8293871
20
142.5514567
11
16.0119071
21
142.5514567
0
LINE
8
DEFAULT_255_1_388
10
16.0119071
20
142.5514567
11
16.0119071
21
142.422247
0
LINE
8
DEFAULT_255_1_388
10
16.0119071
20
142.422247
11
15.8293871
21
142.422247
0
LINE
8
DEFAULT_255_1_388
10
15.8293871
20
142.422247
11
15.8293871
21
141.8159553
0
LINE
8
DEFAULT_255_1_388
10
16.0164249
20
141.7093347
11
16.0164249
21
141.5738
0
LINE
8
DEFAULT_255_1_388
10
15.6622276
20
141.8159553
11
15.6622276
21
142.422247
0
LINE
8
DEFAULT_255_1_388
10
15.6622276
20
142.422247
11
15.4842254
21
142.422247
0
LINE
8
DEFAULT_255_1_388
10
15.4842254
20
142.422247
11
15.4842254
21
142.5514567
0
LINE
8
DEFAULT_255_1_388
10
15.4842254
20
142.5514567
11
15.6622276
21
142.5514567
0
LINE
8
DEFAULT_255_1_388
10
15.6622276
20
142.5514567
11
15.6622276
21
142.7881906
0
ARC
8
DEFAULT_255_1_388
10
16.0552378
20
141.8147842
40
0.2258538
50
179.7029045
51
187.9180047
0
ARC
8
DEFAULT_255_1_388
10
15.9712952
20
141.8027019
40
0.1410477
50
187.7540838
51
200.2454047
0
ARC
8
DEFAULT_255_1_388
10
15.9239858
20
141.7850591
40
0.0905561
50
200.1304287
51
219.1733455
0
ARC
8
DEFAULT_255_1_388
10
15.9087024
20
141.7746695
40
0.0721626
50
220.4434631
51
249.6169985
0
ARC
8
DEFAULT_255_1_388
10
15.9261251
20
141.8184919
40
0.1193141
50
249.1038184
51
262.7745376
0
ARC
8
DEFAULT_255_1_388
10
15.9360433
20
141.8892481
40
0.1907583
50
262.4921618
51
270.2607019
0
ARC
8
DEFAULT_255_1_388
10
15.9357515
20
141.9134817
40
0.2149929
50
270.309081
51
275.6615459
0
ARC
8
DEFAULT_255_1_388
10
15.9196922
20
142.0823342
40
0.3846066
50
275.5607354
51
279.087751
0
ARC
8
DEFAULT_255_1_388
10
15.8824854
20
142.3184428
40
0.6236283
50
279.0369545
51
281.5000133
0
ARC
8
DEFAULT_255_1_388
10
15.8434122
20
142.5161499
40
0.825157
50
281.4217093
51
282.1031556
0
ARC
8
DEFAULT_255_1_388
10
15.8810098
20
142.0618229
40
0.5064619
50
275.2597791
51
285.5081125
0
ARC
8
DEFAULT_255_1_388
10
15.8879112
20
141.9992452
40
0.4435166
50
270.0268175
51
275.1130565
0
ARC
8
DEFAULT_255_1_388
10
15.8856563
20
141.8499367
40
0.2942182
50
257.3572424
51
270.4795428
0
ARC
8
DEFAULT_255_1_388
10
15.8616833
20
141.7488952
40
0.1903838
50
230.8036715
51
257.7414447
0
ARC
8
DEFAULT_255_1_388
10
15.8540329
20
141.7365723
40
0.1760087
50
219.9745381
51
230.1985446
0
ARC
8
DEFAULT_255_1_388
10
15.8913617
20
141.7651116
40
0.2229598
50
196.5081334
51
219.4319996
0
ARC
8
DEFAULT_255_1_388
10
16.0056228
20
141.8009617
40
0.3427033
50
184.6408645
51
196.8266009
0
ARC
8
DEFAULT_255_1_388
10
16.1457134
20
141.815101
40
0.4834863
50
179.8987586
51
184.9677262
0
LINE
8
DEFAULT_255_1_388
10
16.2829764
20
142.5514567
11
16.5269388
21
141.818666
0
LINE
8
DEFAULT_255_1_388
10
16.5269388
20
141.818666
11
16.7546371
21
142.5514567
0
LINE
8
DEFAULT_255_1_388
10
16.7546371
20
142.5514567
11
16.9335428
21
142.5514567
0
LINE
8
DEFAULT_255_1_388
10
16.9335428
20
142.5514567
11
16.5404923
21
141.4229047
0
LINE
8
DEFAULT_255_1_388
10
16.2504481
20
141.1789423
11
16.2188233
21
141.181653
0
LINE
8
DEFAULT_255_1_388
10
16.2188233
20
141.181653
11
16.1564774
21
141.1933994
0
LINE
8
DEFAULT_255_1_388
10
16.1564774
20
141.1933994
11
16.1564774
21
141.328934
0
LINE
8
DEFAULT_255_1_388
10
16.1564774
20
141.328934
11
16.2016556
21
141.3253198
0
LINE
8
DEFAULT_255_1_388
10
16.4121861
20
141.4852507
11
16.4492323
21
141.5846428
0
LINE
8
DEFAULT_255_1_388
10
16.4492323
20
141.5846428
11
16.1004564
21
142.5514567
0
LINE
8
DEFAULT_255_1_388
10
16.1004564
20
142.5514567
11
16.2829764
21
142.5514567
0
ARC
8
DEFAULT_255_1_388
10
16.0190998
20
141.6124303
40
0.5547703
50
327.7224407
51
340.0238521
0
ARC
8
DEFAULT_255_1_388
10
16.2162157
20
141.4851231
40
0.3201385
50
305.2165641
51
328.1467003
0
ARC
8
DEFAULT_255_1_388
10
16.2550379
20
141.4391258
40
0.260224
50
268.9893726
51
304.0733864
0
ARC
8
DEFAULT_255_1_388
10
16.2033137
20
141.6667952
40
0.3414794
50
269.7217889
51
278.0406077
0
ARC
8
DEFAULT_255_1_388
10
16.220839
20
141.5475724
40
0.2209783
50
277.8651481
51
290.8634591
0
ARC
8
DEFAULT_255_1_388
10
16.2442371
20
141.4850914
40
0.1542617
50
291.0076566
51
305.5961613
0
ARC
8
DEFAULT_255_1_388
10
16.2421246
20
141.4833164
40
0.1540723
50
306.6192176
51
324.1022951
0
ARC
8
DEFAULT_255_1_388
10
16.1580896
20
141.5456842
40
0.2587177
50
323.8256989
51
334.2991437
0
ARC
8
DEFAULT_255_1_388
10
16.0181584
20
141.6144118
40
0.4146127
50
334.1272297
51
340.8153479
0
ARC
8
DEFAULT_255_1_388
10
15.9122103
20
141.6535101
40
0.5275293
50
340.5860638
51
341.400105
0
LINE
8
DEFAULT_255_1_388
10
17.9274637
20
141.7102382
11
17.9274637
21
141.5738
0
LINE
8
DEFAULT_255_1_388
10
17.9274637
20
141.5738
11
17.0654632
21
141.5738
0
LINE
8
DEFAULT_255_1_388
10
17.0654632
20
141.5738
11
17.0654632
21
141.6939741
0
LINE
8
DEFAULT_255_1_388
10
17.0654632
20
141.6939741
11
17.5208597
21
142.1999702
0
LINE
8
DEFAULT_255_1_388
10
17.2073229
20
142.5017607
11
17.0401634
21
142.5017607
0
LINE
8
DEFAULT_255_1_388
10
17.6193482
20
142.092446
11
17.2669581
21
141.7102382
0
LINE
8
DEFAULT_255_1_388
10
17.2669581
20
141.7102382
11
17.9274637
21
141.7102382
0
ARC
8
DEFAULT_255_1_388
10
16.0032657
20
143.5419983
40
2.0258655
50
318.5132526
51
320.7829045
0
ARC
8
DEFAULT_255_1_388
10
16.5980614
20
143.0578929
40
1.2589638
50
320.7372878
51
323.9739031
0
ARC
8
DEFAULT_255_1_388
10
17.0389545
20
142.7384554
40
0.7145141
50
323.8962701
51
328.64194
0
ARC
8
DEFAULT_255_1_388
10
17.2691803
20
142.5964545
40
0.4440242
50
328.8294576
51
331.7891185
0
ARC
8
DEFAULT_255_1_388
10
17.3814123
20
142.5385374
40
0.3177517
50
331.4254512
51
352.9365785
0
ARC
8
DEFAULT_255_1_388
10
17.3967123
20
142.535105
40
0.3021496
50
353.2257659
51
0.0166158
0
ARC
8
DEFAULT_255_1_388
10
17.4203884
20
142.5376894
40
0.2784847
50
359.486299
51
15.9343185
0
ARC
8
DEFAULT_255_1_388
10
17.477415
20
142.5530269
40
0.2194403
50
16.1712913
51
43.5286088
0
ARC
8
DEFAULT_255_1_388
10
17.4861095
20
142.5617191
40
0.2071504
50
43.4417391
51
83.1661095
0
ARC
8
DEFAULT_255_1_388
10
17.4710256
20
142.4788316
40
0.2912888
50
82.160179
51
90.1505708
0
ARC
8
DEFAULT_255_1_388
10
17.4674738
20
142.4184279
40
0.3517025
50
89.5460741
51
102.5418361
0
ARC
8
DEFAULT_255_1_388
10
17.4401458
20
142.5343933
40
0.2325748
50
102.1738499
51
129.206123
0
ARC
8
DEFAULT_255_1_388
10
17.4312911
20
142.5483664
40
0.2161591
50
129.72865
51
135.753947
0
ARC
8
DEFAULT_255_1_388
10
17.4449393
20
142.5374728
40
0.2335433
50
136.1757367
51
166.3673339
0
ARC
8
DEFAULT_255_1_388
10
17.5582082
20
142.5071148
40
0.3507873
50
165.9090694
51
178.8684636
0
ARC
8
DEFAULT_255_1_388
10
17.6557853
20
142.5018263
40
0.4484624
50
178.4391136
51
180.0083808
0
ARC
8
DEFAULT_255_1_388
10
17.4978555
20
142.5062197
40
0.4577138
50
163.2878482
51
180.5581842
0
ARC
8
DEFAULT_255_1_388
10
17.4076596
20
142.5310393
40
0.3641968
50
133.4540601
51
162.947111
0
ARC
8
DEFAULT_255_1_388
10
17.4277478
20
142.5096789
40
0.3935189
50
100.7869829
51
133.4382499
0
ARC
8
DEFAULT_255_1_388
10
17.4668723
20
142.3354399
40
0.5720313
50
89.660664
51
101.3702276
0
ARC
8
DEFAULT_255_1_388
10
17.4743331
20
142.3423263
40
0.5651495
50
78.2172678
51
90.412935
0
ARC
8
DEFAULT_255_1_388
10
17.5142797
20
142.5250511
40
0.378122
50
55.9269121
51
78.4888449
0
ARC
8
DEFAULT_255_1_388
10
17.5363512
20
142.5631187
40
0.3342379
50
47.929771
51
55.4049217
0
ARC
8
DEFAULT_255_1_388
10
17.5478043
20
142.5747618
40
0.3179217
50
4.334829
51
48.0560205
0
ARC
8
DEFAULT_255_1_388
10
17.4245844
20
142.5556487
40
0.442341
50
359.9251713
51
5.5971671
0
ARC
8
DEFAULT_255_1_388
10
17.4727999
20
142.5619728
40
0.3941854
50
337.8914027
51
358.9967534
0
ARC
8
DEFAULT_255_1_388
10
17.1675569
20
142.6797295
40
0.7213271
50
326.9132501
51
338.3508308
0
ARC
8
DEFAULT_255_1_388
10
16.7191681
20
142.9671105
40
1.2538973
50
319.6471833
51
327.0959558
0
ARC
8
DEFAULT_255_1_388
10
16.2878339
20
143.322905
40
1.8129975
50
317.2588228
51
319.9045804
0
LINE
8
DEFAULT_255_1_388
10
18.9295167
20
142.351769
11
18.9295167
21
142.1349135
0
LINE
8
DEFAULT_255_1_388
10
18.099141
20
142.1123244
11
18.099141
21
142.3355048
0
LINE
8
DEFAULT_255_1_388
10
18.7623573
20
142.0897353
11
18.7623573
21
142.3635153
0
LINE
8
DEFAULT_255_1_388
10
18.2663004
20
142.3761652
11
18.2663004
21
142.1087102
0
ARC
8
DEFAULT_255_1_388
10
17.5517501
20
142.1294118
40
1.3777776
50
353.8440855
51
0.2287917
0
ARC
8
DEFAULT_255_1_388
10
18.0736518
20
142.0711414
40
0.852639
50
344.4934746
51
353.9763743
0
ARC
8
DEFAULT_255_1_388
10
18.4103326
20
141.9754191
40
0.5026273
50
329.2803599
51
344.7473406
0
ARC
8
DEFAULT_255_1_388
10
18.5218821
20
141.9142038
40
0.3754848
50
324.9361395
51
328.6153007
0
ARC
8
DEFAULT_255_1_388
10
18.5644471
20
141.8844586
40
0.3235566
50
280.5801797
51
324.9173226
0
ARC
8
DEFAULT_255_1_388
10
18.51931
20
142.0724236
40
0.5167077
50
269.5979457
51
281.6732777
0
ARC
8
DEFAULT_255_1_388
10
18.5112003
20
142.0589113
40
0.5032026
50
256.6228565
51
270.5105488
0
ARC
8
DEFAULT_255_1_388
10
18.4659746
20
141.8847345
40
0.3233092
50
215.8618351
51
257.2787793
0
ARC
8
DEFAULT_255_1_388
10
18.5808453
20
141.9618106
40
0.4615831
50
197.9695203
51
215.2622745
0
ARC
8
DEFAULT_255_1_388
10
18.8604129
20
142.0561641
40
0.7566307
50
187.8816486
51
198.2346584
0
ARC
8
DEFAULT_255_1_388
10
19.3057367
20
142.1204453
40
1.2065653
50
180.8977266
51
188.0054894
0
ARC
8
DEFAULT_255_1_388
10
19.6107581
20
142.13194
40
1.5117443
50
180.7434591
51
181.152202
0
ARC
8
DEFAULT_255_1_388
10
19.4432576
20
142.3409371
40
1.3441277
50
173.7674302
51
180.2315596
0
ARC
8
DEFAULT_255_1_388
10
18.9350445
20
142.3983779
40
0.8326847
50
164.3058537
51
173.9000553
0
ARC
8
DEFAULT_255_1_388
10
18.6074445
20
142.4927652
40
0.4917711
50
148.7922028
51
164.5682288
0
ARC
8
DEFAULT_255_1_388
10
18.5005183
20
142.5524457
40
0.3694204
50
144.5883979
51
148.1161588
0
ARC
8
DEFAULT_255_1_388
10
18.4617928
20
142.5794667
40
0.322202
50
101.6440149
51
144.5142619
0
ARC
8
DEFAULT_255_1_388
10
18.509612
20
142.3894337
40
0.5180451
50
89.528284
51
102.5820197
0
ARC
8
DEFAULT_255_1_388
10
18.5185112
20
142.3850376
40
0.5224441
50
77.0437914
51
90.508231
0
ARC
8
DEFAULT_255_1_388
10
18.5637366
20
142.5698272
40
0.3322297
50
48.2777708
51
77.4996087
0
ARC
8
DEFAULT_255_1_388
10
18.5719106
20
142.5843557
40
0.315966
50
36.3141586
51
47.6307332
0
ARC
8
DEFAULT_255_1_388
10
18.4741828
20
142.5185159
40
0.4337313
50
18.2931065
51
35.6770203
0
ARC
8
DEFAULT_255_1_388
10
18.1880669
20
142.4203107
40
0.7362203
50
8.0246996
51
18.5605636
0
ARC
8
DEFAULT_255_1_388
10
17.7197024
20
142.3511432
40
1.2096583
50
1.127539
51
8.1718423
0
ARC
8
DEFAULT_255_1_388
10
17.3548158
20
142.3368374
40
1.5747719
50
0.5432713
51
1.38669
0
ARC
8
DEFAULT_255_1_388
10
17.5605537
20
142.3675163
40
1.2018103
50
359.8092569
51
4.9408001
0
ARC
8
DEFAULT_255_1_388
10
18.0342118
20
142.40979
40
0.7262727
50
4.8364937
51
12.2906017
0
ARC
8
DEFAULT_255_1_388
10
18.3441583
20
142.4788485
40
0.4087324
50
12.0806994
51
23.8171225
0
ARC
8
DEFAULT_255_1_388
10
18.4761979
20
142.5347508
40
0.2653719
50
24.2874621
51
31.3934353
0
ARC
8
DEFAULT_255_1_388
10
18.5352415
20
142.5733822
40
0.1948607
50
30.7407708
51
82.4658033
0
ARC
8
DEFAULT_255_1_388
10
18.5150075
20
142.4740017
40
0.2961198
50
81.1057101
51
90.2187368
0
ARC
8
DEFAULT_255_1_388
10
18.5109887
20
142.5030421
40
0.2670929
50
89.380395
51
105.6763916
0
ARC
8
DEFAULT_255_1_388
10
18.4903609
20
142.578032
40
0.1893189
50
105.7980655
51
149.7387869
0
ARC
8
DEFAULT_255_1_388
10
18.6100749
20
142.5060719
40
0.3289892
50
149.4208441
51
163.628295
0
ARC
8
DEFAULT_255_1_388
10
18.8452979
20
142.4343345
40
0.5749004
50
163.3764549
51
172.141138
0
ARC
8
DEFAULT_255_1_388
10
19.21657
20
142.3811582
40
0.9499585
50
172.0258462
51
178.0705453
0
ARC
8
DEFAULT_255_1_388
10
19.5587253
20
142.3649682
40
1.2924734
50
177.8639301
51
179.5036263
0
ARC
8
DEFAULT_255_1_388
10
19.4368272
20
142.1046151
40
1.170534
50
179.7995545
51
185.246089
0
ARC
8
DEFAULT_255_1_388
10
18.9819865
20
142.0615404
40
0.7136613
50
185.1411911
51
193.0082205
0
ARC
8
DEFAULT_255_1_388
10
18.6846126
20
141.9912441
40
0.4080987
50
192.7897338
51
205.2507384
0
ARC
8
DEFAULT_255_1_388
10
18.5668336
20
141.9386538
40
0.2791522
50
205.8001921
51
211.2545876
0
ARC
8
DEFAULT_255_1_388
10
18.5079875
20
141.8992132
40
0.2084074
50
210.3789935
51
238.4007996
0
ARC
8
DEFAULT_255_1_388
10
18.5057961
20
141.9044786
40
0.2117943
50
239.6521916
51
265.9793852
0
ARC
8
DEFAULT_255_1_388
10
18.515381
20
141.9801358
40
0.2879689
50
265.1324455
51
270.0603288
0
ARC
8
DEFAULT_255_1_388
10
18.5186187
20
141.9436418
40
0.2514919
50
269.3314378
51
287.2180039
0
ARC
8
DEFAULT_255_1_388
10
18.5341269
20
141.8870291
40
0.1928357
50
287.7957942
51
329.0808983
0
ARC
8
DEFAULT_255_1_388
10
18.4264026
20
141.9542651
40
0.319808
50
328.6635261
51
343.3325043
0
ARC
8
DEFAULT_255_1_388
10
18.1819485
20
142.0304195
40
0.5758408
50
343.0498092
51
351.9392499
0
ARC
8
DEFAULT_255_1_388
10
17.7918806
20
142.0879205
40
0.9701202
50
351.8071632
51
357.7957897
0
ARC
8
DEFAULT_255_1_388
10
17.4284283
20
142.1067724
40
1.3340376
50
357.5870923
51
359.2682493
0
LINE
8
DEFAULT_255_1_388
10
19.9686158
20
142.351769
11
19.9686158
21
142.1349135
0
LINE
8
DEFAULT_255_1_388
10
19.1382401
20
142.1123244
11
19.1382401
21
142.3355048
0
LINE
8
DEFAULT_255_1_388
10
19.8014564
20
142.0897353
11
19.8014564
21
142.3635153
0
LINE
8
DEFAULT_255_1_388
10
19.3053995
20
142.3761652
11
19.3053995
21
142.1087102
0
ARC
8
DEFAULT_255_1_388
10
18.5908492
20
142.1294118
40
1.3777776
50
353.8440855
51
0.2287917
0
ARC
8
DEFAULT_255_1_388
10
19.112751
20
142.0711414
40
0.852639
50
344.4934746
51
353.9763743
0
ARC
8
DEFAULT_255_1_388
10
19.4494317
20
141.9754191
40
0.5026273
50
329.2803599
51
344.7473406
0
ARC
8
DEFAULT_255_1_388
10
19.5609812
20
141.9142038
40
0.3754848
50
324.9361395
51
328.6153007
0
ARC
8
DEFAULT_255_1_388
10
19.6035462
20
141.8844586
40
0.3235566
50
280.5801797
51
324.9173226
0
ARC
8
DEFAULT_255_1_388
10
19.5584091
20
142.0724236
40
0.5167077
50
269.5979457
51
281.6732777
0
ARC
8
DEFAULT_255_1_388
10
19.5502994
20
142.0589113
40
0.5032026
50
256.6228565
51
270.5105488
0
ARC
8
DEFAULT_255_1_388
10
19.5050737
20
141.8847345
40
0.3233092
50
215.8618351
51
257.2787793
0
ARC
8
DEFAULT_255_1_388
10
19.6199444
20
141.9618106
40
0.4615831
50
197.9695203
51
215.2622745
0
ARC
8
DEFAULT_255_1_388
10
19.899512
20
142.0561641
40
0.7566307
50
187.8816486
51
198.2346584
0
ARC
8
DEFAULT_255_1_388
10
20.3448358
20
142.1204453
40
1.2065653
50
180.8977266
51
188.0054894
0
ARC
8
DEFAULT_255_1_388
10
20.6498572
20
142.13194
40
1.5117443
50
180.7434591
51
181.152202
0
ARC
8
DEFAULT_255_1_388
10
20.4823568
20
142.3409371
40
1.3441277
50
173.7674302
51
180.2315596
0
ARC
8
DEFAULT_255_1_388
10
19.9741437
20
142.3983779
40
0.8326847
50
164.3058537
51
173.9000553
0
ARC
8
DEFAULT_255_1_388
10
19.6465437
20
142.4927652
40
0.4917711
50
148.7922028
51
164.5682288
0
ARC
8
DEFAULT_255_1_388
10
19.5396174
20
142.5524457
40
0.3694204
50
144.5883979
51
148.1161588
0
ARC
8
DEFAULT_255_1_388
10
19.5008919
20
142.5794667
40
0.322202
50
101.6440149
51
144.5142619
0
ARC
8
DEFAULT_255_1_388
10
19.5487112
20
142.3894337
40
0.5180451
50
89.528284
51
102.5820197
0
ARC
8
DEFAULT_255_1_388
10
19.5576103
20
142.3850376
40
0.5224441
50
77.0437914
51
90.508231
0
ARC
8
DEFAULT_255_1_388
10
19.6028357
20
142.5698272
40
0.3322297
50
48.2777708
51
77.4996087
0
ARC
8
DEFAULT_255_1_388
10
19.6110097
20
142.5843557
40
0.315966
50
36.3141586
51
47.6307332
0
ARC
8
DEFAULT_255_1_388
10
19.5132819
20
142.5185159
40
0.4337313
50
18.2931065
51
35.6770203
0
ARC
8
DEFAULT_255_1_388
10
19.227166
20
142.4203107
40
0.7362203
50
8.0246996
51
18.5605636
0
ARC
8
DEFAULT_255_1_388
10
18.7588016
20
142.3511432
40
1.2096583
50
1.127539
51
8.1718423
0
ARC
8
DEFAULT_255_1_388
10
18.3939149
20
142.3368374
40
1.5747719
50
0.5432713
51
1.38669
0
ARC
8
DEFAULT_255_1_388
10
18.5996528
20
142.3675163
40
1.2018103
50
359.8092569
51
4.9408001
0
ARC
8
DEFAULT_255_1_388
10
19.0733109
20
142.40979
40
0.7262727
50
4.8364937
51
12.2906017
0
ARC
8
DEFAULT_255_1_388
10
19.3832574
20
142.4788485
40
0.4087324
50
12.0806994
51
23.8171225
0
ARC
8
DEFAULT_255_1_388
10
19.515297
20
142.5347508
40
0.2653719
50
24.2874621
51
31.3934353
0
ARC
8
DEFAULT_255_1_388
10
19.5743406
20
142.5733822
40
0.1948607
50
30.7407708
51
82.4658033
0
ARC
8
DEFAULT_255_1_388
10
19.5541067
20
142.4740017
40
0.2961198
50
81.1057101
51
90.2187368
0
ARC
8
DEFAULT_255_1_388
10
19.5500878
20
142.5030421
40
0.2670929
50
89.380395
51
105.6763916
0
ARC
8
DEFAULT_255_1_388
10
19.52946
20
142.578032
40
0.1893189
50
105.7980655
51
149.7387869
0
ARC
8
DEFAULT_255_1_388
10
19.649174
20
142.5060719
40
0.3289892
50
149.4208441
51
163.628295
0
ARC
8
DEFAULT_255_1_388
10
19.884397
20
142.4343345
40
0.5749004
50
163.3764549
51
172.141138
0
ARC
8
DEFAULT_255_1_388
10
20.2556692
20
142.3811582
40
0.9499585
50
172.0258462
51
178.0705453
0
ARC
8
DEFAULT_255_1_388
10
20.5978244
20
142.3649682
40
1.2924734
50
177.8639301
51
179.5036263
0
ARC
8
DEFAULT_255_1_388
10
20.4759263
20
142.1046151
40
1.170534
50
179.7995545
51
185.246089
0
ARC
8
DEFAULT_255_1_388
10
20.0210856
20
142.0615404
40
0.7136613
50
185.1411911
51
193.0082205
0
ARC
8
DEFAULT_255_1_388
10
19.7237117
20
141.9912441
40
0.4080987
50
192.7897338
51
205.2507384
0
ARC
8
DEFAULT_255_1_388
10
19.6059327
20
141.9386538
40
0.2791522
50
205.8001921
51
211.2545876
0
ARC
8
DEFAULT_255_1_388
10
19.5470866
20
141.8992132
40
0.2084074
50
210.3789935
51
238.4007996
0
ARC
8
DEFAULT_255_1_388
10
19.5448952
20
141.9044786
40
0.2117943
50
239.6521916
51
265.9793852
0
ARC
8
DEFAULT_255_1_388
10
19.5544801
20
141.9801358
40
0.2879689
50
265.1324455
51
270.0603288
0
ARC
8
DEFAULT_255_1_388
10
19.5577178
20
141.9436418
40
0.2514919
50
269.3314378
51
287.2180039
0
ARC
8
DEFAULT_255_1_388
10
19.573226
20
141.8870291
40
0.1928357
50
287.7957942
51
329.0808983
0
ARC
8
DEFAULT_255_1_388
10
19.4655017
20
141.9542651
40
0.319808
50
328.6635261
51
343.3325043
0
ARC
8
DEFAULT_255_1_388
10
19.2210476
20
142.0304195
40
0.5758408
50
343.0498092
51
351.9392499
0
ARC
8
DEFAULT_255_1_388
10
18.8309797
20
142.0879205
40
0.9701202
50
351.8071632
51
357.7957897
0
ARC
8
DEFAULT_255_1_388
10
18.4675274
20
142.1067724
40
1.3340376
50
357.5870923
51
359.2682493
0
LINE
8
DEFAULT_255_1_388
10
21.0077149
20
142.351769
11
21.0077149
21
142.1349135
0
LINE
8
DEFAULT_255_1_388
10
20.1773392
20
142.1123244
11
20.1773392
21
142.3355048
0
LINE
8
DEFAULT_255_1_388
10
20.8405555
20
142.0897353
11
20.8405555
21
142.3635153
0
LINE
8
DEFAULT_255_1_388
10
20.3444986
20
142.3761652
11
20.3444986
21
142.1087102
0
ARC
8
DEFAULT_255_1_388
10
19.6299483
20
142.1294118
40
1.3777776
50
353.8440855
51
0.2287917
0
ARC
8
DEFAULT_255_1_388
10
20.1518501
20
142.0711414
40
0.852639
50
344.4934746
51
353.9763743
0
ARC
8
DEFAULT_255_1_388
10
20.4885308
20
141.9754191
40
0.5026273
50
329.2803599
51
344.7473406
0
ARC
8
DEFAULT_255_1_388
10
20.6000804
20
141.9142038
40
0.3754848
50
324.9361395
51
328.6153007
0
ARC
8
DEFAULT_255_1_388
10
20.6426453
20
141.8844586
40
0.3235566
50
280.5801797
51
324.9173226
0
ARC
8
DEFAULT_255_1_388
10
20.5975082
20
142.0724236
40
0.5167077
50
269.5979457
51
281.6732777
0
ARC
8
DEFAULT_255_1_388
10
20.5893986
20
142.0589113
40
0.5032026
50
256.6228565
51
270.5105488
0
ARC
8
DEFAULT_255_1_388
10
20.5441728
20
141.8847345
40
0.3233092
50
215.8618351
51
257.2787793
0
ARC
8
DEFAULT_255_1_388
10
20.6590435
20
141.9618106
40
0.4615831
50
197.9695203
51
215.2622745
0
ARC
8
DEFAULT_255_1_388
10
20.9386111
20
142.0561641
40
0.7566307
50
187.8816486
51
198.2346584
0
ARC
8
DEFAULT_255_1_388
10
21.3839349
20
142.1204453
40
1.2065653
50
180.8977266
51
188.0054894
0
ARC
8
DEFAULT_255_1_388
10
21.6889563
20
142.13194
40
1.5117443
50
180.7434591
51
181.152202
0
ARC
8
DEFAULT_255_1_388
10
21.5214559
20
142.3409371
40
1.3441277
50
173.7674302
51
180.2315596
0
ARC
8
DEFAULT_255_1_388
10
21.0132428
20
142.3983779
40
0.8326847
50
164.3058537
51
173.9000553
0
ARC
8
DEFAULT_255_1_388
10
20.6856428
20
142.4927652
40
0.4917711
50
148.7922028
51
164.5682288
0
ARC
8
DEFAULT_255_1_388
10
20.5787165
20
142.5524457
40
0.3694204
50
144.5883979
51
148.1161588
0
ARC
8
DEFAULT_255_1_388
10
20.5399911
20
142.5794667
40
0.322202
50
101.6440149
51
144.5142619
0
ARC
8
DEFAULT_255_1_388
10
20.5878103
20
142.3894337
40
0.5180451
50
89.528284
51
102.5820197
0
ARC
8
DEFAULT_255_1_388
10
20.5967095
20
142.3850376
40
0.5224441
50
77.0437914
51
90.508231
0
ARC
8
DEFAULT_255_1_388
10
20.6419348
20
142.5698272
40
0.3322297
50
48.2777708
51
77.4996087
0
ARC
8
DEFAULT_255_1_388
10
20.6501088
20
142.5843557
40
0.315966
50
36.3141586
51
47.6307332
0
ARC
8
DEFAULT_255_1_388
10
20.5523811
20
142.5185159
40
0.4337313
50
18.2931065
51
35.6770203
0
ARC
8
DEFAULT_255_1_388
10
20.2662651
20
142.4203107
40
0.7362203
50
8.0246996
51
18.5605636
0
ARC
8
DEFAULT_255_1_388
10
19.7979007
20
142.3511432
40
1.2096583
50
1.127539
51
8.1718423
0
ARC
8
DEFAULT_255_1_388
10
19.433014
20
142.3368374
40
1.5747719
50
0.5432713
51
1.38669
0
ARC
8
DEFAULT_255_1_388
10
19.6387519
20
142.3675163
40
1.2018103
50
359.8092569
51
4.9408001
0
ARC
8
DEFAULT_255_1_388
10
20.11241
20
142.40979
40
0.7262727
50
4.8364937
51
12.2906017
0
ARC
8
DEFAULT_255_1_388
10
20.4223565
20
142.4788485
40
0.4087324
50
12.0806994
51
23.8171225
0
ARC
8
DEFAULT_255_1_388
10
20.5543961
20
142.5347508
40
0.2653719
50
24.2874621
51
31.3934353
0
ARC
8
DEFAULT_255_1_388
10
20.6134397
20
142.5733822
40
0.1948607
50
30.7407708
51
82.4658033
0
ARC
8
DEFAULT_255_1_388
10
20.5932058
20
142.4740017
40
0.2961198
50
81.1057101
51
90.2187368
0
ARC
8
DEFAULT_255_1_388
10
20.589187
20
142.5030421
40
0.2670929
50
89.380395
51
105.6763916
0
ARC
8
DEFAULT_255_1_388
10
20.5685592
20
142.578032
40
0.1893189
50
105.7980655
51
149.7387869
0
ARC
8
DEFAULT_255_1_388
10
20.6882732
20
142.5060719
40
0.3289892
50
149.4208441
51
163.628295
0
ARC
8
DEFAULT_255_1_388
10
20.9234961
20
142.4343345
40
0.5749004
50
163.3764549
51
172.141138
0
ARC
8
DEFAULT_255_1_388
10
21.2947683
20
142.3811582
40
0.9499585
50
172.0258462
51
178.0705453
0
ARC
8
DEFAULT_255_1_388
10
21.6369236
20
142.3649682
40
1.2924734
50
177.8639301
51
179.5036263
0
ARC
8
DEFAULT_255_1_388
10
21.5150254
20
142.1046151
40
1.170534
50
179.7995545
51
185.246089
0
ARC
8
DEFAULT_255_1_388
10
21.0601847
20
142.0615404
40
0.7136613
50
185.1411911
51
193.0082205
0
ARC
8
DEFAULT_255_1_388
10
20.7628108
20
141.9912441
40
0.4080987
50
192.7897338
51
205.2507384
0
ARC
8
DEFAULT_255_1_388
10
20.6450318
20
141.9386538
40
0.2791522
50
205.8001921
51
211.2545876
0
ARC
8
DEFAULT_255_1_388
10
20.5861857
20
141.8992132
40
0.2084074
50
210.3789935
51
238.4007996
0
ARC
8
DEFAULT_255_1_388
10
20.5839943
20
141.9044786
40
0.2117943
50
239.6521916
51
265.9793852
0
ARC
8
DEFAULT_255_1_388
10
20.5935792
20
141.9801358
40
0.2879689
50
265.1324455
51
270.0603288
0
ARC
8
DEFAULT_255_1_388
10
20.5968169
20
141.9436418
40
0.2514919
50
269.3314378
51
287.2180039
0
ARC
8
DEFAULT_255_1_388
10
20.6123251
20
141.8870291
40
0.1928357
50
287.7957942
51
329.0808983
0
ARC
8
DEFAULT_255_1_388
10
20.5046008
20
141.9542651
40
0.319808
50
328.6635261
51
343.3325043
0
ARC
8
DEFAULT_255_1_388
10
20.2601467
20
142.0304195
40
0.5758408
50
343.0498092
51
351.9392499
0
ARC
8
DEFAULT_255_1_388
10
19.8700789
20
142.0879205
40
0.9701202
50
351.8071632
51
357.7957897
0
ARC
8
DEFAULT_255_1_388
10
19.5066266
20
142.1067724
40
1.3340376
50
357.5870923
51
359.2682493
0
ARC
8
DEFAULT_255_2_778
10
8.4842378
20
145.5683433
40
0.4373747
50
56.3665942
51
72.7074496
0
ARC
8
DEFAULT_255_2_778
10
8.5215053
20
145.6819036
40
0.3178747
50
73.036784
51
89.7973226
0
ARC
8
DEFAULT_255_2_778
10
8.5288513
20
145.6595167
40
0.3403165
50
91.0475309
51
125.5485458
0
ARC
8
DEFAULT_255_2_778
10
8.6945904
20
145.4106582
40
0.6392287
50
124.6669492
51
139.114563
0
ARC
8
DEFAULT_255_2_778
10
8.9360319
20
145.1872476
40
0.9680575
50
138.4713305
51
142.1157612
0
ARC
8
DEFAULT_255_2_778
10
8.5585787
20
145.2179798
40
0.5212765
50
117.7453356
51
135.8758074
0
ARC
8
DEFAULT_255_2_778
10
8.4614378
20
145.4003273
40
0.3146729
50
90.4656379
51
117.5483702
0
ARC
8
DEFAULT_255_2_778
10
8.4553272
20
145.3850634
40
0.3299454
50
64.3679478
51
89.3829577
0
ARC
8
DEFAULT_255_2_778
10
8.4230062
20
145.3034901
40
0.4175182
50
64.8738747
51
65.2115951
0
LINE
8
DEFAULT_255_2_778
10
8.1719896
20
145.7817008
11
8.1719896
21
145.9577008
0
LINE
8
DEFAULT_255_2_778
10
8.1719896
20
145.9577008
11
7.8316896
21
145.9577008
0
LINE
8
DEFAULT_255_2_778
10
7.8316896
20
145.9577008
11
7.8316896
21
144.7390008
0
LINE
8
DEFAULT_255_2_778
10
7.8316896
20
144.7390008
11
8.1970896
21
144.7390008
0
LINE
8
DEFAULT_255_2_778
10
8.1970896
20
144.7390008
11
8.1843896
21
145.5809008
0
LINE
8
DEFAULT_255_2_778
10
8.6002896
20
145.6815008
11
8.7264896
21
145.9325008
0
ARC
8
DEFAULT_255_2_778
10
12.3462297
20
145.1264166
40
0.1058286
50
290.4109967
51
338.4144294
0
ARC
8
DEFAULT_255_2_778
10
12.162295
20
145.495521
40
0.5177505
50
282.5203845
51
295.2483499
0
ARC
8
DEFAULT_255_2_778
10
12.2164596
20
145.3621179
40
0.3756367
50
270.2518229
51
277.9224239
0
ARC
8
DEFAULT_255_2_778
10
12.2019255
20
145.1496058
40
0.163922
50
191.9135594
51
275.6664103
0
ARC
8
DEFAULT_255_2_778
10
12.266424
20
145.2771972
40
0.6680449
50
207.8643513
51
221.7718618
0
ARC
8
DEFAULT_255_2_778
10
12.0489477
20
145.0707613
40
0.3684417
50
220.3588923
51
270.0277924
0
ARC
8
DEFAULT_255_2_778
10
12.0434926
20
145.2028085
40
0.5005206
50
270.6449322
51
287.6494066
0
ARC
8
DEFAULT_255_2_778
10
11.9529907
20
145.4987608
40
0.8099892
50
287.4026496
51
297.6988649
0
ARC
8
DEFAULT_255_2_778
10
11.7449905
20
145.9019576
40
1.2636684
50
297.5514274
51
304.3018591
0
LINE
8
DEFAULT_255_2_778
10
12.0415344
20
145.1157664
11
12.0351344
21
145.9637664
0
LINE
8
DEFAULT_255_2_778
10
12.0351344
20
145.9637664
11
11.6758344
21
145.9637664
0
LINE
8
DEFAULT_255_2_778
10
11.6758344
20
145.9637664
11
11.6758344
21
144.9649664
0
LINE
8
DEFAULT_255_2_778
10
12.4571344
20
144.8580664
11
12.4698344
21
144.7450664
0
LINE
8
DEFAULT_255_2_778
10
12.4698344
20
144.7450664
11
12.8101344
21
144.7450664
0
LINE
8
DEFAULT_255_2_778
10
12.8101344
20
144.7450664
11
12.8101344
21
145.9764664
0
LINE
8
DEFAULT_255_2_778
10
12.8101344
20
145.9764664
11
12.4444344
21
145.9764664
0
LINE
8
DEFAULT_255_2_778
10
12.4444344
20
145.9764664
11
12.4444344
21
145.0842664
0
LINE
8
DEFAULT_255_2_778
10
15.1797344
20
144.7387664
11
15.1797344
21
145.9701664
0
LINE
8
DEFAULT_255_2_778
10
15.1797344
20
145.9701664
11
15.5453344
21
145.9701664
0
LINE
8
DEFAULT_255_2_778
10
15.5453344
20
145.9701664
11
15.5453344
21
144.7387664
0
LINE
8
DEFAULT_255_2_778
10
15.5453344
20
144.7387664
11
15.1797344
21
144.7387664
0
ARC
8
DEFAULT_255_2_778
10
15.3647435
20
146.362866
40
0.1978332
50
90.7257917
51
180.9507563
0
ARC
8
DEFAULT_255_2_778
10
15.3597161
20
146.3629493
40
0.1977501
50
359.0247012
51
89.2694187
0
ARC
8
DEFAULT_255_2_778
10
15.3597161
20
146.3562174
40
0.1977501
50
270.7305813
51
0.9752988
0
ARC
8
DEFAULT_255_2_778
10
15.3647435
20
146.3563007
40
0.1978332
50
179.0492437
51
269.2742083
0
LINE
8
DEFAULT_255_2_778
10
15.1669375
20
146.3595833
11
15.1669375
21
146.3595833
0
LINE
8
DEFAULT_255_2_778
10
16.8729729
20
144.7354854
11
16.8729729
21
145.9668854
0
LINE
8
DEFAULT_255_2_778
10
16.8729729
20
145.9668854
11
17.2386729
21
145.9668854
0
LINE
8
DEFAULT_255_2_778
10
17.2386729
20
145.9668854
11
17.2386729
21
144.7354854
0
LINE
8
DEFAULT_255_2_778
10
17.2386729
20
144.7354854
11
16.8729729
21
144.7354854
0
ARC
8
DEFAULT_255_2_778
10
17.0581435
20
146.359666
40
0.1978332
50
90.7257917
51
180.9507563
0
ARC
8
DEFAULT_255_2_778
10
17.0531161
20
146.3597493
40
0.1977501
50
359.0247012
51
89.2694187
0
ARC
8
DEFAULT_255_2_778
10
17.0531161
20
146.3530174
40
0.1977501
50
270.7305813
51
0.9752988
0
ARC
8
DEFAULT_255_2_778
10
17.0581435
20
146.3531007
40
0.1978332
50
179.0492437
51
269.2742083
0
LINE
8
DEFAULT_255_2_778
10
16.8603375
20
146.3563833
11
16.8603375
21
146.3563833
0
ARC
8
DEFAULT_255_2_778
10
21.970418
20
144.5939227
40
0.3997146
50
186.2131711
51
214.6577436
0
ARC
8
DEFAULT_255_2_778
10
21.8841491
20
144.5543601
40
0.3066997
50
217.744646
51
266.8145684
0
ARC
8
DEFAULT_255_2_778
10
21.9237244
20
144.7652036
40
0.5201599
50
263.7511447
51
266.7848801
0
ARC
8
DEFAULT_255_2_778
10
21.9002471
20
144.5709163
40
0.2402213
50
195.2759813
51
268.6413445
0
ARC
8
DEFAULT_255_2_778
10
22.1728439
20
144.6965818
40
0.5385664
50
193.3133601
51
200.5393414
0
ARC
8
DEFAULT_255_2_778
10
21.9558314
20
144.5436054
40
0.3084425
50
141.9154932
51
174.6130531
0
ARC
8
DEFAULT_255_2_778
10
21.8946765
20
144.5695396
40
0.2449229
50
90.0292982
51
137.86297
0
ARC
8
DEFAULT_255_2_778
10
21.8900311
20
144.5876835
40
0.3117117
50
89.169111
51
162.3562446
0
ARC
8
DEFAULT_255_2_778
10
22.1495641
20
144.4560256
40
0.6007672
50
157.8882743
51
162.6116909
0
ARC
8
DEFAULT_255_2_778
10
13.7518475
20
145.148469
40
0.434232
50
284.0737984
51
307.1283935
0
ARC
8
DEFAULT_255_2_778
10
13.6603344
20
145.4850455
40
0.7829896
50
272.5675489
51
284.5802087
0
ARC
8
DEFAULT_255_2_778
10
13.6344156
20
145.8439403
40
1.1427274
50
269.9523961
51
273.0596894
0
ARC
8
DEFAULT_255_2_778
10
13.6383034
20
146.2256179
40
1.5244123
50
264.3721605
51
269.8181894
0
ARC
8
DEFAULT_255_2_778
10
13.7027881
20
146.8973919
40
2.1992727
50
260.3040359
51
264.4165702
0
ARC
8
DEFAULT_255_2_778
10
13.7920902
20
147.4498156
40
2.75885
50
259.2299789
51
260.4081406
0
ARC
8
DEFAULT_255_2_778
10
13.5130405
20
145.2993783
40
0.6077178
50
188.8927198
51
247.0988028
0
ARC
8
DEFAULT_255_2_778
10
13.8555895
20
145.3905217
40
0.9609548
50
185.1081288
51
191.1050073
0
ARC
8
DEFAULT_255_2_778
10
13.7233792
20
145.318017
40
0.8250312
50
161.5072483
51
180.9066349
0
ARC
8
DEFAULT_255_2_778
10
13.4744453
20
145.3967627
40
0.5639907
50
120.4701872
51
161.0725957
0
ARC
8
DEFAULT_255_2_778
10
13.5600933
20
145.330027
40
0.6661417
50
90.0499347
51
123.9108507
0
ARC
8
DEFAULT_255_2_778
10
13.573003
20
145.173498
40
0.8227812
50
89.9974966
51
90.9394619
0
ARC
8
DEFAULT_255_2_778
10
13.567053
20
145.0124594
40
0.9838382
50
77.8335832
51
89.6513936
0
ARC
8
DEFAULT_255_2_778
10
13.4795686
20
144.5945554
40
1.4107957
50
69.8093959
51
77.9373312
0
ARC
8
DEFAULT_255_2_778
10
13.3760065
20
144.2927908
40
1.7297745
50
69.0266426
51
70.0397415
0
ARC
8
DEFAULT_255_2_778
10
13.5343739
20
144.3147164
40
1.4359408
50
73.9178594
51
79.2452957
0
ARC
8
DEFAULT_255_2_778
10
13.6318735
20
144.8350106
40
0.9065925
50
79.1629935
51
86.6049203
0
ARC
8
DEFAULT_255_2_778
10
13.649902
20
145.086333
40
0.654651
50
86.8774046
51
89.9568351
0
ARC
8
DEFAULT_255_2_778
10
13.64243
20
145.3236025
40
0.4174572
50
88.9067133
51
108.0688095
0
ARC
8
DEFAULT_255_2_778
10
13.5852023
20
145.4973459
40
0.2345328
50
107.942404
51
152.2459688
0
ARC
8
DEFAULT_255_2_778
10
14.2993316
20
145.1670872
40
1.0210941
50
154.5072776
51
162.5682748
0
ARC
8
DEFAULT_255_2_778
10
13.9273868
20
145.2818314
40
0.6318603
50
162.3915767
51
174.8213024
0
ARC
8
DEFAULT_255_2_778
10
13.7622439
20
145.3006421
40
0.4657093
50
175.2922289
51
179.9490984
0
ARC
8
DEFAULT_255_2_778
10
13.635088
20
145.2932528
40
0.338643
50
178.6796766
51
234.9381893
0
ARC
8
DEFAULT_255_2_778
10
13.6327313
20
145.3049177
40
0.3469445
50
236.3635337
51
264.9414885
0
ARC
8
DEFAULT_255_2_778
10
13.6587955
20
145.4804041
40
0.5241505
50
263.7947872
51
270.1188666
0
ARC
8
DEFAULT_255_2_778
10
13.6535226
20
145.7177912
40
0.7615633
50
270.4785196
51
281.0719661
0
ARC
8
DEFAULT_255_2_778
10
13.5692117
20
146.1716518
40
1.2231753
50
280.8649891
51
287.2606546
0
ARC
8
DEFAULT_255_2_778
10
14.6239491
20
147.0045775
40
2.2970478
50
276.5245429
51
279.5045514
0
ARC
8
DEFAULT_255_2_778
10
14.6893389
20
146.4269423
40
1.7157236
50
272.7759418
51
276.5469051
0
ARC
8
DEFAULT_255_2_778
10
14.7091281
20
146.0466849
40
1.3349546
50
270.0439674
51
272.7180028
0
ARC
8
DEFAULT_255_2_778
10
14.7005118
20
145.5785255
40
0.8668484
50
258.6359382
51
270.6372354
0
ARC
8
DEFAULT_255_2_778
10
14.6078537
20
145.1426002
40
0.4212409
50
235.5405817
51
259.3086539
0
ARC
8
DEFAULT_255_2_778
10
14.5467662
20
145.0352689
40
0.2983588
50
181.5929591
51
233.550276
0
ARC
8
DEFAULT_255_2_778
10
14.7449853
20
145.0652298
40
0.4979343
50
179.9387066
51
184.4062155
0
ARC
8
DEFAULT_255_2_778
10
14.8385536
20
145.1612996
40
0.2332136
50
194.3846046
51
259.805052
0
ARC
8
DEFAULT_255_2_778
10
14.9431857
20
145.5265482
40
0.6124159
50
256.2164989
51
270.9014371
0
ARC
8
DEFAULT_255_2_778
10
14.9523166
20
145.8934885
40
0.9792806
50
270.0294815
51
272.249316
0
LINE
8
DEFAULT_255_2_778
10
15.5956513
20
145.9637625
11
15.9422513
21
145.9637625
0
LINE
8
DEFAULT_255_2_778
10
15.9422513
20
145.9637625
11
16.2131513
21
145.2224625
0
LINE
8
DEFAULT_255_2_778
10
16.2131513
20
145.2224625
11
16.4840513
21
145.9701625
0
LINE
8
DEFAULT_255_2_778
10
16.4840513
20
145.9701625
11
16.7928513
21
145.9701625
0
LINE
8
DEFAULT_255_2_778
10
16.7928513
20
145.9701625
11
16.2885513
21
144.7199625
0
LINE
8
DEFAULT_255_2_778
10
16.2885513
20
144.7199625
11
16.0678513
21
144.7199625
0
LINE
8
DEFAULT_255_2_778
10
16.0678513
20
144.7199625
11
15.5956513
21
145.9637625
0
LINE
8
DEFAULT_255_2_778
10
6.2182513
20
146.5921625
11
6.3002513
21
146.5921625
0
LINE
8
DEFAULT_255_2_778
10
6.3002513
20
146.5921625
11
6.3002513
21
144.6352625
0
LINE
8
DEFAULT_255_2_778
10
6.3002513
20
144.6352625
11
18.5070513
21
144.6321625
0
LINE
8
DEFAULT_255_2_778
10
18.5070513
20
144.6321625
11
18.5102513
21
144.5503625
0
LINE
8
DEFAULT_255_2_778
10
18.5102513
20
144.5503625
11
6.2182513
21
144.5503625
0
LINE
8
DEFAULT_255_2_778
10
6.2182513
20
144.5503625
11
6.2182513
21
146.5858625
0
LINE
8
DEFAULT_255_2_778
10
18.9671513
20
144.6384625
11
18.9671513
21
144.5506625
0
LINE
8
DEFAULT_255_2_778
10
18.9671513
20
144.5506625
11
21.5730513
21
144.5506625
0
LINE
8
DEFAULT_255_2_778
10
21.8945513
20
144.2458625
11
21.8945513
21
144.3307625
0
LINE
8
DEFAULT_255_2_778
10
21.8945513
20
144.8144625
11
21.8945513
21
144.8993625
0
LINE
8
DEFAULT_255_2_778
10
21.5762513
20
144.6355625
11
18.9735513
21
144.6355625
0
LINE
8
DEFAULT_255_2_778
10
13.9382513
20
145.0033625
11
14.0139513
21
144.8022625
0
LINE
8
DEFAULT_255_2_778
10
13.9951513
20
145.9079625
11
13.9321513
21
145.6944625
0
LINE
8
DEFAULT_255_2_778
10
14.2470513
20
145.0657625
11
14.2470513
21
145.7565625
0
LINE
8
DEFAULT_255_2_778
10
14.2470513
20
145.7565625
11
14.0578513
21
145.7565625
0
LINE
8
DEFAULT_255_2_778
10
14.0578513
20
145.7565625
11
14.0578513
21
145.9701625
0
LINE
8
DEFAULT_255_2_778
10
14.0578513
20
145.9701625
11
14.2470513
21
145.9701625
0
LINE
8
DEFAULT_255_2_778
10
14.2470513
20
145.9701625
11
14.3856513
21
146.4725625
0
LINE
8
DEFAULT_255_2_778
10
14.3856513
20
146.4725625
11
14.5999513
21
146.4725625
0
LINE
8
DEFAULT_255_2_778
10
14.5999513
20
146.4725625
11
14.6126513
21
145.9701625
0
LINE
8
DEFAULT_255_2_778
10
14.6126513
20
145.9701625
11
14.9529513
21
145.9701625
0
LINE
8
DEFAULT_255_2_778
10
14.9529513
20
145.9701625
11
14.9529513
21
145.7565625
0
LINE
8
DEFAULT_255_2_778
10
14.9529513
20
145.7565625
11
14.6126513
21
145.7565625
0
LINE
8
DEFAULT_255_2_778
10
14.6126513
20
145.7565625
11
14.6126513
21
145.1033625
0
LINE
8
DEFAULT_255_2_778
10
14.9907513
20
144.9149625
11
15.0032513
21
144.7390625
0
ARC
8
DEFAULT_255_2_778
10
18.2771567
20
144.5983016
40
0.588921
50
314.1465216
51
331.9330914
0
ARC
8
DEFAULT_255_2_778
10
18.4147245
20
144.4581113
40
0.3925118
50
269.0312524
51
313.9901377
0
ARC
8
DEFAULT_255_2_778
10
18.4130071
20
144.6504619
40
0.584827
50
255.6549108
51
269.5180973
0
ARC
8
DEFAULT_255_2_778
10
18.4880411
20
144.9536139
40
0.8971207
50
246.7072254
51
255.8091359
0
ARC
8
DEFAULT_255_2_778
10
18.6124803
20
145.2561796
40
1.2242447
50
243.4735796
51
246.9574492
0
ARC
8
DEFAULT_255_2_778
10
18.3377307
20
144.6868958
40
0.365718
50
238.6975405
51
269.7536991
0
ARC
8
DEFAULT_255_2_778
10
18.3341625
20
144.7208672
40
0.3996911
50
270.2861506
51
285.9235992
0
ARC
8
DEFAULT_255_2_778
10
18.3190528
20
144.5415257
40
0.2399938
50
301.3239159
51
328.5484084
0
ARC
8
DEFAULT_255_2_778
10
17.8344662
20
144.8677796
40
0.8240117
50
326.7768178
51
337.3925755
0
ARC
8
DEFAULT_255_2_778
10
16.7758869
20
145.3264406
40
1.9776351
50
336.9149998
51
342.1307954
0
ARC
8
DEFAULT_255_2_778
10
18.1003835
20
145.1310501
40
0.1954042
50
190.120766
51
263.958695
0
ARC
8
DEFAULT_255_2_778
10
18.1765334
20
145.4336691
40
0.5062622
50
258.9866291
51
270.5697296
0
ARC
8
DEFAULT_255_2_778
10
18.179421
20
145.7511009
40
0.8236717
50
270.1493118
51
275.0745303
0
ARC
8
DEFAULT_255_2_778
10
18.1623931
20
145.9681991
40
1.0414275
50
274.9512067
51
276.4741818
0
ARC
8
DEFAULT_255_2_778
10
17.8865118
20
147.2244593
40
2.5197089
50
276.512457
51
279.4178429
0
ARC
8
DEFAULT_255_2_778
10
17.9623799
20
146.5541109
40
1.8450814
50
272.9002784
51
276.532699
0
ARC
8
DEFAULT_255_2_778
10
17.9860581
20
146.111808
40
1.4021477
50
270.0528156
51
272.8484525
0
ARC
8
DEFAULT_255_2_778
10
17.9780255
20
145.6030179
40
0.8934054
50
259.5071449
51
270.5980454
0
ARC
8
DEFAULT_255_2_778
10
17.887913
20
145.1420607
40
0.4237716
50
238.7101736
51
260.1371304
0
ARC
8
DEFAULT_255_2_778
10
17.8040731
20
144.9956077
40
0.2551147
50
181.256628
51
237.7180126
0
LINE
8
DEFAULT_255_2_778
10
18.0657198
20
144.1608129
11
18.1477198
21
144.3744129
0
LINE
8
DEFAULT_255_2_778
10
18.6581198
20
144.7196129
11
18.2295198
21
145.7499129
0
LINE
8
DEFAULT_255_2_778
10
18.2295198
20
145.7499129
11
17.9080198
21
145.7499129
0
LINE
8
DEFAULT_255_2_778
10
17.9080198
20
145.7499129
11
17.9080198
21
145.0967129
0
LINE
8
DEFAULT_255_2_778
10
18.2798198
20
144.9334129
11
18.2988198
21
144.7387129
0
LINE
8
DEFAULT_255_2_778
10
17.5490198
20
144.9900129
11
17.5363198
21
145.7565129
0
LINE
8
DEFAULT_255_2_778
10
17.5363198
20
145.7565129
11
17.3471198
21
145.7565129
0
LINE
8
DEFAULT_255_2_778
10
17.3471198
20
145.7565129
11
17.3471198
21
145.9701129
0
LINE
8
DEFAULT_255_2_778
10
17.3471198
20
145.9701129
11
17.5487198
21
145.9701129
0
LINE
8
DEFAULT_255_2_778
10
17.5487198
20
145.9701129
11
17.6747198
21
146.4725129
0
LINE
8
DEFAULT_255_2_778
10
17.6747198
20
146.4725129
11
17.8890198
21
146.4725129
0
LINE
8
DEFAULT_255_2_778
10
17.8890198
20
146.4725129
11
17.9017198
21
145.9701129
0
LINE
8
DEFAULT_255_2_778
10
17.9017198
20
145.9701129
11
18.5319198
21
145.9701129
0
LINE
8
DEFAULT_255_2_778
10
18.5319198
20
145.9701129
11
18.8343198
21
145.1409129
0
LINE
8
DEFAULT_255_2_778
10
18.8343198
20
145.1409129
11
19.1367198
21
145.9701129
0
LINE
8
DEFAULT_255_2_778
10
19.1367198
20
145.9701129
11
19.4519198
21
145.9701129
0
LINE
8
DEFAULT_255_2_778
10
19.4519198
20
145.9701129
11
18.7965198
21
144.3241129
0
ARC
8
DEFAULT_255_2_778
10
19.6924911
20
145.9240064
40
0.0240119
50
28.9725327
51
103.4850922
0
ARC
8
DEFAULT_255_2_778
10
19.6675258
20
145.7088978
40
0.2392435
50
85.3570436
51
90.3180147
0
ARC
8
DEFAULT_255_2_778
10
19.68302
20
145.3124354
40
0.7352792
50
91.4451573
51
94.5103719
0
ARC
8
DEFAULT_255_2_778
10
19.6762642
20
145.5375413
40
0.5100756
50
90.0204387
51
91.3242457
0
ARC
8
DEFAULT_255_2_778
10
19.6820782
20
145.8162926
40
0.231402
50
77.5838349
51
91.484776
0
ARC
8
DEFAULT_255_2_778
10
19.7300541
20
146.0104087
40
0.0319233
50
15.1916927
51
86.8071299
0
ARC
8
DEFAULT_255_2_778
10
19.7392759
20
146.0165197
40
0.0217032
50
359.9550511
51
5.9623374
0
ARC
8
DEFAULT_255_2_778
10
19.7113423
20
146.0214073
40
0.0498786
50
318.6903529
51
354.3569627
0
ARC
8
DEFAULT_255_2_778
10
19.59333
20
146.1089286
40
0.1966754
50
312.4194177
51
322.2354785
0
ARC
8
DEFAULT_255_2_778
10
19.7074456
20
145.9209292
40
0.0466555
50
7.7623904
51
66.56899
0
ARC
8
DEFAULT_255_2_778
10
19.5728806
20
145.8929086
40
0.184022
50
4.3922991
51
10.7492459
0
ARC
8
DEFAULT_255_2_778
10
19.7790464
20
145.9032679
40
0.0229895
50
170.6523659
51
230.6545988
0
ARC
8
DEFAULT_255_2_778
10
19.7669101
20
145.8937613
40
0.0086241
50
253.5721784
51
270.5831571
0
ARC
8
DEFAULT_255_2_778
10
19.6864906
20
145.9904188
40
0.034333
50
13.334954
51
106.2290103
0
ARC
8
DEFAULT_255_2_778
10
19.6694514
20
145.843395
40
0.1801426
50
87.631716
51
90.0488074
0
ARC
8
DEFAULT_255_2_778
10
19.6792828
20
146.0423746
40
0.0666888
50
261.3891358
51
304.5653386
0
ARC
8
DEFAULT_255_2_778
10
19.7080184
20
145.9950951
40
0.0118802
50
319.9940947
51
0.6866831
0
ARC
8
DEFAULT_255_2_778
10
19.6909745
20
145.9669613
40
0.1602765
50
89.8843696
51
180.00852
0
ARC
8
DEFAULT_255_2_778
10
19.6918123
20
145.9671526
40
0.1600857
50
359.923006
51
90.1841118
0
ARC
8
DEFAULT_255_2_778
10
19.6917276
20
145.9667075
40
0.1601705
50
269.8462838
51
0.0822692
0
ARC
8
DEFAULT_255_2_778
10
19.6908681
20
145.9667074
40
0.1601705
50
179.9177057
51
270.1537517
0
ARC
8
DEFAULT_255_2_778
10
19.6941702
20
145.9680588
40
0.1256773
50
179.9900739
51
180.5112141
0
ARC
8
DEFAULT_255_2_778
10
19.6929324
20
145.9681978
40
0.1244397
50
135.616881
51
180.0539568
0
ARC
8
DEFAULT_255_2_778
10
19.6926982
20
145.9684377
40
0.1241046
50
90.5079979
51
135.6204406
0
ARC
8
DEFAULT_255_2_778
10
19.6904941
20
145.9686676
40
0.1238749
50
44.3347873
51
89.4894407
0
ARC
8
DEFAULT_255_2_778
10
19.6901635
20
145.9681978
40
0.1244397
50
359.9460432
51
44.383119
0
ARC
8
DEFAULT_255_2_778
10
19.6889256
20
145.9680588
40
0.1256775
50
359.4887859
51
0.0099261
0
ARC
8
DEFAULT_255_2_778
10
19.6889212
20
145.9658161
40
0.1256817
50
359.9900717
51
0.5112118
0
ARC
8
DEFAULT_255_2_778
10
19.6899314
20
145.9656718
40
0.1246718
50
315.6604182
51
0.0563277
0
ARC
8
DEFAULT_255_2_778
10
19.690317
20
145.9655233
40
0.1242924
50
270.5905059
51
315.5851458
0
ARC
8
DEFAULT_255_2_778
10
19.6928761
20
145.9657548
40
0.1245239
50
224.4596468
51
269.4118891
0
ARC
8
DEFAULT_255_2_778
10
19.6931644
20
145.9656718
40
0.1246718
50
179.9436723
51
224.3395818
0
ARC
8
DEFAULT_255_2_778
10
19.6941746
20
145.9658161
40
0.1256819
50
179.4887882
51
180.0099283
0
LINE
8
DEFAULT_255_2_778
10
19.7671979
20
145.8854375
11
19.7261979
21
145.8854375
0
LINE
8
DEFAULT_255_2_778
10
19.7261979
20
145.8854375
11
19.7134979
21
145.9356375
0
LINE
8
DEFAULT_255_2_778
10
19.6661979
20
145.9481375
11
19.6661979
21
145.8854375
0
LINE
8
DEFAULT_255_2_778
10
19.6661979
20
145.8854375
11
19.6282979
21
145.8854375
0
LINE
8
DEFAULT_255_2_778
10
19.6282979
20
145.8854375
11
19.6251979
21
146.0454375
0
LINE
8
DEFAULT_255_2_778
10
19.7669979
20
145.8851375
11
19.7671979
21
145.8854375
0
LINE
8
DEFAULT_255_2_778
10
19.6692979
20
146.0235375
11
19.6692979
21
145.9764375
0
LINE
8
DEFAULT_255_2_778
10
19.5306979
20
145.9669375
11
19.5306979
21
145.9669375
0
LINE
8
DEFAULT_255_2_778
10
19.5684979
20
145.9669375
11
19.5684979
21
145.9669375
0
LINE
8
DEFAULT_255_2_778
10
11.0900688
20
145.6943698
11
11.0900688
21
145.0660698
0
ARC
8
DEFAULT_255_2_778
10
10.4258178
20
146.2592512
40
1.3656176
50
292.8223416
51
299.1049387
0
ARC
8
DEFAULT_255_2_778
10
10.6923229
20
145.6175623
40
0.6708024
50
282.4794629
51
293.1002978
0
ARC
8
DEFAULT_255_2_778
10
10.7656801
20
145.2920416
40
0.3371233
50
270.5838487
51
282.2615078
0
ARC
8
DEFAULT_255_2_778
10
10.7637817
20
145.125428
40
0.1705756
50
241.3798642
51
271.7918735
0
ARC
8
DEFAULT_255_2_778
10
10.7476697
20
145.088612
40
0.1305871
50
222.8095502
51
239.8477433
0
ARC
8
DEFAULT_255_2_778
10
10.8383448
20
145.2131648
40
0.2833162
50
195.5923976
51
228.8379937
0
ARC
8
DEFAULT_255_2_778
10
11.2233514
20
145.3369125
40
0.6875956
50
182.8988217
51
196.901328
0
ARC
8
DEFAULT_255_2_778
10
11.7297763
20
145.3790595
40
1.1956176
50
179.9089191
51
183.6886871
0
ARC
8
DEFAULT_255_2_778
10
12.0981229
20
145.3794544
40
1.5639636
50
177.2544012
51
179.9448392
0
LINE
8
DEFAULT_255_2_778
10
10.5359547
20
145.4543705
11
10.5359688
21
145.4546698
0
ARC
8
DEFAULT_255_2_778
10
11.0005754
20
145.3897208
40
0.4691244
50
149.0121274
51
172.0420019
0
ARC
8
DEFAULT_255_2_778
10
10.8347413
20
145.4801494
40
0.280511
50
88.5440138
51
147.4067729
0
ARC
8
DEFAULT_255_2_778
10
10.7657193
20
144.9299864
40
0.8340669
50
72.0203436
51
84.7616527
0
ARC
8
DEFAULT_255_2_778
10
10.8831282
20
145.3080191
40
0.4382821
50
61.8252032
51
71.3646611
0
ARC
8
DEFAULT_255_2_778
10
10.4737962
20
145.9784032
40
1.2918982
50
287.0682731
51
298.4915226
0
ARC
8
DEFAULT_255_2_778
10
10.6328818
20
145.4554772
40
0.7453122
50
270.6811176
51
287.1763457
0
ARC
8
DEFAULT_255_2_778
10
10.6416525
20
145.2894494
40
0.5792318
50
267.7358327
51
270.0088232
0
ARC
8
DEFAULT_255_2_778
10
10.6221952
20
145.1298768
40
0.4192211
50
203.9093897
51
269.5317059
0
ARC
8
DEFAULT_255_2_778
10
11.0896726
20
145.3892122
40
0.9528801
50
192.6009015
51
206.7737237
0
ARC
8
DEFAULT_255_2_778
10
11.4914822
20
145.4975427
40
1.3687639
50
192.6165694
51
193.3570279
0
ARC
8
DEFAULT_255_2_778
10
11.1915444
20
145.3917151
40
1.05363
50
182.6356817
51
190.5628607
0
ARC
8
DEFAULT_255_2_778
10
11.0380576
20
145.3821692
40
0.89987
50
180.0135228
51
182.4779265
0
ARC
8
DEFAULT_255_2_778
10
10.8122185
20
145.3980664
40
0.6742234
50
136.7456723
51
181.3691273
0
ARC
8
DEFAULT_255_2_778
10
10.662857
20
145.4868873
40
0.5059802
50
89.2314975
51
132.4774114
0
ARC
8
DEFAULT_255_2_778
10
10.6695571
20
145.3761601
40
0.6166618
50
87.8056342
51
89.9919799
0
ARC
8
DEFAULT_255_2_778
10
10.6807164
20
144.8344717
40
1.157965
50
70.3175508
51
89.3838437
0
ARC
8
DEFAULT_255_2_778
10
10.5893508
20
144.5269874
40
1.4783609
50
70.2024224
51
70.9971735
0
ARC
8
DEFAULT_255_2_778
10
9.3624819
20
145.3608426
40
0.1950108
50
91.6788031
51
181.813939
0
ARC
8
DEFAULT_255_2_778
10
9.350989
20
145.3607798
40
0.1950756
50
358.2051219
51
88.3021655
0
ARC
8
DEFAULT_255_2_778
10
9.3509891
20
145.3485596
40
0.1950754
50
271.6978133
51
1.7949071
0
ARC
8
DEFAULT_255_2_778
10
9.3624819
20
145.3484969
40
0.1950108
50
178.186061
51
268.3211969
0
ARC
8
DEFAULT_255_2_778
10
9.5084727
20
145.3614309
40
0.4668529
50
145.043768
51
180.8298084
0
ARC
8
DEFAULT_255_2_778
10
9.3653029
20
145.4691132
40
0.287883
50
91.6987406
51
146.2830079
0
ARC
8
DEFAULT_255_2_778
10
9.3415457
20
145.4521621
40
0.3050877
50
23.4934874
51
87.1398977
0
ARC
8
DEFAULT_255_2_778
10
9.1870732
20
145.3582629
40
0.484809
50
359.5753549
51
26.3944218
0
ARC
8
DEFAULT_255_2_778
10
9.2053375
20
145.34792
40
0.4665802
50
325.0256173
51
0.8288991
0
ARC
8
DEFAULT_255_2_778
10
9.3482106
20
145.2403699
40
0.2879274
50
271.7032906
51
326.2656695
0
ARC
8
DEFAULT_255_2_778
10
9.3720078
20
145.2574987
40
0.3053095
50
203.3271307
51
267.1389871
0
ARC
8
DEFAULT_255_2_778
10
9.5267258
20
145.351093
40
0.4850703
50
179.5775117
51
206.2433806
0
ARC
8
DEFAULT_255_2_778
10
9.3462242
20
145.3357025
40
0.6700752
50
95.9615992
51
178.9168048
0
ARC
8
DEFAULT_255_2_778
10
9.3692457
20
145.2676302
40
0.7403396
50
89.982733
51
97.186551
0
ARC
8
DEFAULT_255_2_778
10
9.3737015
20
145.2978279
40
0.7101545
50
48.1622127
51
90.3414937
0
ARC
8
DEFAULT_255_2_778
10
9.4198028
20
145.3468697
40
0.6428678
50
0.1336951
51
48.3079447
0
ARC
8
DEFAULT_255_2_778
10
9.3927134
20
145.361037
40
0.6700752
50
275.9615992
51
358.9168048
0
ARC
8
DEFAULT_255_2_778
10
9.3696919
20
145.4291094
40
0.7403396
50
269.982733
51
277.186551
0
ARC
8
DEFAULT_255_2_778
10
9.3652362
20
145.3989116
40
0.7101545
50
228.1622127
51
270.3414937
0
ARC
8
DEFAULT_255_2_778
10
9.3191349
20
145.3498698
40
0.6428678
50
180.1336951
51
228.3079447
0
ARC
8
DEFAULT_255_2_778
10
6.8107463
20
146.0453908
40
0.4410946
50
358.399361
51
20.0218069
0
ARC
8
DEFAULT_255_2_778
10
7.0252301
20
146.1214859
40
0.2135292
50
20.5419455
51
86.7410997
0
ARC
8
DEFAULT_255_2_778
10
6.9403671
20
146.0815134
40
0.3150485
50
287.9324001
51
351.1547913
0
ARC
8
DEFAULT_255_2_778
10
7.0381682
20
146.02975
40
0.6191268
50
4.9683528
51
29.9289322
0
ARC
8
DEFAULT_255_2_778
10
7.1427871
20
146.0708443
40
0.508227
50
31.7987523
51
73.6168205
0
ARC
8
DEFAULT_255_2_778
10
7.0076309
20
145.6897148
40
0.9122727
50
72.2244713
51
84.9667071
0
ARC
8
DEFAULT_255_2_778
10
6.9731565
20
146.4537673
40
0.9427779
50
276.9765222
51
292.3131775
0
ARC
8
DEFAULT_255_2_778
10
7.152457
20
146.0462302
40
0.4978062
50
291.0302401
51
353.4987619
0
ARC
8
DEFAULT_255_2_778
10
6.882936
20
146.1015679
40
0.7722473
50
351.6832812
51
358.6496898
0
LINE
8
DEFAULT_255_2_778
10
11.0900688
20
145.6943698
11
11.0900688
21
145.6943698
0
LINE
8
DEFAULT_255_2_778
10
11.0900688
20
145.9177698
11
11.0900688
21
146.6701698
0
LINE
8
DEFAULT_255_2_778
10
11.0900688
20
146.6701698
11
11.4538688
21
146.7114698
0
LINE
8
DEFAULT_255_2_778
10
11.4538688
20
146.7114698
11
11.4538688
21
144.7437698
0
LINE
8
DEFAULT_255_2_778
10
11.4538688
20
144.7437698
11
11.0982688
21
144.7437698
0
LINE
8
DEFAULT_255_2_778
10
11.0982688
20
144.7437698
11
11.0900688
21
144.8429698
0
LINE
8
DEFAULT_255_2_778
10
11.0900688
20
145.9179698
11
11.0900688
21
145.9177698
0
LINE
8
DEFAULT_255_2_778
10
9.1675688
20
145.3546698
11
9.1675688
21
145.3546698
0
LINE
8
DEFAULT_255_2_778
10
9.0416688
20
145.3546698
11
9.0416688
21
145.3546698
0
LINE
8
DEFAULT_255_2_778
10
8.6762688
20
145.3483698
11
8.6762688
21
145.3483698
0
LINE
8
DEFAULT_255_2_778
10
7.0373688
20
146.3346698
11
6.7728688
21
146.3346698
0
LINE
8
DEFAULT_255_2_778
10
6.7728688
20
146.3346698
11
6.7728688
21
145.7817698
0
LINE
8
DEFAULT_255_2_778
10
6.7728688
20
145.7817698
11
7.0373688
21
145.7817698
0
LINE
8
DEFAULT_255_2_778
10
7.2516688
20
146.0330698
11
7.2516688
21
146.0330698
0
LINE
8
DEFAULT_255_2_778
10
7.0876688
20
146.5984698
11
6.3817688
21
146.5984698
0
LINE
8
DEFAULT_255_2_778
10
6.3817688
20
146.5984698
11
6.3817688
21
144.7389698
0
LINE
8
DEFAULT_255_2_778
10
6.3817688
20
144.7389698
11
6.7725688
21
144.7389698
0
LINE
8
DEFAULT_255_2_778
10
6.7725688
20
144.7389698
11
6.7725688
21
145.5179698
0
LINE
8
DEFAULT_255_2_778
10
6.7725688
20
145.5179698
11
7.0876688
21
145.5179698
0
LINE
8
DEFAULT_255_2_778
10
7.6549688
20
146.0833698
11
7.6549688
21
146.0833698
0
ARC
8
DEFAULT_255_2_778
10
22.0341103
20
144.5771325
40
0.1933696
50
91.2195322
51
181.3554583
0
ARC
8
DEFAULT_255_2_778
10
22.0258793
20
144.5771325
40
0.1933696
50
358.6445319
51
88.7804717
0
ARC
8
DEFAULT_255_2_778
10
22.0258794
20
144.5679841
40
0.1933695
50
271.2194968
51
1.3554733
0
ARC
8
DEFAULT_255_2_778
10
22.0341102
20
144.5679841
40
0.1933696
50
178.6445267
51
268.7805032
0
ARC
8
DEFAULT_255_2_778
10
22.500592
20
144.5771522
40
0.1933518
50
91.2438577
51
181.3614136
0
ARC
8
DEFAULT_255_2_778
10
22.4922792
20
144.5771325
40
0.1933696
50
358.6445428
51
88.7804459
0
ARC
8
DEFAULT_255_2_778
10
22.4922795
20
144.5679841
40
0.1933694
50
271.219471
51
1.3554842
0
ARC
8
DEFAULT_255_2_778
10
22.5005921
20
144.5679647
40
0.1933519
50
178.638633
51
268.7561308
0
ARC
8
DEFAULT_255_2_778
10
22.966792
20
144.589852
40
0.1933518
50
91.2438477
51
181.3613675
0
ARC
8
DEFAULT_255_2_778
10
22.9584792
20
144.5898325
40
0.1933696
50
358.6445428
51
88.7804459
0
ARC
8
DEFAULT_255_2_778
10
22.9584795
20
144.5806841
40
0.1933694
50
271.219471
51
1.3554842
0
ARC
8
DEFAULT_255_2_778
10
22.9667921
20
144.5806645
40
0.1933517
50
178.6385825
51
268.7561312
0
LINE
8
DEFAULT_255_2_778
10
21.8407948
20
144.5725583
11
21.8407948
21
144.5725583
0
LINE
8
DEFAULT_255_2_778
10
22.3072948
20
144.5725583
11
22.3072948
21
144.5725583
0
LINE
8
DEFAULT_255_2_778
10
22.7734948
20
144.5852583
11
22.7734948
21
144.5852583
0
LINE
8
DEFAULT_255_2_778
10
21.8956365
20
144.328624
11
21.8665365
21
144.333424
0
LINE
8
DEFAULT_255_2_778
10
21.8665365
20
144.333424
11
21.8059365
21
144.343224
0
LINE
8
DEFAULT_255_2_778
10
21.8059365
20
144.343224
11
21.7299365
21
144.401424
0
LINE
8
DEFAULT_255_2_778
10
21.7299365
20
144.401424
11
21.6728365
21
144.477124
0
LINE
8
DEFAULT_255_2_778
10
21.6728365
20
144.477124
11
21.6476365
21
144.570524
0
LINE
8
DEFAULT_255_2_778
10
21.6476365
20
144.570524
11
21.6728365
21
144.664124
0
LINE
8
DEFAULT_255_2_778
10
21.6728365
20
144.664124
11
21.7294365
21
144.740924
0
LINE
8
DEFAULT_255_2_778
10
21.7294365
20
144.740924
11
21.8053365
21
144.800424
0
LINE
8
DEFAULT_255_2_778
10
21.8053365
20
144.800424
11
21.8665365
21
144.810424
0
LINE
8
DEFAULT_255_2_778
10
21.8665365
20
144.810424
11
21.8958365
21
144.815224
0
LINE
8
DEFAULT_255_2_778
10
21.8958365
20
144.245624
11
21.8546365
21
144.251124
0
LINE
8
DEFAULT_255_2_778
10
21.8546365
20
144.251124
11
21.7707365
21
144.262524
0
LINE
8
DEFAULT_255_2_778
10
21.7707365
20
144.262524
11
21.6683365
21
144.337124
0
LINE
8
DEFAULT_255_2_778
10
21.6683365
20
144.337124
11
21.5950365
21
144.435824
0
LINE
8
DEFAULT_255_2_778
10
21.5950365
20
144.435824
11
21.5733365
21
144.551424
0
ARC
8
DEFAULT_255_2_778
10
19.6071242
20
145.1696303
40
0.3581298
50
180.0162757
51
182.2699138
0
ARC
8
DEFAULT_255_2_778
10
19.4534829
20
145.1832764
40
0.2049502
50
100.1638691
51
183.8462269
0
ARC
8
DEFAULT_255_2_778
10
19.5515993
20
144.8546455
40
0.5471003
50
90.0234402
51
104.2080975
0
ARC
8
DEFAULT_255_2_778
10
19.5528834
20
145.2079699
40
0.1937818
50
5.5175223
51
90.4458723
0
ARC
8
DEFAULT_255_2_778
10
19.3612362
20
145.1675775
40
0.3890348
50
359.7014597
51
8.726641
0
ARC
8
DEFAULT_255_2_778
10
19.2420729
20
145.1657577
40
0.5081929
50
357.7544822
51
359.976639
0
ARC
8
DEFAULT_255_2_778
10
19.3404742
20
145.211107
40
0.4145702
50
340.5439579
51
350.9428846
0
ARC
8
DEFAULT_255_2_778
10
19.6818113
20
145.0901061
40
0.0524224
50
319.3350621
51
340.9786234
0
ARC
8
DEFAULT_255_2_778
10
19.1300329
20
145.272669
40
0.4858933
50
337.8212904
51
346.2526281
0
ARC
8
DEFAULT_255_2_778
10
19.5379362
20
145.1715825
40
0.0656649
50
347.3486169
51
358.3972422
0
ARC
8
DEFAULT_255_2_778
10
19.3892367
20
145.1787112
40
0.2145262
50
357.6048162
51
359.9743471
0
ARC
8
DEFAULT_255_2_778
10
19.521739
20
145.1921395
40
0.0831313
50
350.6371276
51
96.844243
0
ARC
8
DEFAULT_255_2_778
10
19.5122091
20
145.0740521
40
0.2006266
50
90.1076454
51
94.8990763
0
ARC
8
DEFAULT_255_2_778
10
19.5034127
20
145.1706153
40
0.1036663
50
94.6129189
51
177.4610849
0
ARC
8
DEFAULT_255_2_778
10
19.6883706
20
145.1159397
40
0.2945469
50
168.391873
51
173.2331892
0
LINE
8
DEFAULT_255_2_778
10
19.3955754
20
145.1506458
11
19.2492754
21
145.1554458
0
LINE
8
DEFAULT_255_2_778
10
19.7215754
20
145.0559458
11
19.4572754
21
144.7574458
0
LINE
8
DEFAULT_255_2_778
10
19.4572754
20
144.7574458
11
19.7784754
21
144.7574458
0
LINE
8
DEFAULT_255_2_778
10
19.7784754
20
144.7574458
11
19.7784754
21
144.6344458
0
LINE
8
DEFAULT_255_2_778
10
19.7784754
20
144.6344458
11
19.2682754
21
144.6344458
0
LINE
8
DEFAULT_255_2_778
10
19.2682754
20
144.6344458
11
19.2682754
21
144.7387458
0
LINE
8
DEFAULT_255_2_778
10
19.2682754
20
144.7387458
11
19.5799754
21
145.0892458
0
LINE
8
DEFAULT_255_2_778
10
19.3958754
20
145.1506458
11
19.3955754
21
145.1506458
0
ARC
8
DEFAULT_255_2_778
10
21.6491338
20
145.0354013
40
0.5330281
50
158.8297779
51
180.8126209
0
ARC
8
DEFAULT_255_2_778
10
21.3443043
20
145.1615829
40
0.2033429
50
124.0119958
51
160.9659866
0
ARC
8
DEFAULT_255_2_778
10
21.2743176
20
145.254962
40
0.0869831
50
90.4994457
51
120.2017555
0
ARC
8
DEFAULT_255_2_778
10
21.2600082
20
145.2165586
40
0.1261132
50
24.6798401
51
83.8315083
0
ARC
8
DEFAULT_255_2_778
10
21.0025231
20
145.061452
40
0.4261556
50
6.130385
51
29.1785479
0
ARC
8
DEFAULT_255_2_778
10
20.8148831
20
145.0284702
40
0.6163766
50
359.941576
51
7.3161118
0
ARC
8
DEFAULT_255_2_778
10
20.8991049
20
145.0202366
40
0.5322088
50
338.8055679
51
0.8187669
0
ARC
8
DEFAULT_255_2_778
10
21.2033747
20
144.8941684
40
0.203082
50
303.9150541
51
340.932466
0
ARC
8
DEFAULT_255_2_778
10
21.2728185
20
144.8012902
40
0.0874515
50
270.4854298
51
300.1080748
0
ARC
8
DEFAULT_255_2_778
10
21.2871918
20
144.8395041
40
0.1263997
50
204.3281643
51
263.8084993
0
ARC
8
DEFAULT_255_2_778
10
21.5498039
20
144.9955123
40
0.4313014
50
185.613152
51
208.8453558
0
ARC
8
DEFAULT_255_2_778
10
21.738281
20
145.0272819
40
0.6221217
50
179.9484445
51
186.8272745
0
ARC
8
DEFAULT_255_2_778
10
21.5396261
20
145.0319048
40
0.5243157
50
152.5254433
51
180.7827883
0
ARC
8
DEFAULT_255_2_778
10
21.3138339
20
145.1593837
40
0.2653266
50
108.4095367
51
154.4544086
0
ARC
8
DEFAULT_255_2_778
10
21.2768034
20
145.2381783
40
0.1791635
50
90.0140927
51
105.1293658
0
ARC
8
DEFAULT_255_2_778
10
21.2623719
20
145.1864205
40
0.231369
50
28.2822033
51
86.4348199
0
ARC
8
DEFAULT_255_2_778
10
21.0418618
20
145.0392258
40
0.4959362
50
2.837394
51
31.1881489
0
ARC
8
DEFAULT_255_2_778
10
20.9404116
20
145.0248304
40
0.5980477
50
359.9914968
51
3.7337628
0
ARC
8
DEFAULT_255_2_778
10
21.0137058
20
145.0176164
40
0.524802
50
332.6504535
51
0.7779361
0
ARC
8
DEFAULT_255_2_778
10
21.2395936
20
144.8906026
40
0.265965
50
288.44039
51
334.5981325
0
ARC
8
DEFAULT_255_2_778
10
21.2767199
20
144.8118438
40
0.1798021
50
270.0125899
51
285.1541198
0
ARC
8
DEFAULT_255_2_778
10
21.2909632
20
144.8626186
40
0.2310141
50
208.1688806
51
266.4749618
0
ARC
8
DEFAULT_255_2_778
10
21.513001
20
145.0100235
40
0.4969751
50
182.8019459
51
211.0671432
0
ARC
8
DEFAULT_255_2_778
10
21.6169279
20
145.0246537
40
0.6015684
50
179.9916184
51
183.7098813
0
LINE
8
DEFAULT_255_2_778
10
21.1161594
20
145.0278417
11
21.1161594
21
145.0278417
0
LINE
8
DEFAULT_255_2_778
10
21.0153594
20
145.0247417
11
21.0153594
21
145.0247417
0
ARC
8
DEFAULT_255_2_778
10
21.0567338
20
145.0354013
40
0.5330281
50
158.8297779
51
180.8126209
0
ARC
8
DEFAULT_255_2_778
10
20.7519043
20
145.1615829
40
0.2033429
50
124.0119958
51
160.9659866
0
ARC
8
DEFAULT_255_2_778
10
20.6819176
20
145.254962
40
0.0869831
50
90.4994457
51
120.2017555
0
ARC
8
DEFAULT_255_2_778
10
20.6676082
20
145.2165586
40
0.1261132
50
24.6798401
51
83.8315083
0
ARC
8
DEFAULT_255_2_778
10
20.4101231
20
145.061452
40
0.4261556
50
6.130385
51
29.1785479
0
ARC
8
DEFAULT_255_2_778
10
20.2224831
20
145.0284702
40
0.6163766
50
359.941576
51
7.3161118
0
ARC
8
DEFAULT_255_2_778
10
20.3067049
20
145.0202366
40
0.5322088
50
338.8055679
51
0.8187669
0
ARC
8
DEFAULT_255_2_778
10
20.6109747
20
144.8941684
40
0.203082
50
303.9150541
51
340.932466
0
ARC
8
DEFAULT_255_2_778
10
20.6804185
20
144.8012902
40
0.0874515
50
270.4854298
51
300.1080748
0
ARC
8
DEFAULT_255_2_778
10
20.6947918
20
144.8395041
40
0.1263997
50
204.3281643
51
263.8084993
0
ARC
8
DEFAULT_255_2_778
10
20.9574039
20
144.9955123
40
0.4313014
50
185.613152
51
208.8453558
0
ARC
8
DEFAULT_255_2_778
10
21.145881
20
145.0272819
40
0.6221217
50
179.9484445
51
186.8272745
0
ARC
8
DEFAULT_255_2_778
10
20.9472261
20
145.0319048
40
0.5243157
50
152.5254433
51
180.7827883
0
ARC
8
DEFAULT_255_2_778
10
20.7214339
20
145.1593837
40
0.2653266
50
108.4095367
51
154.4544086
0
ARC
8
DEFAULT_255_2_778
10
20.6844034
20
145.2381783
40
0.1791635
50
90.0140927
51
105.1293658
0
ARC
8
DEFAULT_255_2_778
10
20.6699719
20
145.1864205
40
0.231369
50
28.2822033
51
86.4348199
0
ARC
8
DEFAULT_255_2_778
10
20.4494618
20
145.0392258
40
0.4959362
50
2.837394
51
31.1881489
0
ARC
8
DEFAULT_255_2_778
10
20.3480116
20
145.0248304
40
0.5980477
50
359.9914968
51
3.7337628
0
ARC
8
DEFAULT_255_2_778
10
20.4213058
20
145.0176164
40
0.524802
50
332.6504535
51
0.7779361
0
ARC
8
DEFAULT_255_2_778
10
20.6471936
20
144.8906026
40
0.265965
50
288.44039
51
334.5981325
0
ARC
8
DEFAULT_255_2_778
10
20.6843199
20
144.8118438
40
0.1798021
50
270.0125899
51
285.1541198
0
ARC
8
DEFAULT_255_2_778
10
20.6985632
20
144.8626186
40
0.2310141
50
208.1688806
51
266.4749618
0
ARC
8
DEFAULT_255_2_778
10
20.920601
20
145.0100235
40
0.4969751
50
182.8019459
51
211.0671432
0
ARC
8
DEFAULT_255_2_778
10
21.0245279
20
145.0246537
40
0.6015684
50
179.9916184
51
183.7098813
0
LINE
8
DEFAULT_255_2_778
10
20.5237594
20
145.0278417
11
20.5237594
21
145.0278417
0
LINE
8
DEFAULT_255_2_778
10
20.4229594
20
145.0247417
11
20.4229594
21
145.0247417
0
ARC
8
DEFAULT_255_2_778
10
20.4643338
20
145.0354013
40
0.5330281
50
158.8297779
51
180.8126209
0
ARC
8
DEFAULT_255_2_778
10
20.1595043
20
145.1615829
40
0.2033429
50
124.0119958
51
160.9659866
0
ARC
8
DEFAULT_255_2_778
10
20.0895176
20
145.254962
40
0.0869831
50
90.4994457
51
120.2017555
0
ARC
8
DEFAULT_255_2_778
10
20.0752082
20
145.2165586
40
0.1261132
50
24.6798401
51
83.8315083
0
ARC
8
DEFAULT_255_2_778
10
19.8177231
20
145.061452
40
0.4261556
50
6.130385
51
29.1785479
0
ARC
8
DEFAULT_255_2_778
10
19.6300831
20
145.0284702
40
0.6163766
50
359.941576
51
7.3161118
0
ARC
8
DEFAULT_255_2_778
10
19.7143049
20
145.0202366
40
0.5322088
50
338.8055679
51
0.8187669
0
ARC
8
DEFAULT_255_2_778
10
20.0185747
20
144.8941684
40
0.203082
50
303.9150541
51
340.932466
0
ARC
8
DEFAULT_255_2_778
10
20.0880185
20
144.8012902
40
0.0874515
50
270.4854298
51
300.1080748
0
ARC
8
DEFAULT_255_2_778
10
20.1023918
20
144.8395041
40
0.1263997
50
204.3281643
51
263.8084993
0
ARC
8
DEFAULT_255_2_778
10
20.3650039
20
144.9955123
40
0.4313014
50
185.613152
51
208.8453558
0
ARC
8
DEFAULT_255_2_778
10
20.553481
20
145.0272819
40
0.6221217
50
179.9484445
51
186.8272745
0
ARC
8
DEFAULT_255_2_778
10
20.3548261
20
145.0319048
40
0.5243157
50
152.5254433
51
180.7827883
0
ARC
8
DEFAULT_255_2_778
10
20.1290339
20
145.1593837
40
0.2653266
50
108.4095367
51
154.4544086
0
ARC
8
DEFAULT_255_2_778
10
20.0920034
20
145.2381783
40
0.1791635
50
90.0140927
51
105.1293658
0
ARC
8
DEFAULT_255_2_778
10
20.0775719
20
145.1864205
40
0.231369
50
28.2822033
51
86.4348199
0
ARC
8
DEFAULT_255_2_778
10
19.8570618
20
145.0392258
40
0.4959362
50
2.837394
51
31.1881489
0
ARC
8
DEFAULT_255_2_778
10
19.7556116
20
145.0248304
40
0.5980477
50
359.9914968
51
3.7337628
0
ARC
8
DEFAULT_255_2_778
10
19.8289058
20
145.0176164
40
0.524802
50
332.6504535
51
0.7779361
0
ARC
8
DEFAULT_255_2_778
10
20.0547936
20
144.8906026
40
0.265965
50
288.44039
51
334.5981325
0
ARC
8
DEFAULT_255_2_778
10
20.0919199
20
144.8118438
40
0.1798021
50
270.0125899
51
285.1541198
0
ARC
8
DEFAULT_255_2_778
10
20.1061632
20
144.8626186
40
0.2310141
50
208.1688806
51
266.4749618
0
ARC
8
DEFAULT_255_2_778
10
20.328201
20
145.0100235
40
0.4969751
50
182.8019459
51
211.0671432
0
ARC
8
DEFAULT_255_2_778
10
20.4321279
20
145.0246537
40
0.6015684
50
179.9916184
51
183.7098813
0
LINE
8
DEFAULT_255_2_778
10
19.9313594
20
145.0278417
11
19.9313594
21
145.0278417
0
LINE
8
DEFAULT_255_2_778
10
19.8305594
20
145.0247417
11
19.8305594
21
145.0247417
0
LINE
8
DEFAULT_255_2_778
10
9.3932417
20
124.2219075
11
10.7161417
21
124.2219075
0
LINE
8
DEFAULT_255_2_778
10
10.7161417
20
124.2219075
11
10.7161417
21
67.3365075
0
LINE
8
DEFAULT_255_2_778
10
9.3932834
20
67.3364333
11
12.0390834
21
67.3364333
0
LINE
8
DEFAULT_255_2_778
10
12.0390834
20
67.3364333
11
12.0390834
21
62.0447333
0
LINE
8
DEFAULT_255_2_778
10
12.0390834
20
62.0447333
11
9.3932834
21
62.0447333
0
LINE
8
DEFAULT_255_2_778
10
9.3932834
20
62.0447333
11
9.3932834
21
67.3364333
0
ARC
8
DEFAULT_255_2_778_1
10
13.1928591
20
62.147177
40
4.816461
50
120.9442904
51
122.351755
0
ARC
8
DEFAULT_255_2_778_1
10
12.7462523
20
62.8508039
40
3.9830657
50
122.3407904
51
124.1946752
0
ARC
8
DEFAULT_255_2_778_1
10
12.3063464
20
63.4973306
40
3.2010724
50
124.1855758
51
126.4338849
0
ARC
8
DEFAULT_255_2_778_1
10
11.9204129
20
64.0200611
40
2.5513094
50
126.4326926
51
128.8877368
0
ARC
8
DEFAULT_255_2_778_1
10
11.5855968
20
64.4344658
40
2.0185498
50
128.8749205
51
131.8726567
0
ARC
8
DEFAULT_255_2_778_1
10
11.2884677
20
64.7654854
40
1.5737356
50
131.8616166
51
135.4168838
0
ARC
8
DEFAULT_255_2_778_1
10
11.025668
20
65.0236765
40
1.2053256
50
135.3893975
51
139.9687014
0
ARC
8
DEFAULT_255_2_778_1
10
10.7927889
20
65.2185102
40
0.9016937
50
139.9301659
51
145.9260426
0
ARC
8
DEFAULT_255_2_778_1
10
10.596654
20
65.3505104
40
0.6652776
50
145.8787362
51
153.8146208
0
ARC
8
DEFAULT_255_2_778_1
10
10.4445553
20
65.4248797
40
0.4959714
50
153.770634
51
164.3484794
0
ARC
8
DEFAULT_255_2_778_1
10
10.3432387
20
65.4530786
40
0.3908039
50
164.3220276
51
179.8083066
0
ARC
8
DEFAULT_255_2_778_1
10
10.3642789
20
65.461215
40
0.4118985
50
180.9499449
51
213.8111542
0
ARC
8
DEFAULT_255_2_778_1
10
10.6401828
20
65.6307896
40
0.73561
50
212.8271214
51
224.258472
0
ARC
8
DEFAULT_255_2_778_1
10
11.0230335
20
66.0001236
40
1.267567
50
224.1376218
51
231.4508261
0
ARC
8
DEFAULT_255_2_778_1
10
11.6657195
20
66.8031168
40
2.2960809
50
231.3955893
51
236.1256478
0
ARC
8
DEFAULT_255_2_778_1
10
13.4980223
20
69.5496293
40
5.5976905
50
236.2233172
51
239.1314682
0
ARC
8
DEFAULT_255_2_778_1
10
25.447927
20
89.2773568
40
28.6623793
50
238.8606853
51
239.0711101
0
ARC
8
DEFAULT_255_2_778_1
10
6.2757281
20
57.1802653
40
8.7248518
50
57.2420924
51
59.4062964
0
ARC
8
DEFAULT_255_2_778_1
10
9.5034241
20
62.2112102
40
2.747542
50
52.8289294
51
57.079028
0
ARC
8
DEFAULT_255_2_778_1
10
10.2780783
20
63.2315488
40
1.466457
50
46.3041868
51
52.8596521
0
ARC
8
DEFAULT_255_2_778_1
10
10.7103073
20
63.6816842
40
0.8424061
50
36.2174211
51
46.4090895
0
ARC
8
DEFAULT_255_2_778_1
10
10.9948088
20
63.8865128
40
0.4918609
50
17.400375
51
36.5489745
0
ARC
8
DEFAULT_255_2_778_1
10
11.1088994
20
63.9263754
40
0.3710912
50
0.0676858
51
16.7951297
0
ARC
8
DEFAULT_255_2_778_1
10
11.0878613
20
63.9282428
40
0.3921317
50
343.8035191
51
359.7912046
0
ARC
8
DEFAULT_255_2_778_1
10
10.9815912
20
63.9587167
40
0.5026844
50
333.2506233
51
343.8465691
0
ARC
8
DEFAULT_255_2_778_1
10
10.8277757
20
64.0354313
40
0.6745679
50
325.6600948
51
333.3122657
0
ARC
8
DEFAULT_255_2_778_1
10
10.6323344
20
64.1682296
40
0.9108568
50
319.7560915
51
325.6976089
0
ARC
8
DEFAULT_255_2_778_1
10
10.404199
20
64.3600002
40
1.2088854
50
315.4577584
51
319.8037947
0
ARC
8
DEFAULT_255_2_778_1
10
10.1408127
20
64.6188507
40
1.5781764
50
311.7298824
51
315.4670864
0
ARC
8
DEFAULT_255_2_778_1
10
9.8317879
20
64.9644074
40
2.0417554
50
308.723055
51
311.7470879
0
ARC
8
DEFAULT_255_2_778_1
10
9.477589
20
65.4056492
40
2.6075745
50
306.1165163
51
308.7300151
0
ARC
8
DEFAULT_255_2_778_1
10
9.0746091
20
65.9569523
40
3.2904564
50
303.9559446
51
306.1266333
0
ARC
8
DEFAULT_255_2_778_1
10
8.6630432
20
66.566215
40
4.0257023
50
302.3733397
51
303.9712246
0
ARC
8
DEFAULT_255_2_778_1
10
8.2434347
20
67.2277058
40
4.8090549
50
300.9434827
51
302.3758078
0
LINE
8
DEFAULT_255_2_778
10
10.7161417
20
62.0448075
11
10.7161417
21
5.1594075
0
LINE
8
DEFAULT_255_2_778
10
10.7161417
20
5.1594075
11
9.3932417
21
5.1594075
0
LINE
8
DEFAULT_255_1_388
10
4.1879448
20
140.9049898
11
4.5620205
21
139.8198089
0
LINE
8
DEFAULT_255_1_388
10
4.5620205
20
139.8198089
11
4.9379033
21
140.9049898
0
LINE
8
DEFAULT_255_1_388
10
4.9379033
20
140.9049898
11
5.1276518
21
140.9049898
0
LINE
8
DEFAULT_255_1_388
10
5.1276518
20
140.9049898
11
4.639727
21
139.5894
0
LINE
8
DEFAULT_255_1_388
10
4.639727
20
139.5894
11
4.486121
21
139.5894
0
LINE
8
DEFAULT_255_1_388
10
4.486121
20
139.5894
11
3.9990998
21
140.9049898
0
LINE
8
DEFAULT_255_1_388
10
3.9990998
20
140.9049898
11
4.1879448
21
140.9049898
0
LINE
8
DEFAULT_255_1_388
10
5.7565327
20
140.6790987
11
5.7565327
21
140.2950838
0
LINE
8
DEFAULT_255_1_388
10
5.7565327
20
140.2950838
11
6.1233798
21
140.2950838
0
LINE
8
DEFAULT_255_1_388
10
6.1233798
20
140.2950838
11
6.1233798
21
140.1369601
0
LINE
8
DEFAULT_255_1_388
10
6.1233798
20
140.1369601
11
5.7565327
21
140.1369601
0
LINE
8
DEFAULT_255_1_388
10
5.7565327
20
140.1369601
11
5.7565327
21
139.7213204
0
LINE
8
DEFAULT_255_1_388
10
5.7565327
20
139.7213204
11
5.5884697
21
139.7213204
0
LINE
8
DEFAULT_255_1_388
10
5.5884697
20
139.7213204
11
5.5884697
21
140.1369601
0
LINE
8
DEFAULT_255_1_388
10
5.5884697
20
140.1369601
11
5.2216225
21
140.1369601
0
LINE
8
DEFAULT_255_1_388
10
5.2216225
20
140.1369601
11
5.2216225
21
140.2950838
0
LINE
8
DEFAULT_255_1_388
10
5.2216225
20
140.2950838
11
5.5884697
21
140.2950838
0
LINE
8
DEFAULT_255_1_388
10
5.5884697
20
140.2950838
11
5.5884697
21
140.6790987
0
LINE
8
DEFAULT_255_1_388
10
5.5884697
20
140.6790987
11
5.7565327
21
140.6790987
0
LINE
8
DEFAULT_255_1_388
10
4.1909448
20
5.9674898
11
4.5650205
21
4.8823089
0
LINE
8
DEFAULT_255_1_388
10
4.5650205
20
4.8823089
11
4.9409033
21
5.9674898
0
LINE
8
DEFAULT_255_1_388
10
4.9409033
20
5.9674898
11
5.1306518
21
5.9674898
0
LINE
8
DEFAULT_255_1_388
10
5.1306518
20
5.9674898
11
4.642727
21
4.6519
0
LINE
8
DEFAULT_255_1_388
10
4.642727
20
4.6519
11
4.489121
21
4.6519
0
LINE
8
DEFAULT_255_1_388
10
4.489121
20
4.6519
11
4.0020998
21
5.9674898
0
LINE
8
DEFAULT_255_1_388
10
4.0020998
20
5.9674898
11
4.1909448
21
5.9674898
0
LINE
8
DEFAULT_255_1_388
10
5.812843
20
5.9738148
11
5.812843
21
4.6519
0
LINE
8
DEFAULT_255_1_388
10
5.812843
20
4.6519
11
5.64478
21
4.6519
0
LINE
8
DEFAULT_255_1_388
10
5.64478
20
4.6519
11
5.64478
21
5.765995
0
LINE
8
DEFAULT_255_1_388
10
5.64478
20
5.765995
11
5.3077504
21
5.6422066
0
LINE
8
DEFAULT_255_1_388
10
5.3077504
20
5.6422066
11
5.3077504
21
5.7940055
0
LINE
8
DEFAULT_255_1_388
10
5.3077504
20
5.7940055
11
5.7866396
21
5.9738148
0
LINE
8
DEFAULT_255_1_388
10
5.7866396
20
5.9738148
11
5.812843
21
5.9738148
0
LINE
8
DEFAULT_255_1_388
10
6.9287451
20
5.9683934
11
6.9585627
21
5.9683934
0
LINE
8
DEFAULT_255_1_388
10
6.9585627
20
5.9683934
11
6.9585627
21
5.8265338
0
LINE
8
DEFAULT_255_1_388
10
6.9585627
20
5.8265338
11
6.9278415
21
5.8265338
0
LINE
8
DEFAULT_255_1_388
10
6.3125141
20
5.1524747
11
6.3125141
21
5.2166278
0
LINE
8
DEFAULT_255_1_388
10
6.4805771
20
5.1949422
11
6.4805771
21
5.1334999
0
ARC
8
DEFAULT_255_1_388
10
6.9337307
20
5.2642826
40
0.562282
50
90.6001079
51
104.5146616
0
ARC
8
DEFAULT_255_1_388
10
6.8900266
20
5.42681
40
0.3939917
50
104.2855758
51
133.8630124
0
ARC
8
DEFAULT_255_1_388
10
6.9084519
20
5.4146243
40
0.4155734
50
134.5304124
51
161.6210222
0
ARC
8
DEFAULT_255_1_388
10
7.0944451
20
5.3490421
40
0.6127682
50
161.2850533
51
174.2074364
0
ARC
8
DEFAULT_255_1_388
10
7.2534018
20
5.3271437
40
0.7731446
50
173.7817938
51
174.9251711
0
ARC
8
DEFAULT_255_1_388
10
6.7408211
20
5.171627
40
0.3412588
50
95.8332067
51
138.995412
0
ARC
8
DEFAULT_255_1_388
10
6.7659492
20
5.0277695
40
0.4870358
50
89.8755506
51
97.0540979
0
ARC
8
DEFAULT_255_1_388
10
6.7712881
20
5.1217841
40
0.3930432
50
71.6407016
51
90.6240821
0
ARC
8
DEFAULT_255_1_388
10
6.7882274
20
5.1841433
40
0.3285421
50
39.6368051
51
71.0190743
0
ARC
8
DEFAULT_255_1_388
10
6.7166182
20
5.1222586
40
0.4231706
50
10.6588054
51
39.9044509
0
ARC
8
DEFAULT_255_1_388
10
6.5424727
20
5.0844223
40
0.60133
50
359.6827842
51
11.1326896
0
ARC
8
DEFAULT_255_1_388
10
6.5380063
20
5.0764715
40
0.6058047
50
347.2485908
51
0.4371098
0
ARC
8
DEFAULT_255_1_388
10
6.7255849
20
5.0313379
40
0.4128987
50
318.1408565
51
347.6118497
0
ARC
8
DEFAULT_255_1_388
10
6.7621445
20
5.0012903
40
0.3656244
50
275.6342406
51
317.824739
0
ARC
8
DEFAULT_255_1_388
10
6.7372966
20
5.1474827
40
0.513655
50
269.8872513
51
276.7916069
0
ARC
8
DEFAULT_255_1_388
10
6.7311159
20
5.0321181
40
0.398323
50
246.9139443
51
270.7436787
0
ARC
8
DEFAULT_255_1_388
10
6.7318355
20
5.0161044
40
0.3839368
50
218.1665534
51
245.8780431
0
ARC
8
DEFAULT_255_1_388
10
6.8307727
20
5.0988903
40
0.5128958
50
191.4115343
51
218.6077624
0
ARC
8
DEFAULT_255_1_388
10
7.0488043
20
5.1477777
40
0.7363054
50
179.6344971
51
191.7836758
0
ARC
8
DEFAULT_255_1_388
10
7.6767918
20
5.2241495
40
1.3642984
50
171.4523743
51
180.3158856
0
ARC
8
DEFAULT_255_1_388
10
7.1823645
20
5.3010895
40
0.8639311
50
157.9802296
51
171.6246761
0
ARC
8
DEFAULT_255_1_388
10
6.9332995
20
5.4004038
40
0.5958004
50
141.4299236
51
157.8541251
0
ARC
8
DEFAULT_255_1_388
10
6.8611079
20
5.4514746
40
0.5075416
50
102.871586
51
140.8564533
0
ARC
8
DEFAULT_255_1_388
10
6.9339631
20
5.1769943
40
0.7914163
50
90.377773
51
103.5868422
0
ARC
8
DEFAULT_255_1_388
10
6.7384153
20
5.1089543
40
0.2667015
50
89.8751238
51
126.2072139
0
ARC
8
DEFAULT_255_1_388
10
6.7435624
20
5.0915847
40
0.2838229
50
124.9742447
51
144.8960197
0
ARC
8
DEFAULT_255_1_388
10
6.7237869
20
5.1076981
40
0.2583845
50
145.2974778
51
160.2660922
0
ARC
8
DEFAULT_255_1_388
10
7.0694357
20
5.1299151
40
0.5888695
50
179.6512124
51
190.285571
0
ARC
8
DEFAULT_255_1_388
10
6.8788837
20
5.0939968
40
0.3949683
50
190.0944895
51
207.5099647
0
ARC
8
DEFAULT_255_1_388
10
6.8152418
20
5.0637177
40
0.3245464
50
207.9585471
51
216.325377
0
ARC
8
DEFAULT_255_1_388
10
6.7770056
20
5.0322712
40
0.2751259
50
215.7661336
51
232.5457193
0
ARC
8
DEFAULT_255_1_388
10
6.7339171
20
4.9775273
40
0.2054668
50
232.8005815
51
270.6605497
0
ARC
8
DEFAULT_255_1_388
10
6.7390596
20
5.0184853
40
0.2464268
50
269.3550767
51
288.474612
0
ARC
8
DEFAULT_255_1_388
10
6.7495103
20
4.9791721
40
0.2058436
50
289.1831976
51
322.9685307
0
ARC
8
DEFAULT_255_1_388
10
6.6807204
20
5.0334279
40
0.2934408
50
322.6007085
51
346.5183319
0
ARC
8
DEFAULT_255_1_388
10
6.550496
20
5.0666434
40
0.4278249
50
346.2584622
51
358.7739592
0
ARC
8
DEFAULT_255_1_388
10
6.4353536
20
5.0728829
40
0.5430876
50
358.3757628
51
0.0082477
0
ARC
8
DEFAULT_255_1_388
10
6.5210354
20
5.0759856
40
0.4574157
50
359.6211417
51
11.28403
0
ARC
8
DEFAULT_255_1_388
10
6.664696
20
5.1059535
40
0.3106708
50
11.0483152
51
31.8145585
0
ARC
8
DEFAULT_255_1_388
10
6.6994666
20
5.1248045
40
0.2711963
50
32.3028554
51
38.0820598
0
ARC
8
DEFAULT_255_1_388
10
6.7467899
20
5.1676717
40
0.2075566
50
36.8249851
51
85.741667
0
ARC
8
DEFAULT_255_1_388
10
6.7392311
20
5.1113065
40
0.2643487
50
85.0150021
51
90.050843
0
LINE
8
DEFAULT_255_1_388
10
7.8377309
20
5.7415987
11
7.8377309
21
5.3575838
0
LINE
8
DEFAULT_255_1_388
10
7.8377309
20
5.3575838
11
8.2045781
21
5.3575838
0
LINE
8
DEFAULT_255_1_388
10
8.2045781
20
5.3575838
11
8.2045781
21
5.1994601
0
LINE
8
DEFAULT_255_1_388
10
8.2045781
20
5.1994601
11
7.8377309
21
5.1994601
0
LINE
8
DEFAULT_255_1_388
10
7.8377309
20
5.1994601
11
7.8377309
21
4.7838204
0
LINE
8
DEFAULT_255_1_388
10
7.8377309
20
4.7838204
11
7.6696679
21
4.7838204
0
LINE
8
DEFAULT_255_1_388
10
7.6696679
20
4.7838204
11
7.6696679
21
5.1994601
0
LINE
8
DEFAULT_255_1_388
10
7.6696679
20
5.1994601
11
7.3028208
21
5.1994601
0
LINE
8
DEFAULT_255_1_388
10
7.3028208
20
5.1994601
11
7.3028208
21
5.3575838
0
LINE
8
DEFAULT_255_1_388
10
7.3028208
20
5.3575838
11
7.6696679
21
5.3575838
0
LINE
8
DEFAULT_255_1_388
10
7.6696679
20
5.3575838
11
7.6696679
21
5.7415987
0
LINE
8
DEFAULT_255_1_388
10
7.6696679
20
5.7415987
11
7.8377309
21
5.7415987
0
LINE
8
DEFAULT_255_1_388
10
4.1909448
20
13.9049898
11
4.5650205
21
12.8198089
0
LINE
8
DEFAULT_255_1_388
10
4.5650205
20
12.8198089
11
4.9409033
21
13.9049898
0
LINE
8
DEFAULT_255_1_388
10
4.9409033
20
13.9049898
11
5.1306518
21
13.9049898
0
LINE
8
DEFAULT_255_1_388
10
5.1306518
20
13.9049898
11
4.642727
21
12.5894
0
LINE
8
DEFAULT_255_1_388
10
4.642727
20
12.5894
11
4.489121
21
12.5894
0
LINE
8
DEFAULT_255_1_388
10
4.489121
20
12.5894
11
4.0020998
21
13.9049898
0
LINE
8
DEFAULT_255_1_388
10
4.0020998
20
13.9049898
11
4.1909448
21
13.9049898
0
LINE
8
DEFAULT_255_1_388
10
5.812843
20
13.9113148
11
5.812843
21
12.5894
0
LINE
8
DEFAULT_255_1_388
10
5.812843
20
12.5894
11
5.64478
21
12.5894
0
LINE
8
DEFAULT_255_1_388
10
5.64478
20
12.5894
11
5.64478
21
13.703495
0
LINE
8
DEFAULT_255_1_388
10
5.64478
20
13.703495
11
5.3077504
21
13.5797066
0
LINE
8
DEFAULT_255_1_388
10
5.3077504
20
13.5797066
11
5.3077504
21
13.7315055
0
LINE
8
DEFAULT_255_1_388
10
5.3077504
20
13.7315055
11
5.7866396
21
13.9113148
0
LINE
8
DEFAULT_255_1_388
10
5.7866396
20
13.9113148
11
5.812843
21
13.9113148
0
LINE
8
DEFAULT_255_1_388
10
6.5131054
20
13.2146666
11
6.3793779
21
13.2490021
0
LINE
8
DEFAULT_255_1_388
10
6.3793779
20
13.2490021
11
6.4462417
21
13.9049898
0
LINE
8
DEFAULT_255_1_388
10
6.4462417
20
13.9049898
11
7.1203007
21
13.9049898
0
LINE
8
DEFAULT_255_1_388
10
7.1203007
20
13.9049898
11
7.1203007
21
13.7504803
0
LINE
8
DEFAULT_255_1_388
10
7.1203007
20
13.7504803
11
6.5881013
21
13.7504803
0
LINE
8
DEFAULT_255_1_388
10
6.5881013
20
13.7504803
11
6.5483444
21
13.3917652
0
LINE
8
DEFAULT_255_1_388
10
6.3323925
20
12.9354652
11
6.4905163
21
12.9354652
0
LINE
8
DEFAULT_255_1_388
10
6.5573801
20
13.2508092
11
6.5131054
21
13.2146666
0
ARC
8
DEFAULT_255_1_388
10
6.7570058
20
13.0340241
40
0.4141476
50
93.7181681
51
120.253934
0
ARC
8
DEFAULT_255_1_388
10
6.767611
20
12.9431284
40
0.5055616
50
89.9660471
51
94.2495185
0
ARC
8
DEFAULT_255_1_388
10
6.7721932
20
13.0094154
40
0.4392953
50
73.8045384
51
90.5585736
0
ARC
8
DEFAULT_255_1_388
10
6.798619
20
13.105952
40
0.3392225
50
41.3071072
51
73.543002
0
ARC
8
DEFAULT_255_1_388
10
6.751801
20
13.0656461
40
0.4009977
50
13.5075837
51
41.2174839
0
ARC
8
DEFAULT_255_1_388
10
6.5671107
20
13.0172907
40
0.5918864
50
1.1330171
51
13.8830737
0
ARC
8
DEFAULT_255_1_388
10
6.4074753
20
13.0087522
40
0.7516787
50
359.9925091
51
1.5431298
0
ARC
8
DEFAULT_255_1_388
10
6.5519368
20
13.0041027
40
0.6072343
50
347.8572712
51
0.4294349
0
ARC
8
DEFAULT_255_1_388
10
6.7488503
20
12.9594898
40
0.4053482
50
323.6727442
51
348.1674594
0
ARC
8
DEFAULT_255_1_388
10
6.7819467
20
12.9393175
40
0.3667495
50
316.8171818
51
323.1486802
0
ARC
8
DEFAULT_255_1_388
10
6.7888591
20
12.9351612
40
0.358869
50
281.839603
51
316.5458142
0
ARC
8
DEFAULT_255_1_388
10
6.7465878
20
13.1101363
40
0.5388223
50
269.5770964
51
282.4214641
0
ARC
8
DEFAULT_255_1_388
10
6.7385799
20
13.086093
40
0.5147801
50
256.2425863
51
270.4486481
0
ARC
8
DEFAULT_255_1_388
10
6.7049327
20
12.9511124
40
0.3756708
50
228.9024379
51
256.33135
0
ARC
8
DEFAULT_255_1_388
10
6.6966307
20
12.9380054
40
0.360344
50
193.7536029
51
228.5272638
0
ARC
8
DEFAULT_255_1_388
10
6.8358872
20
12.9788463
40
0.5053599
50
184.9244437
51
194.4976052
0
ARC
8
DEFAULT_255_1_388
10
6.8575513
20
12.9828722
40
0.3700839
50
187.3596909
51
198.6733728
0
ARC
8
DEFAULT_255_1_388
10
6.7394757
20
12.9419373
40
0.2451195
50
198.4453795
51
217.7945479
0
ARC
8
DEFAULT_255_1_388
10
6.7061929
20
12.9183563
40
0.2043754
50
218.2887146
51
228.5613203
0
ARC
8
DEFAULT_255_1_388
10
6.7171936
20
12.9331902
40
0.2227819
50
228.9652423
51
258.1237049
0
ARC
8
DEFAULT_255_1_388
10
6.7403373
20
13.0322964
40
0.3245374
50
257.7260585
51
270.4013717
0
ARC
8
DEFAULT_255_1_388
10
6.7453871
20
12.9822255
40
0.2744726
50
269.4204315
51
286.420998
0
ARC
8
DEFAULT_255_1_388
10
6.7620927
20
12.9215705
40
0.2115721
50
286.7250065
51
320.6004665
0
ARC
8
DEFAULT_255_1_388
10
6.7189843
20
12.9565527
40
0.2670878
50
320.6712228
51
344.5440474
0
ARC
8
DEFAULT_255_1_388
10
6.5888556
20
12.9947394
40
0.4026927
50
344.241448
51
356.735803
0
ARC
8
DEFAULT_255_1_388
10
6.4484864
20
13.0063656
40
0.5435085
50
356.3547471
51
0.0507222
0
ARC
8
DEFAULT_255_1_388
10
6.5987129
20
13.0098812
40
0.3932934
50
359.5579289
51
12.9534322
0
ARC
8
DEFAULT_255_1_388
10
6.7173969
20
13.0386586
40
0.2711827
50
12.6489751
51
41.608121
0
ARC
8
DEFAULT_255_1_388
10
6.7433129
20
13.0606946
40
0.2371737
50
41.7851122
51
85.9892156
0
ARC
8
DEFAULT_255_1_388
10
6.7294439
20
12.9691738
40
0.3295244
50
84.6965848
51
90.0672125
0
ARC
8
DEFAULT_255_1_388
10
6.7268006
20
12.8940118
40
0.4046926
50
89.6804991
51
99.161352
0
ARC
8
DEFAULT_255_1_388
10
6.7037016
20
13.0320848
40
0.2647044
50
98.9836248
51
113.8905702
0
ARC
8
DEFAULT_255_1_388
10
6.677869
20
13.0930118
40
0.1985386
50
114.195234
51
127.3641866
0
LINE
8
DEFAULT_255_1_388
10
7.8377309
20
13.6790987
11
7.8377309
21
13.2950838
0
LINE
8
DEFAULT_255_1_388
10
7.8377309
20
13.2950838
11
8.2045781
21
13.2950838
0
LINE
8
DEFAULT_255_1_388
10
8.2045781
20
13.2950838
11
8.2045781
21
13.1369601
0
LINE
8
DEFAULT_255_1_388
10
8.2045781
20
13.1369601
11
7.8377309
21
13.1369601
0
LINE
8
DEFAULT_255_1_388
10
7.8377309
20
13.1369601
11
7.8377309
21
12.7213204
0
LINE
8
DEFAULT_255_1_388
10
7.8377309
20
12.7213204
11
7.6696679
21
12.7213204
0
LINE
8
DEFAULT_255_1_388
10
7.6696679
20
12.7213204
11
7.6696679
21
13.1369601
0
LINE
8
DEFAULT_255_1_388
10
7.6696679
20
13.1369601
11
7.3028208
21
13.1369601
0
LINE
8
DEFAULT_255_1_388
10
7.3028208
20
13.1369601
11
7.3028208
21
13.2950838
0
LINE
8
DEFAULT_255_1_388
10
7.3028208
20
13.2950838
11
7.6696679
21
13.2950838
0
LINE
8
DEFAULT_255_1_388
10
7.6696679
20
13.2950838
11
7.6696679
21
13.6790987
0
LINE
8
DEFAULT_255_1_388
10
7.6696679
20
13.6790987
11
7.8377309
21
13.6790987
0
LINE
8
DEFAULT_255_1_388
10
4.1909448
20
21.8424898
11
4.5650205
21
20.7573089
0
LINE
8
DEFAULT_255_1_388
10
4.5650205
20
20.7573089
11
4.9409033
21
21.8424898
0
LINE
8
DEFAULT_255_1_388
10
4.9409033
20
21.8424898
11
5.1306518
21
21.8424898
0
LINE
8
DEFAULT_255_1_388
10
5.1306518
20
21.8424898
11
4.642727
21
20.5269
0
LINE
8
DEFAULT_255_1_388
10
4.642727
20
20.5269
11
4.489121
21
20.5269
0
LINE
8
DEFAULT_255_1_388
10
4.489121
20
20.5269
11
4.0020998
21
21.8424898
0
LINE
8
DEFAULT_255_1_388
10
4.0020998
20
21.8424898
11
4.1909448
21
21.8424898
0
LINE
8
DEFAULT_255_1_388
10
5.812843
20
21.8488148
11
5.812843
21
20.5269
0
LINE
8
DEFAULT_255_1_388
10
5.812843
20
20.5269
11
5.64478
21
20.5269
0
LINE
8
DEFAULT_255_1_388
10
5.64478
20
20.5269
11
5.64478
21
21.640995
0
LINE
8
DEFAULT_255_1_388
10
5.64478
20
21.640995
11
5.3077504
21
21.5172066
0
LINE
8
DEFAULT_255_1_388
10
5.3077504
20
21.5172066
11
5.3077504
21
21.6690055
0
LINE
8
DEFAULT_255_1_388
10
5.3077504
20
21.6690055
11
5.7866396
21
21.8488148
0
LINE
8
DEFAULT_255_1_388
10
5.7866396
20
21.8488148
11
5.812843
21
21.8488148
0
LINE
8
DEFAULT_255_1_388
10
7.0082587
20
21.8424898
11
7.0082587
21
20.968743
0
LINE
8
DEFAULT_255_1_388
10
7.0082587
20
20.968743
11
7.1907788
21
20.968743
0
LINE
8
DEFAULT_255_1_388
10
7.1907788
20
20.968743
11
7.1907788
21
20.8323048
0
LINE
8
DEFAULT_255_1_388
10
7.1907788
20
20.8323048
11
7.0082587
21
20.8323048
0
LINE
8
DEFAULT_255_1_388
10
7.0082587
20
20.8323048
11
7.0082587
21
20.5269
0
LINE
8
DEFAULT_255_1_388
10
7.0082587
20
20.5269
11
6.8401958
21
20.5269
0
LINE
8
DEFAULT_255_1_388
10
6.8401958
20
20.5269
11
6.8401958
21
20.8323048
0
LINE
8
DEFAULT_255_1_388
10
6.8401958
20
20.8323048
11
6.2411325
21
20.8323048
0
LINE
8
DEFAULT_255_1_388
10
6.2411325
20
20.8323048
11
6.2411325
21
20.9307933
0
LINE
8
DEFAULT_255_1_388
10
6.2411325
20
20.9307933
11
6.8302565
21
21.8424898
0
LINE
8
DEFAULT_255_1_388
10
6.8302565
20
21.8424898
11
7.0082587
21
21.8424898
0
LINE
8
DEFAULT_255_1_388
10
6.8203173
20
21.5777455
11
6.4308811
21
20.968743
0
LINE
8
DEFAULT_255_1_388
10
6.4308811
20
20.968743
11
6.8401958
21
20.968743
0
LINE
8
DEFAULT_255_1_388
10
6.8401958
20
20.968743
11
6.8401958
21
21.613888
0
LINE
8
DEFAULT_255_1_388
10
6.8401958
20
21.613888
11
6.8203173
21
21.5777455
0
LINE
8
DEFAULT_255_1_388
10
7.8377309
20
21.6165987
11
7.8377309
21
21.2325838
0
LINE
8
DEFAULT_255_1_388
10
7.8377309
20
21.2325838
11
8.2045781
21
21.2325838
0
LINE
8
DEFAULT_255_1_388
10
8.2045781
20
21.2325838
11
8.2045781
21
21.0744601
0
LINE
8
DEFAULT_255_1_388
10
8.2045781
20
21.0744601
11
7.8377309
21
21.0744601
0
LINE
8
DEFAULT_255_1_388
10
7.8377309
20
21.0744601
11
7.8377309
21
20.6588204
0
LINE
8
DEFAULT_255_1_388
10
7.8377309
20
20.6588204
11
7.6696679
21
20.6588204
0
LINE
8
DEFAULT_255_1_388
10
7.6696679
20
20.6588204
11
7.6696679
21
21.0744601
0
LINE
8
DEFAULT_255_1_388
10
7.6696679
20
21.0744601
11
7.3028208
21
21.0744601
0
LINE
8
DEFAULT_255_1_388
10
7.3028208
20
21.0744601
11
7.3028208
21
21.2325838
0
LINE
8
DEFAULT_255_1_388
10
7.3028208
20
21.2325838
11
7.6696679
21
21.2325838
0
LINE
8
DEFAULT_255_1_388
10
7.6696679
20
21.2325838
11
7.6696679
21
21.6165987
0
LINE
8
DEFAULT_255_1_388
10
7.6696679
20
21.6165987
11
7.8377309
21
21.6165987
0
LINE
8
DEFAULT_255_1_388
10
4.1909448
20
29.7799898
11
4.5650205
21
28.6948089
0
LINE
8
DEFAULT_255_1_388
10
4.5650205
20
28.6948089
11
4.9409033
21
29.7799898
0
LINE
8
DEFAULT_255_1_388
10
4.9409033
20
29.7799898
11
5.1306518
21
29.7799898
0
LINE
8
DEFAULT_255_1_388
10
5.1306518
20
29.7799898
11
4.642727
21
28.4644
0
LINE
8
DEFAULT_255_1_388
10
4.642727
20
28.4644
11
4.489121
21
28.4644
0
LINE
8
DEFAULT_255_1_388
10
4.489121
20
28.4644
11
4.0020998
21
29.7799898
0
LINE
8
DEFAULT_255_1_388
10
4.0020998
20
29.7799898
11
4.1909448
21
29.7799898
0
LINE
8
DEFAULT_255_1_388
10
5.812843
20
29.7863148
11
5.812843
21
28.4644
0
LINE
8
DEFAULT_255_1_388
10
5.812843
20
28.4644
11
5.64478
21
28.4644
0
LINE
8
DEFAULT_255_1_388
10
5.64478
20
28.4644
11
5.64478
21
29.578495
0
LINE
8
DEFAULT_255_1_388
10
5.64478
20
29.578495
11
5.3077504
21
29.4547066
0
LINE
8
DEFAULT_255_1_388
10
5.3077504
20
29.4547066
11
5.3077504
21
29.6065055
0
LINE
8
DEFAULT_255_1_388
10
5.3077504
20
29.6065055
11
5.7866396
21
29.7863148
0
LINE
8
DEFAULT_255_1_388
10
5.7866396
20
29.7863148
11
5.812843
21
29.7863148
0
LINE
8
DEFAULT_255_1_388
10
6.5456337
20
29.0670775
11
6.5456337
21
29.2035157
0
LINE
8
DEFAULT_255_1_388
10
6.5456337
20
29.2035157
11
6.6712292
21
29.2035157
0
LINE
8
DEFAULT_255_1_388
10
6.4570844
20
29.4348282
11
6.289925
21
29.4348282
0
LINE
8
DEFAULT_255_1_388
10
6.2781787
20
28.8113687
11
6.4462417
21
28.8113687
0
LINE
8
DEFAULT_255_1_388
10
6.6712292
20
29.0670775
11
6.5456337
21
29.0670775
0
ARC
8
DEFAULT_255_1_388
10
6.6679518
20
29.5851922
40
0.3816905
50
270.491971
51
281.8953028
0
ARC
8
DEFAULT_255_1_388
10
6.6950945
20
29.4612199
40
0.2547877
50
281.6690378
51
301.2943765
0
ARC
8
DEFAULT_255_1_388
10
6.7142397
20
29.4261926
40
0.2149197
50
301.7834992
51
311.754567
0
ARC
8
DEFAULT_255_1_388
10
6.7245438
20
29.414765
40
0.1995326
50
311.7325027
51
354.2803031
0
ARC
8
DEFAULT_255_1_388
10
6.6427854
20
29.428828
40
0.2823461
50
353.0941646
51
0.1174696
0
ARC
8
DEFAULT_255_1_388
10
6.5909412
20
29.4341874
40
0.3342238
50
359.1804452
51
15.0452323
0
ARC
8
DEFAULT_255_1_388
10
6.742347
20
29.4783546
40
0.1765747
50
13.957816
51
77.6713812
0
ARC
8
DEFAULT_255_1_388
10
6.6988706
20
29.3225464
40
0.3381982
50
76.111571
51
90.7028736
0
ARC
8
DEFAULT_255_1_388
10
6.6922118
20
29.353325
40
0.3074046
50
89.5321574
51
103.5319393
0
ARC
8
DEFAULT_255_1_388
10
6.6696502
20
29.4432443
40
0.2147041
50
103.2930114
51
133.5619756
0
ARC
8
DEFAULT_255_1_388
10
6.6646443
20
29.4499351
40
0.2064084
50
133.8349761
51
173.5343225
0
ARC
8
DEFAULT_255_1_388
10
6.7460101
20
29.4355144
40
0.2889266
50
172.5097183
51
180.1360699
0
ARC
8
DEFAULT_255_1_388
10
6.6389865
20
29.439388
40
0.3490913
50
155.3483706
51
180.7484035
0
ARC
8
DEFAULT_255_1_388
10
6.633484
20
29.4361519
40
0.3454798
50
131.5745177
51
154.4799474
0
ARC
8
DEFAULT_255_1_388
10
6.6687123
20
29.4005422
40
0.3955058
50
96.9874487
51
131.9690874
0
ARC
8
DEFAULT_255_1_388
10
6.6934016
20
29.2604407
40
0.537622
50
89.8592909
51
97.7827481
0
ARC
8
DEFAULT_255_1_388
10
6.6988125
20
29.230936
40
0.5671399
50
78.3654493
51
90.4132586
0
ARC
8
DEFAULT_255_1_388
10
6.7390766
20
29.4175918
40
0.3762034
50
56.6229818
51
78.6387103
0
ARC
8
DEFAULT_255_1_388
10
6.7632595
20
29.4598846
40
0.3275964
50
47.0254604
51
56.085558
0
ARC
8
DEFAULT_255_1_388
10
6.7654846
20
29.4643189
40
0.3228382
50
10.9207523
51
46.777927
0
ARC
8
DEFAULT_255_1_388
10
6.612044
20
29.4288401
40
0.4802559
50
359.6364235
51
11.6087615
0
ARC
8
DEFAULT_255_1_388
10
6.8184606
20
29.4271404
40
0.273833
50
332.3549969
51
359.7179765
0
ARC
8
DEFAULT_255_1_388
10
6.7453006
20
29.4618285
40
0.3547505
50
325.2332381
51
332.8746682
0
ARC
8
DEFAULT_255_1_388
10
6.7624589
20
29.4498763
40
0.3338396
50
292.9803892
51
325.2391113
0
ARC
8
DEFAULT_255_1_388
10
6.7313785
20
29.5103679
40
0.4016959
50
292.542178
51
293.6931461
0
ARC
8
DEFAULT_255_1_388
10
6.7757357
20
28.7838036
40
0.372079
50
57.643292
51
72.8626085
0
ARC
8
DEFAULT_255_1_388
10
6.8156191
20
28.8484273
40
0.2961455
50
36.7246661
51
57.4701329
0
ARC
8
DEFAULT_255_1_388
10
6.8143348
20
28.849847
40
0.2963321
50
8.054535
51
36.3561529
0
ARC
8
DEFAULT_255_1_388
10
6.7173021
20
28.8324073
40
0.3948682
50
359.8316595
51
8.5873361
0
ARC
8
DEFAULT_255_1_388
10
6.6750495
20
28.826997
40
0.4371398
50
343.9831631
51
0.557075
0
ARC
8
DEFAULT_255_1_388
10
6.7747545
20
28.7996963
40
0.3337749
50
311.6358204
51
343.7652116
0
ARC
8
DEFAULT_255_1_388
10
6.7321798
20
28.8476955
40
0.3979351
50
279.7829743
51
311.625622
0
ARC
8
DEFAULT_255_1_388
10
6.6982934
20
29.0093642
40
0.5630417
50
269.7285092
51
280.3857694
0
ARC
8
DEFAULT_255_1_388
10
6.6913246
20
29.0047241
40
0.5584119
50
256.6827433
51
270.4412869
0
ARC
8
DEFAULT_255_1_388
10
6.6532233
20
28.8489698
40
0.3980715
50
229.4223821
51
256.8554507
0
ARC
8
DEFAULT_255_1_388
10
6.6065786
20
28.7964683
40
0.3278564
50
181.8183354
51
229.6455015
0
ARC
8
DEFAULT_255_1_388
10
6.7235396
20
28.8111825
40
0.4453611
50
179.9760419
51
183.2330638
0
ARC
8
DEFAULT_255_1_388
10
6.7041948
20
28.8088781
40
0.2579652
50
179.4467996
51
196.2871626
0
ARC
8
DEFAULT_255_1_388
10
6.6493402
20
28.7938709
40
0.2011057
50
196.5661293
51
227.7059371
0
ARC
8
DEFAULT_255_1_388
10
6.6678009
20
28.8145155
40
0.2287994
50
227.7653015
51
257.8763321
0
ARC
8
DEFAULT_255_1_388
10
6.6931092
20
28.9205961
40
0.3378385
50
257.4583525
51
270.4267406
0
ARC
8
DEFAULT_255_1_388
10
6.6982342
20
28.953223
40
0.3704652
50
269.5965319
51
280.8788143
0
ARC
8
DEFAULT_255_1_388
10
6.724057
20
28.8242529
40
0.2389415
50
280.6347277
51
299.8594068
0
ARC
8
DEFAULT_255_1_388
10
6.7455339
20
28.7834736
40
0.19289
50
300.3575552
51
314.5515667
0
ARC
8
DEFAULT_255_1_388
10
6.7362015
20
28.7903025
40
0.204312
50
315.0730962
51
345.0429362
0
ARC
8
DEFAULT_255_1_388
10
6.6323523
20
28.8205539
40
0.31246
50
344.598526
51
357.9270698
0
ARC
8
DEFAULT_255_1_388
10
6.5313827
20
28.8274705
40
0.4136265
50
357.4755098
51
0.0224936
0
ARC
8
DEFAULT_255_1_388
10
6.6466705
20
28.8302099
40
0.2983498
50
359.5051035
51
13.4236939
0
ARC
8
DEFAULT_255_1_388
10
6.7441795
20
28.8551637
40
0.1977186
50
12.9497905
51
48.7550905
0
ARC
8
DEFAULT_255_1_388
10
6.7236717
20
28.8271373
40
0.2323321
50
49.509109
51
72.1832965
0
ARC
8
DEFAULT_255_1_388
10
6.6834185
20
28.7076632
40
0.358397
50
71.9008458
51
84.3555134
0
ARC
8
DEFAULT_255_1_388
10
6.665258
20
28.5544712
40
0.512641
50
84.019632
51
89.3326067
0
LINE
8
DEFAULT_255_1_388
10
7.8377309
20
29.5540987
11
7.8377309
21
29.1700838
0
LINE
8
DEFAULT_255_1_388
10
7.8377309
20
29.1700838
11
8.2045781
21
29.1700838
0
LINE
8
DEFAULT_255_1_388
10
8.2045781
20
29.1700838
11
8.2045781
21
29.0119601
0
LINE
8
DEFAULT_255_1_388
10
8.2045781
20
29.0119601
11
7.8377309
21
29.0119601
0
LINE
8
DEFAULT_255_1_388
10
7.8377309
20
29.0119601
11
7.8377309
21
28.5963204
0
LINE
8
DEFAULT_255_1_388
10
7.8377309
20
28.5963204
11
7.6696679
21
28.5963204
0
LINE
8
DEFAULT_255_1_388
10
7.6696679
20
28.5963204
11
7.6696679
21
29.0119601
0
LINE
8
DEFAULT_255_1_388
10
7.6696679
20
29.0119601
11
7.3028208
21
29.0119601
0
LINE
8
DEFAULT_255_1_388
10
7.3028208
20
29.0119601
11
7.3028208
21
29.1700838
0
LINE
8
DEFAULT_255_1_388
10
7.3028208
20
29.1700838
11
7.6696679
21
29.1700838
0
LINE
8
DEFAULT_255_1_388
10
7.6696679
20
29.1700838
11
7.6696679
21
29.5540987
0
LINE
8
DEFAULT_255_1_388
10
7.6696679
20
29.5540987
11
7.8377309
21
29.5540987
0
LINE
8
DEFAULT_255_1_388
10
4.1909448
20
37.7174898
11
4.5650205
21
36.6323089
0
LINE
8
DEFAULT_255_1_388
10
4.5650205
20
36.6323089
11
4.9409033
21
37.7174898
0
LINE
8
DEFAULT_255_1_388
10
4.9409033
20
37.7174898
11
5.1306518
21
37.7174898
0
LINE
8
DEFAULT_255_1_388
10
5.1306518
20
37.7174898
11
4.642727
21
36.4019
0
LINE
8
DEFAULT_255_1_388
10
4.642727
20
36.4019
11
4.489121
21
36.4019
0
LINE
8
DEFAULT_255_1_388
10
4.489121
20
36.4019
11
4.0020998
21
37.7174898
0
LINE
8
DEFAULT_255_1_388
10
4.0020998
20
37.7174898
11
4.1909448
21
37.7174898
0
LINE
8
DEFAULT_255_1_388
10
5.812843
20
37.7238148
11
5.812843
21
36.4019
0
LINE
8
DEFAULT_255_1_388
10
5.812843
20
36.4019
11
5.64478
21
36.4019
0
LINE
8
DEFAULT_255_1_388
10
5.64478
20
36.4019
11
5.64478
21
37.515995
0
LINE
8
DEFAULT_255_1_388
10
5.64478
20
37.515995
11
5.3077504
21
37.3922066
0
LINE
8
DEFAULT_255_1_388
10
5.3077504
20
37.3922066
11
5.3077504
21
37.5440055
0
LINE
8
DEFAULT_255_1_388
10
5.3077504
20
37.5440055
11
5.7866396
21
37.7238148
0
LINE
8
DEFAULT_255_1_388
10
5.7866396
20
37.7238148
11
5.812843
21
37.7238148
0
LINE
8
DEFAULT_255_1_388
10
7.1645754
20
36.5383382
11
7.1645754
21
36.4019
0
LINE
8
DEFAULT_255_1_388
10
7.1645754
20
36.4019
11
6.3025749
21
36.4019
0
LINE
8
DEFAULT_255_1_388
10
6.3025749
20
36.4019
11
6.3025749
21
36.5220741
0
LINE
8
DEFAULT_255_1_388
10
6.3025749
20
36.5220741
11
6.7579714
21
37.0280702
0
LINE
8
DEFAULT_255_1_388
10
6.4444345
20
37.3298607
11
6.2772751
21
37.3298607
0
LINE
8
DEFAULT_255_1_388
10
6.8564599
20
36.920546
11
6.5040698
21
36.5383382
0
LINE
8
DEFAULT_255_1_388
10
6.5040698
20
36.5383382
11
7.1645754
21
36.5383382
0
ARC
8
DEFAULT_255_1_388
10
5.2403773
20
38.3700983
40
2.0258655
50
318.5132526
51
320.7829045
0
ARC
8
DEFAULT_255_1_388
10
5.835173
20
37.8859929
40
1.2589638
50
320.7372878
51
323.9739031
0
ARC
8
DEFAULT_255_1_388
10
6.2760662
20
37.5665554
40
0.7145141
50
323.8962701
51
328.64194
0
ARC
8
DEFAULT_255_1_388
10
6.506292
20
37.4245545
40
0.4440242
50
328.8294576
51
331.7891185
0
ARC
8
DEFAULT_255_1_388
10
6.618524
20
37.3666374
40
0.3177517
50
331.4254512
51
352.9365785
0
ARC
8
DEFAULT_255_1_388
10
6.633824
20
37.363205
40
0.3021496
50
353.2257659
51
0.0166158
0
ARC
8
DEFAULT_255_1_388
10
6.6575
20
37.3657894
40
0.2784847
50
359.486299
51
15.9343185
0
ARC
8
DEFAULT_255_1_388
10
6.7145267
20
37.3811269
40
0.2194403
50
16.1712913
51
43.5286088
0
ARC
8
DEFAULT_255_1_388
10
6.7232212
20
37.3898191
40
0.2071504
50
43.4417391
51
83.1661095
0
ARC
8
DEFAULT_255_1_388
10
6.7081373
20
37.3069316
40
0.2912888
50
82.160179
51
90.1505708
0
ARC
8
DEFAULT_255_1_388
10
6.7045854
20
37.2465279
40
0.3517025
50
89.5460741
51
102.5418361
0
ARC
8
DEFAULT_255_1_388
10
6.6772574
20
37.3624933
40
0.2325748
50
102.1738499
51
129.206123
0
ARC
8
DEFAULT_255_1_388
10
6.6684028
20
37.3764664
40
0.2161591
50
129.72865
51
135.753947
0
ARC
8
DEFAULT_255_1_388
10
6.682051
20
37.3655728
40
0.2335433
50
136.1757367
51
166.3673339
0
ARC
8
DEFAULT_255_1_388
10
6.7953198
20
37.3352148
40
0.3507873
50
165.9090694
51
178.8684636
0
ARC
8
DEFAULT_255_1_388
10
6.892897
20
37.3299263
40
0.4484624
50
178.4391136
51
180.0083808
0
ARC
8
DEFAULT_255_1_388
10
6.7349671
20
37.3343197
40
0.4577138
50
163.2878482
51
180.5581842
0
ARC
8
DEFAULT_255_1_388
10
6.6447712
20
37.3591393
40
0.3641968
50
133.4540601
51
162.947111
0
ARC
8
DEFAULT_255_1_388
10
6.6648594
20
37.3377789
40
0.3935189
50
100.7869829
51
133.4382499
0
ARC
8
DEFAULT_255_1_388
10
6.7039839
20
37.1635399
40
0.5720313
50
89.660664
51
101.3702276
0
ARC
8
DEFAULT_255_1_388
10
6.7114448
20
37.1704263
40
0.5651495
50
78.2172678
51
90.412935
0
ARC
8
DEFAULT_255_1_388
10
6.7513914
20
37.3531511
40
0.378122
50
55.9269121
51
78.4888449
0
ARC
8
DEFAULT_255_1_388
10
6.7734629
20
37.3912187
40
0.3342379
50
47.929771
51
55.4049217
0
ARC
8
DEFAULT_255_1_388
10
6.7849159
20
37.4028618
40
0.3179217
50
4.334829
51
48.0560205
0
ARC
8
DEFAULT_255_1_388
10
6.6616961
20
37.3837487
40
0.442341
50
359.9251713
51
5.5971671
0
ARC
8
DEFAULT_255_1_388
10
6.7099116
20
37.3900728
40
0.3941854
50
337.8914027
51
358.9967534
0
ARC
8
DEFAULT_255_1_388
10
6.4046686
20
37.5078295
40
0.7213271
50
326.9132501
51
338.3508308
0
ARC
8
DEFAULT_255_1_388
10
5.9562798
20
37.7952105
40
1.2538973
50
319.6471833
51
327.0959558
0
ARC
8
DEFAULT_255_1_388
10
5.5249456
20
38.151005
40
1.8129975
50
317.2588228
51
319.9045804
0
LINE
8
DEFAULT_255_1_388
10
7.8377309
20
37.4915987
11
7.8377309
21
37.1075838
0
LINE
8
DEFAULT_255_1_388
10
7.8377309
20
37.1075838
11
8.2045781
21
37.1075838
0
LINE
8
DEFAULT_255_1_388
10
8.2045781
20
37.1075838
11
8.2045781
21
36.9494601
0
LINE
8
DEFAULT_255_1_388
10
8.2045781
20
36.9494601
11
7.8377309
21
36.9494601
0
LINE
8
DEFAULT_255_1_388
10
7.8377309
20
36.9494601
11
7.8377309
21
36.5338204
0
LINE
8
DEFAULT_255_1_388
10
7.8377309
20
36.5338204
11
7.6696679
21
36.5338204
0
LINE
8
DEFAULT_255_1_388
10
7.6696679
20
36.5338204
11
7.6696679
21
36.9494601
0
LINE
8
DEFAULT_255_1_388
10
7.6696679
20
36.9494601
11
7.3028208
21
36.9494601
0
LINE
8
DEFAULT_255_1_388
10
7.3028208
20
36.9494601
11
7.3028208
21
37.1075838
0
LINE
8
DEFAULT_255_1_388
10
7.3028208
20
37.1075838
11
7.6696679
21
37.1075838
0
LINE
8
DEFAULT_255_1_388
10
7.6696679
20
37.1075838
11
7.6696679
21
37.4915987
0
LINE
8
DEFAULT_255_1_388
10
7.6696679
20
37.4915987
11
7.8377309
21
37.4915987
0
LINE
8
DEFAULT_255_1_388
10
4.1909448
20
45.6549898
11
4.5650205
21
44.5698089
0
LINE
8
DEFAULT_255_1_388
10
4.5650205
20
44.5698089
11
4.9409033
21
45.6549898
0
LINE
8
DEFAULT_255_1_388
10
4.9409033
20
45.6549898
11
5.1306518
21
45.6549898
0
LINE
8
DEFAULT_255_1_388
10
5.1306518
20
45.6549898
11
4.642727
21
44.3394
0
LINE
8
DEFAULT_255_1_388
10
4.642727
20
44.3394
11
4.489121
21
44.3394
0
LINE
8
DEFAULT_255_1_388
10
4.489121
20
44.3394
11
4.0020998
21
45.6549898
0
LINE
8
DEFAULT_255_1_388
10
4.0020998
20
45.6549898
11
4.1909448
21
45.6549898
0
LINE
8
DEFAULT_255_1_388
10
5.812843
20
45.6613148
11
5.812843
21
44.3394
0
LINE
8
DEFAULT_255_1_388
10
5.812843
20
44.3394
11
5.64478
21
44.3394
0
LINE
8
DEFAULT_255_1_388
10
5.64478
20
44.3394
11
5.64478
21
45.453495
0
LINE
8
DEFAULT_255_1_388
10
5.64478
20
45.453495
11
5.3077504
21
45.3297066
0
LINE
8
DEFAULT_255_1_388
10
5.3077504
20
45.3297066
11
5.3077504
21
45.4815055
0
LINE
8
DEFAULT_255_1_388
10
5.3077504
20
45.4815055
11
5.7866396
21
45.6613148
0
LINE
8
DEFAULT_255_1_388
10
5.7866396
20
45.6613148
11
5.812843
21
45.6613148
0
LINE
8
DEFAULT_255_1_388
10
6.8519421
20
45.6613148
11
6.8519421
21
44.3394
0
LINE
8
DEFAULT_255_1_388
10
6.8519421
20
44.3394
11
6.6838791
21
44.3394
0
LINE
8
DEFAULT_255_1_388
10
6.6838791
20
44.3394
11
6.6838791
21
45.453495
0
LINE
8
DEFAULT_255_1_388
10
6.6838791
20
45.453495
11
6.3468496
21
45.3297066
0
LINE
8
DEFAULT_255_1_388
10
6.3468496
20
45.3297066
11
6.3468496
21
45.4815055
0
LINE
8
DEFAULT_255_1_388
10
6.3468496
20
45.4815055
11
6.8257387
21
45.6613148
0
LINE
8
DEFAULT_255_1_388
10
6.8257387
20
45.6613148
11
6.8519421
21
45.6613148
0
LINE
8
DEFAULT_255_1_388
10
7.8377309
20
45.4290987
11
7.8377309
21
45.0450838
0
LINE
8
DEFAULT_255_1_388
10
7.8377309
20
45.0450838
11
8.2045781
21
45.0450838
0
LINE
8
DEFAULT_255_1_388
10
8.2045781
20
45.0450838
11
8.2045781
21
44.8869601
0
LINE
8
DEFAULT_255_1_388
10
8.2045781
20
44.8869601
11
7.8377309
21
44.8869601
0
LINE
8
DEFAULT_255_1_388
10
7.8377309
20
44.8869601
11
7.8377309
21
44.4713204
0
LINE
8
DEFAULT_255_1_388
10
7.8377309
20
44.4713204
11
7.6696679
21
44.4713204
0
LINE
8
DEFAULT_255_1_388
10
7.6696679
20
44.4713204
11
7.6696679
21
44.8869601
0
LINE
8
DEFAULT_255_1_388
10
7.6696679
20
44.8869601
11
7.3028208
21
44.8869601
0
LINE
8
DEFAULT_255_1_388
10
7.3028208
20
44.8869601
11
7.3028208
21
45.0450838
0
LINE
8
DEFAULT_255_1_388
10
7.3028208
20
45.0450838
11
7.6696679
21
45.0450838
0
LINE
8
DEFAULT_255_1_388
10
7.6696679
20
45.0450838
11
7.6696679
21
45.4290987
0
LINE
8
DEFAULT_255_1_388
10
7.6696679
20
45.4290987
11
7.8377309
21
45.4290987
0
LINE
8
DEFAULT_255_1_388
10
4.1909448
20
53.5924898
11
4.5650205
21
52.5073089
0
LINE
8
DEFAULT_255_1_388
10
4.5650205
20
52.5073089
11
4.9409033
21
53.5924898
0
LINE
8
DEFAULT_255_1_388
10
4.9409033
20
53.5924898
11
5.1306518
21
53.5924898
0
LINE
8
DEFAULT_255_1_388
10
5.1306518
20
53.5924898
11
4.642727
21
52.2769
0
LINE
8
DEFAULT_255_1_388
10
4.642727
20
52.2769
11
4.489121
21
52.2769
0
LINE
8
DEFAULT_255_1_388
10
4.489121
20
52.2769
11
4.0020998
21
53.5924898
0
LINE
8
DEFAULT_255_1_388
10
4.0020998
20
53.5924898
11
4.1909448
21
53.5924898
0
LINE
8
DEFAULT_255_1_388
10
5.812843
20
53.5988148
11
5.812843
21
52.2769
0
LINE
8
DEFAULT_255_1_388
10
5.812843
20
52.2769
11
5.64478
21
52.2769
0
LINE
8
DEFAULT_255_1_388
10
5.64478
20
52.2769
11
5.64478
21
53.390995
0
LINE
8
DEFAULT_255_1_388
10
5.64478
20
53.390995
11
5.3077504
21
53.2672066
0
LINE
8
DEFAULT_255_1_388
10
5.3077504
20
53.2672066
11
5.3077504
21
53.4190055
0
LINE
8
DEFAULT_255_1_388
10
5.3077504
20
53.4190055
11
5.7866396
21
53.5988148
0
LINE
8
DEFAULT_255_1_388
10
5.7866396
20
53.5988148
11
5.812843
21
53.5988148
0
LINE
8
DEFAULT_255_1_388
10
7.1275292
20
53.054869
11
7.1275292
21
52.8380135
0
LINE
8
DEFAULT_255_1_388
10
6.2971535
20
52.8154244
11
6.2971535
21
53.0386048
0
LINE
8
DEFAULT_255_1_388
10
6.9603698
20
52.7928353
11
6.9603698
21
53.0666153
0
LINE
8
DEFAULT_255_1_388
10
6.4643129
20
53.0792652
11
6.4643129
21
52.8118102
0
ARC
8
DEFAULT_255_1_388
10
5.7497626
20
52.8325118
40
1.3777776
50
353.8440855
51
0.2287917
0
ARC
8
DEFAULT_255_1_388
10
6.2716644
20
52.7742414
40
0.852639
50
344.4934746
51
353.9763743
0
ARC
8
DEFAULT_255_1_388
10
6.6083451
20
52.6785191
40
0.5026273
50
329.2803599
51
344.7473406
0
ARC
8
DEFAULT_255_1_388
10
6.7198947
20
52.6173038
40
0.3754848
50
324.9361395
51
328.6153007
0
ARC
8
DEFAULT_255_1_388
10
6.7624597
20
52.5875586
40
0.3235566
50
280.5801797
51
324.9173226
0
ARC
8
DEFAULT_255_1_388
10
6.7173225
20
52.7755236
40
0.5167077
50
269.5979457
51
281.6732777
0
ARC
8
DEFAULT_255_1_388
10
6.7092129
20
52.7620113
40
0.5032026
50
256.6228565
51
270.5105488
0
ARC
8
DEFAULT_255_1_388
10
6.6639871
20
52.5878345
40
0.3233092
50
215.8618351
51
257.2787793
0
ARC
8
DEFAULT_255_1_388
10
6.7788578
20
52.6649106
40
0.4615831
50
197.9695203
51
215.2622745
0
ARC
8
DEFAULT_255_1_388
10
7.0584254
20
52.7592641
40
0.7566307
50
187.8816486
51
198.2346584
0
ARC
8
DEFAULT_255_1_388
10
7.5037492
20
52.8235453
40
1.2065653
50
180.8977266
51
188.0054894
0
ARC
8
DEFAULT_255_1_388
10
7.8087706
20
52.83504
40
1.5117443
50
180.7434591
51
181.152202
0
ARC
8
DEFAULT_255_1_388
10
7.6412702
20
53.0440371
40
1.3441277
50
173.7674302
51
180.2315596
0
ARC
8
DEFAULT_255_1_388
10
7.1330571
20
53.1014779
40
0.8326847
50
164.3058537
51
173.9000553
0
ARC
8
DEFAULT_255_1_388
10
6.8054571
20
53.1958652
40
0.4917711
50
148.7922028
51
164.5682288
0
ARC
8
DEFAULT_255_1_388
10
6.6985308
20
53.2555457
40
0.3694204
50
144.5883979
51
148.1161588
0
ARC
8
DEFAULT_255_1_388
10
6.6598054
20
53.2825667
40
0.322202
50
101.6440149
51
144.5142619
0
ARC
8
DEFAULT_255_1_388
10
6.7076246
20
53.0925337
40
0.5180451
50
89.528284
51
102.5820197
0
ARC
8
DEFAULT_255_1_388
10
6.7165238
20
53.0881376
40
0.5224441
50
77.0437914
51
90.508231
0
ARC
8
DEFAULT_255_1_388
10
6.7617491
20
53.2729272
40
0.3322297
50
48.2777708
51
77.4996087
0
ARC
8
DEFAULT_255_1_388
10
6.7699231
20
53.2874557
40
0.315966
50
36.3141586
51
47.6307332
0
ARC
8
DEFAULT_255_1_388
10
6.6721954
20
53.2216159
40
0.4337313
50
18.2931065
51
35.6770203
0
ARC
8
DEFAULT_255_1_388
10
6.3860794
20
53.1234107
40
0.7362203
50
8.0246996
51
18.5605636
0
ARC
8
DEFAULT_255_1_388
10
5.917715
20
53.0542432
40
1.2096583
50
1.127539
51
8.1718423
0
ARC
8
DEFAULT_255_1_388
10
5.5528283
20
53.0399374
40
1.5747719
50
0.5432713
51
1.38669
0
ARC
8
DEFAULT_255_1_388
10
5.7585662
20
53.0706163
40
1.2018103
50
359.8092569
51
4.9408001
0
ARC
8
DEFAULT_255_1_388
10
6.2322243
20
53.11289
40
0.7262727
50
4.8364937
51
12.2906017
0
ARC
8
DEFAULT_255_1_388
10
6.5421708
20
53.1819485
40
0.4087324
50
12.0806994
51
23.8171225
0
ARC
8
DEFAULT_255_1_388
10
6.6742104
20
53.2378508
40
0.2653719
50
24.2874621
51
31.3934353
0
ARC
8
DEFAULT_255_1_388
10
6.733254
20
53.2764822
40
0.1948607
50
30.7407708
51
82.4658033
0
ARC
8
DEFAULT_255_1_388
10
6.7130201
20
53.1771017
40
0.2961198
50
81.1057101
51
90.2187368
0
ARC
8
DEFAULT_255_1_388
10
6.7090013
20
53.2061421
40
0.2670929
50
89.380395
51
105.6763916
0
ARC
8
DEFAULT_255_1_388
10
6.6883735
20
53.281132
40
0.1893189
50
105.7980655
51
149.7387869
0
ARC
8
DEFAULT_255_1_388
10
6.8080875
20
53.2091719
40
0.3289892
50
149.4208441
51
163.628295
0
ARC
8
DEFAULT_255_1_388
10
7.0433105
20
53.1374345
40
0.5749004
50
163.3764549
51
172.141138
0
ARC
8
DEFAULT_255_1_388
10
7.4145826
20
53.0842582
40
0.9499585
50
172.0258462
51
178.0705453
0
ARC
8
DEFAULT_255_1_388
10
7.7567379
20
53.0680682
40
1.2924734
50
177.8639301
51
179.5036263
0
ARC
8
DEFAULT_255_1_388
10
7.6348397
20
52.8077151
40
1.170534
50
179.7995545
51
185.246089
0
ARC
8
DEFAULT_255_1_388
10
7.179999
20
52.7646404
40
0.7136613
50
185.1411911
51
193.0082205
0
ARC
8
DEFAULT_255_1_388
10
6.8826251
20
52.6943441
40
0.4080987
50
192.7897338
51
205.2507384
0
ARC
8
DEFAULT_255_1_388
10
6.7648461
20
52.6417538
40
0.2791522
50
205.8001921
51
211.2545876
0
ARC
8
DEFAULT_255_1_388
10
6.706
20
52.6023132
40
0.2084074
50
210.3789935
51
238.4007996
0
ARC
8
DEFAULT_255_1_388
10
6.7038086
20
52.6075786
40
0.2117943
50
239.6521916
51
265.9793852
0
ARC
8
DEFAULT_255_1_388
10
6.7133935
20
52.6832358
40
0.2879689
50
265.1324455
51
270.0603288
0
ARC
8
DEFAULT_255_1_388
10
6.7166312
20
52.6467418
40
0.2514919
50
269.3314378
51
287.2180039
0
ARC
8
DEFAULT_255_1_388
10
6.7321394
20
52.5901291
40
0.1928357
50
287.7957942
51
329.0808983
0
ARC
8
DEFAULT_255_1_388
10
6.6244152
20
52.6573651
40
0.319808
50
328.6635261
51
343.3325043
0
ARC
8
DEFAULT_255_1_388
10
6.379961
20
52.7335195
40
0.5758408
50
343.0498092
51
351.9392499
0
ARC
8
DEFAULT_255_1_388
10
5.9898932
20
52.7910205
40
0.9701202
50
351.8071632
51
357.7957897
0
ARC
8
DEFAULT_255_1_388
10
5.6264409
20
52.8098724
40
1.3340376
50
357.5870923
51
359.2682493
0
LINE
8
DEFAULT_255_1_388
10
7.8377309
20
53.3665987
11
7.8377309
21
52.9825838
0
LINE
8
DEFAULT_255_1_388
10
7.8377309
20
52.9825838
11
8.2045781
21
52.9825838
0
LINE
8
DEFAULT_255_1_388
10
8.2045781
20
52.9825838
11
8.2045781
21
52.8244601
0
LINE
8
DEFAULT_255_1_388
10
8.2045781
20
52.8244601
11
7.8377309
21
52.8244601
0
LINE
8
DEFAULT_255_1_388
10
7.8377309
20
52.8244601
11
7.8377309
21
52.4088204
0
LINE
8
DEFAULT_255_1_388
10
7.8377309
20
52.4088204
11
7.6696679
21
52.4088204
0
LINE
8
DEFAULT_255_1_388
10
7.6696679
20
52.4088204
11
7.6696679
21
52.8244601
0
LINE
8
DEFAULT_255_1_388
10
7.6696679
20
52.8244601
11
7.3028208
21
52.8244601
0
LINE
8
DEFAULT_255_1_388
10
7.3028208
20
52.8244601
11
7.3028208
21
52.9825838
0
LINE
8
DEFAULT_255_1_388
10
7.3028208
20
52.9825838
11
7.6696679
21
52.9825838
0
LINE
8
DEFAULT_255_1_388
10
7.6696679
20
52.9825838
11
7.6696679
21
53.3665987
0
LINE
8
DEFAULT_255_1_388
10
7.6696679
20
53.3665987
11
7.8377309
21
53.3665987
0
LINE
8
DEFAULT_255_1_388
10
4.1877448
20
61.5299898
11
4.5618205
21
60.4448089
0
LINE
8
DEFAULT_255_1_388
10
4.5618205
20
60.4448089
11
4.9377033
21
61.5299898
0
LINE
8
DEFAULT_255_1_388
10
4.9377033
20
61.5299898
11
5.1274518
21
61.5299898
0
LINE
8
DEFAULT_255_1_388
10
5.1274518
20
61.5299898
11
4.639527
21
60.2144
0
LINE
8
DEFAULT_255_1_388
10
4.639527
20
60.2144
11
4.485921
21
60.2144
0
LINE
8
DEFAULT_255_1_388
10
4.485921
20
60.2144
11
3.9988998
21
61.5299898
0
LINE
8
DEFAULT_255_1_388
10
3.9988998
20
61.5299898
11
4.1877448
21
61.5299898
0
LINE
8
DEFAULT_255_1_388
10
6.068966
20
61.0041153
11
6.068966
21
60.9553229
0
LINE
8
DEFAULT_255_1_388
10
5.45906
20
60.2134964
11
5.4265316
21
60.2134964
0
LINE
8
DEFAULT_255_1_388
10
5.4265316
20
60.2134964
11
5.4265316
21
60.3544525
0
LINE
8
DEFAULT_255_1_388
10
5.4265316
20
60.3544525
11
5.4617707
21
60.3544525
0
LINE
8
DEFAULT_255_1_388
10
5.9018065
20
60.971587
11
5.9018065
21
61.0384508
0
ARC
8
DEFAULT_255_1_388
10
5.5875157
20
61.0554877
40
0.4089973
50
297.4036461
51
320.0168133
0
ARC
8
DEFAULT_255_1_388
10
5.6201337
20
60.9928072
40
0.3383378
50
270.2631886
51
297.3852322
0
ARC
8
DEFAULT_255_1_388
10
5.6163013
20
61.0465343
40
0.3920983
50
269.9969069
51
270.7871389
0
ARC
8
DEFAULT_255_1_388
10
5.6134337
20
61.0447737
40
0.3903482
50
254.5997295
51
270.4178147
0
ARC
8
DEFAULT_255_1_388
10
5.5973869
20
60.9812693
40
0.3248657
50
236.4717231
51
254.3539376
0
ARC
8
DEFAULT_255_1_388
10
5.61496
20
61.0048999
40
0.3542746
50
208.4727261
51
236.2134628
0
ARC
8
DEFAULT_255_1_388
10
5.6868363
20
61.0488676
40
0.4384402
50
204.3450776
51
209.0455365
0
ARC
8
DEFAULT_255_1_388
10
5.7632739
20
61.08128
40
0.5214459
50
183.9375459
51
204.1275509
0
ARC
8
DEFAULT_255_1_388
10
5.8655046
20
61.0922863
40
0.6242037
50
179.9652726
51
184.3010611
0
ARC
8
DEFAULT_255_1_388
10
5.8384591
20
61.0960004
40
0.5971675
50
166.7585952
51
180.3200491
0
ARC
8
DEFAULT_255_1_388
10
5.7432399
20
61.1166979
40
0.4997418
50
154.6954866
51
166.5679151
0
ARC
8
DEFAULT_255_1_388
10
5.6472639
20
61.1650411
40
0.3923208
50
136.3325251
51
155.0871367
0
ARC
8
DEFAULT_255_1_388
10
5.6156559
20
61.1921271
40
0.3507618
50
121.2365985
51
135.9680081
0
ARC
8
DEFAULT_255_1_388
10
5.6314623
20
61.1628541
40
0.3839917
50
96.8454764
51
120.9881329
0
ARC
8
DEFAULT_255_1_388
10
5.6478429
20
61.0575942
40
0.4904679
50
89.887204
51
97.2797758
0
ARC
8
DEFAULT_255_1_388
10
5.6537402
20
61.1293652
40
0.418725
50
70.6505767
51
90.6748382
0
ARC
8
DEFAULT_255_1_388
10
5.6685099
20
61.1871091
40
0.3593866
50
36.7493297
51
69.8220487
0
ARC
8
DEFAULT_255_1_388
10
5.5561446
20
61.0995446
40
0.5018201
50
15.3958155
51
37.0841102
0
ARC
8
DEFAULT_255_1_388
10
5.3165731
20
61.0297111
40
0.7513436
50
3.9487796
51
15.6798517
0
ARC
8
DEFAULT_255_1_388
10
5.0464373
20
61.005381
40
1.0225293
50
359.9290791
51
4.266464
0
ARC
8
DEFAULT_255_1_388
10
4.528329
20
60.9478372
40
1.5406551
50
352.8365702
51
0.2783851
0
ARC
8
DEFAULT_255_1_388
10
5.1231521
20
60.8705664
40
0.9408425
50
341.8359339
51
352.9884057
0
ARC
8
DEFAULT_255_1_388
10
5.4852508
20
60.7485144
40
0.5587481
50
322.8579243
51
342.1527461
0
ARC
8
DEFAULT_255_1_388
10
5.58242
20
60.682235
40
0.4413099
50
319.3348471
51
322.100194
0
ARC
8
DEFAULT_255_1_388
10
5.5476131
20
60.7171814
40
0.4904992
50
285.954114
51
318.8878716
0
ARC
8
DEFAULT_255_1_388
10
5.4658569
20
60.9770865
40
0.7628991
50
272.9280841
51
286.4924389
0
ARC
8
DEFAULT_255_1_388
10
5.4444873
20
61.230524
40
1.017132
50
270.8209173
51
273.4010121
0
ARC
8
DEFAULT_255_1_388
10
5.4544896
20
61.0257073
40
0.6712943
50
270.6214576
51
281.4062333
0
ARC
8
DEFAULT_255_1_388
10
5.502862
20
60.794425
40
0.4350167
50
281.1852583
51
299.0622058
0
ARC
8
DEFAULT_255_1_388
10
5.5448866
20
60.7133138
40
0.3437146
50
299.5068171
51
313.1200142
0
ARC
8
DEFAULT_255_1_388
10
5.5473603
20
60.7043959
40
0.3355418
50
313.8525725
51
338.5989631
0
ARC
8
DEFAULT_255_1_388
10
5.3646731
20
60.7794576
40
0.5330317
50
338.2523315
51
351.2431701
0
ARC
8
DEFAULT_255_1_388
10
5.0934482
20
60.8255494
40
0.8081235
50
350.940933
51
357.6690137
0
ARC
8
DEFAULT_255_1_388
10
5.6436362
20
61.0508048
40
0.2581236
50
269.9447107
51
306.8249644
0
ARC
8
DEFAULT_255_1_388
10
5.6169664
20
61.098406
40
0.3122948
50
305.5071046
51
327.0773808
0
ARC
8
DEFAULT_255_1_388
10
5.6302715
20
61.0877445
40
0.2953369
50
327.4106457
51
336.8396801
0
ARC
8
DEFAULT_255_1_388
10
5.2822429
20
61.0420932
40
0.6195743
50
359.663158
51
10.1176387
0
ARC
8
DEFAULT_255_1_388
10
5.4795192
20
61.0785922
40
0.4189561
50
9.9431549
51
26.7699242
0
ARC
8
DEFAULT_255_1_388
10
5.5467178
20
61.1095796
40
0.3450125
50
27.2018067
51
34.6833639
0
ARC
8
DEFAULT_255_1_388
10
5.6017791
20
61.150956
40
0.2762035
50
34.124913
51
50.30709
0
ARC
8
DEFAULT_255_1_388
10
5.6520274
20
61.2110741
40
0.1978518
50
50.3850304
51
90.6705051
0
ARC
8
DEFAULT_255_1_388
10
5.6467668
20
61.1768074
40
0.2321235
50
89.2729817
51
111.9140267
0
ARC
8
DEFAULT_255_1_388
10
5.6445755
20
61.1926308
40
0.2166604
50
112.9381864
51
142.5320936
0
ARC
8
DEFAULT_255_1_388
10
5.7060244
20
61.1427392
40
0.2957902
50
142.1024021
51
166.3835244
0
ARC
8
DEFAULT_255_1_388
10
5.8389214
20
61.1084213
40
0.4330361
50
166.1100968
51
178.6653563
0
ARC
8
DEFAULT_255_1_388
10
5.957114
20
61.1018061
40
0.5513642
50
178.2641888
51
180.010994
0
ARC
8
DEFAULT_255_1_388
10
5.8665641
20
61.0986136
40
0.4608248
50
179.6162225
51
191.8786013
0
ARC
8
DEFAULT_255_1_388
10
5.7292951
20
61.068259
40
0.3202502
50
191.6192934
51
215.2970746
0
ARC
8
DEFAULT_255_1_388
10
5.7053606
20
61.0539963
40
0.2924827
50
215.7258926
51
216.5355437
0
ARC
8
DEFAULT_255_1_388
10
5.6465227
20
61.0066919
40
0.2170661
50
215.7486606
51
239.9728403
0
ARC
8
DEFAULT_255_1_388
10
5.6386392
20
61.0009838
40
0.208217
50
241.065081
51
269.280972
0
ARC
8
DEFAULT_255_1_388
10
5.643355
20
61.0565327
40
0.2638514
50
268.4083352
51
270.0069622
0
LINE
8
DEFAULT_255_1_388
10
6.7954318
20
61.3040987
11
6.7954318
21
60.9200838
0
LINE
8
DEFAULT_255_1_388
10
6.7954318
20
60.9200838
11
7.162279
21
60.9200838
0
LINE
8
DEFAULT_255_1_388
10
7.162279
20
60.9200838
11
7.162279
21
60.7619601
0
LINE
8
DEFAULT_255_1_388
10
7.162279
20
60.7619601
11
6.7954318
21
60.7619601
0
LINE
8
DEFAULT_255_1_388
10
6.7954318
20
60.7619601
11
6.7954318
21
60.3463204
0
LINE
8
DEFAULT_255_1_388
10
6.7954318
20
60.3463204
11
6.6273688
21
60.3463204
0
LINE
8
DEFAULT_255_1_388
10
6.6273688
20
60.3463204
11
6.6273688
21
60.7619601
0
LINE
8
DEFAULT_255_1_388
10
6.6273688
20
60.7619601
11
6.2605216
21
60.7619601
0
LINE
8
DEFAULT_255_1_388
10
6.2605216
20
60.7619601
11
6.2605216
21
60.9200838
0
LINE
8
DEFAULT_255_1_388
10
6.2605216
20
60.9200838
11
6.6273688
21
60.9200838
0
LINE
8
DEFAULT_255_1_388
10
6.6273688
20
60.9200838
11
6.6273688
21
61.3040987
0
LINE
8
DEFAULT_255_1_388
10
6.6273688
20
61.3040987
11
6.7954318
21
61.3040987
0
LINE
8
DEFAULT_255_1_388
10
4.1877448
20
69.4674898
11
4.5618205
21
68.3823089
0
LINE
8
DEFAULT_255_1_388
10
4.5618205
20
68.3823089
11
4.9377033
21
69.4674898
0
LINE
8
DEFAULT_255_1_388
10
4.9377033
20
69.4674898
11
5.1274518
21
69.4674898
0
LINE
8
DEFAULT_255_1_388
10
5.1274518
20
69.4674898
11
4.639527
21
68.1519
0
LINE
8
DEFAULT_255_1_388
10
4.639527
20
68.1519
11
4.485921
21
68.1519
0
LINE
8
DEFAULT_255_1_388
10
4.485921
20
68.1519
11
3.9988998
21
69.4674898
0
LINE
8
DEFAULT_255_1_388
10
3.9988998
20
69.4674898
11
4.1877448
21
69.4674898
0
ARC
8
DEFAULT_255_1_388
10
5.7406263
20
69.121272
40
0.3175098
50
338.8762533
51
0.5167111
0
ARC
8
DEFAULT_255_1_388
10
5.7595857
20
69.11616
40
0.2979894
50
325.8415285
51
338.4793574
0
ARC
8
DEFAULT_255_1_388
10
5.7156491
20
69.1466242
40
0.351452
50
296.7587686
51
325.7536481
0
ARC
8
DEFAULT_255_1_388
10
5.6828118
20
69.2020363
40
0.4157374
50
296.0927901
51
297.3613472
0
ARC
8
DEFAULT_255_1_388
10
5.7122314
20
68.4637593
40
0.395855
50
47.9007294
51
67.1948823
0
ARC
8
DEFAULT_255_1_388
10
5.7342956
20
68.4914599
40
0.360516
50
35.2363914
51
47.551141
0
ARC
8
DEFAULT_255_1_388
10
5.763736
20
68.5111093
40
0.3251343
50
359.2759765
51
35.4014143
0
ARC
8
DEFAULT_255_1_388
10
5.6799286
20
68.5028787
40
0.4089365
50
343.1293083
51
0.5775513
0
ARC
8
DEFAULT_255_1_388
10
5.7614399
20
68.4804336
40
0.3244269
50
310.8496669
51
342.7449331
0
ARC
8
DEFAULT_255_1_388
10
5.7144274
20
68.5340913
40
0.3957651
50
281.5472888
51
310.9170406
0
ARC
8
DEFAULT_255_1_388
10
5.6743149
20
68.7087814
40
0.5749654
50
269.619248
51
281.9789564
0
ARC
8
DEFAULT_255_1_388
10
5.6661926
20
68.7088776
40
0.5750649
50
257.4585678
51
270.4285689
0
ARC
8
DEFAULT_255_1_388
10
5.6233447
20
68.5284741
40
0.389671
50
228.7554326
51
257.8484789
0
ARC
8
DEFAULT_255_1_388
10
5.5884932
20
68.4865228
40
0.335154
50
184.0104975
51
228.5071184
0
ARC
8
DEFAULT_255_1_388
10
5.7193324
20
68.506443
40
0.4671891
50
179.9315832
51
185.3253753
0
ARC
8
DEFAULT_255_1_388
10
5.5869837
20
68.5106592
40
0.33486
50
145.6796023
51
180.6259786
0
ARC
8
DEFAULT_255_1_388
10
5.6053603
20
68.4978271
40
0.3572723
50
115.5537685
51
145.6415986
0
ARC
8
DEFAULT_255_1_388
10
5.6436647
20
68.4292087
40
0.4357296
50
113.243307
51
116.2057839
0
ARC
8
DEFAULT_255_1_388
10
5.6265299
20
69.1489379
40
0.3549126
50
222.9549744
51
244.1370481
0
ARC
8
DEFAULT_255_1_388
10
5.6127942
20
69.1335378
40
0.3343711
50
213.3436887
51
222.6274467
0
ARC
8
DEFAULT_255_1_388
10
5.5912011
20
69.1188653
40
0.3082678
50
180.431584
51
213.271499
0
ARC
8
DEFAULT_255_1_388
10
5.654701
20
69.1241296
40
0.3718363
50
179.9991191
51
181.1690594
0
ARC
8
DEFAULT_255_1_388
10
5.7019466
20
69.1280072
40
0.4190996
50
164.6186169
51
180.529336
0
ARC
8
DEFAULT_255_1_388
10
5.6009115
20
69.155178
40
0.3144772
50
132.2455553
51
164.5090724
0
ARC
8
DEFAULT_255_1_388
10
5.6332094
20
69.118607
40
0.3632644
50
100.7053914
51
132.1386381
0
ARC
8
DEFAULT_255_1_388
10
5.6675155
20
68.9636118
40
0.5219578
50
89.6730358
51
101.2451698
0
ARC
8
DEFAULT_255_1_388
10
5.6745146
20
68.9832648
40
0.5023124
50
76.287748
51
90.4586006
0
ARC
8
DEFAULT_255_1_388
10
5.7089648
20
69.1207671
40
0.3605639
50
47.8240511
51
76.4266241
0
ARC
8
DEFAULT_255_1_388
10
5.7340032
20
69.1500599
40
0.3220463
50
6.9168387
51
47.6262497
0
ARC
8
DEFAULT_255_1_388
10
5.6005485
20
69.1254004
40
0.4575765
50
359.8415968
51
7.9697453
0
ARC
8
DEFAULT_255_1_388
10
5.6389754
20
68.5133519
40
0.2827228
50
359.445363
51
16.9256873
0
ARC
8
DEFAULT_255_1_388
10
5.6917188
20
68.5278781
40
0.2280396
50
17.2920767
51
45.4630727
0
ARC
8
DEFAULT_255_1_388
10
5.6856324
20
68.5226324
40
0.2360485
50
45.30305
51
83.1920945
0
ARC
8
DEFAULT_255_1_388
10
5.6695069
20
68.4324473
40
0.3275527
50
82.2612665
51
90.1434275
0
ARC
8
DEFAULT_255_1_388
10
5.6660345
20
68.4586869
40
0.3013237
50
89.4956434
51
104.8580688
0
ARC
8
DEFAULT_255_1_388
10
5.6461535
20
68.5340455
40
0.2233867
50
104.8856641
51
135.244616
0
ARC
8
DEFAULT_255_1_388
10
5.6517524
20
68.5290352
40
0.2308906
50
135.3399546
51
172.1044062
0
ARC
8
DEFAULT_255_1_388
10
5.7425048
20
68.5116667
40
0.3232034
50
171.2645637
51
180.186429
0
ARC
8
DEFAULT_255_1_388
10
5.7235053
20
68.5080426
40
0.304213
50
179.5154935
51
193.6464289
0
ARC
8
DEFAULT_255_1_388
10
5.6316729
20
68.4846473
40
0.209456
50
193.3540274
51
225.8258581
0
ARC
8
DEFAULT_255_1_388
10
5.6362601
20
68.4926076
40
0.2183738
50
226.4180634
51
255.8552336
0
ARC
8
DEFAULT_255_1_388
10
5.6651067
20
68.5979521
40
0.3275812
50
255.4654104
51
268.7987425
0
ARC
8
DEFAULT_255_1_388
10
5.6704244
20
68.6921545
40
0.4218877
50
268.3449238
51
270.0094605
0
ARC
8
DEFAULT_255_1_388
10
5.6730477
20
68.6153094
40
0.3450519
50
269.5759586
51
282.0820163
0
ARC
8
DEFAULT_255_1_388
10
5.6983514
20
68.5034363
40
0.2303642
50
281.752014
51
306.6056188
0
ARC
8
DEFAULT_255_1_388
10
5.7094322
20
68.4852802
40
0.2091906
50
307.1346085
51
314.027845
0
ARC
8
DEFAULT_255_1_388
10
5.7053833
20
68.4882459
40
0.2141385
50
314.2552483
51
350.1694025
0
ARC
8
DEFAULT_255_1_388
10
5.6096071
20
68.5090175
40
0.312082
50
349.4140529
51
0.2933014
0
ARC
8
DEFAULT_255_1_388
10
5.6681348
20
69.0893924
40
0.2588377
50
89.477747
51
105.729729
0
ARC
8
DEFAULT_255_1_388
10
5.6528268
20
69.1462367
40
0.1999733
50
105.9233417
51
135.1660906
0
ARC
8
DEFAULT_255_1_388
10
5.6551299
20
69.1446412
40
0.2027322
50
135.3052302
51
168.9883645
0
ARC
8
DEFAULT_255_1_388
10
5.7482315
20
69.1232996
40
0.2982129
50
168.3801673
51
180.3602268
0
ARC
8
DEFAULT_255_1_388
10
5.7225431
20
69.1190622
40
0.2725291
50
179.5033122
51
194.9125571
0
ARC
8
DEFAULT_255_1_388
10
5.6566838
20
69.1017427
40
0.204431
50
194.9720816
51
224.194444
0
ARC
8
DEFAULT_255_1_388
10
5.6535204
20
69.0991635
40
0.2003651
50
224.2962453
51
262.015664
0
ARC
8
DEFAULT_255_1_388
10
5.6695208
20
69.1814315
40
0.2840925
50
261.1245923
51
270.1962896
0
ARC
8
DEFAULT_255_1_388
10
5.6728689
20
69.1603859
40
0.2630559
50
269.4827276
51
285.0987215
0
ARC
8
DEFAULT_255_1_388
10
5.6902125
20
69.0953175
40
0.1957162
50
285.1585357
51
315.9484501
0
ARC
8
DEFAULT_255_1_388
10
5.6801999
20
69.1045315
40
0.2093195
50
316.0413965
51
351.916092
0
ARC
8
DEFAULT_255_1_388
10
5.5977373
20
69.1204323
40
0.2932279
50
351.105835
51
0.1939062
0
ARC
8
DEFAULT_255_1_388
10
5.6273007
20
69.1238224
40
0.2636739
50
359.4789618
51
16.0678224
0
ARC
8
DEFAULT_255_1_388
10
5.6808479
20
69.1382721
40
0.2082215
50
16.3252067
51
44.7913869
0
ARC
8
DEFAULT_255_1_388
10
5.6788541
20
69.138332
40
0.2095992
50
44.3957814
51
88.2499162
0
ARC
8
DEFAULT_255_1_388
10
5.6705875
20
69.0695006
40
0.2787189
50
86.9833854
51
90.0192215
0
LINE
8
DEFAULT_255_1_388
10
6.7954318
20
69.2415987
11
6.7954318
21
68.8575838
0
LINE
8
DEFAULT_255_1_388
10
6.7954318
20
68.8575838
11
7.162279
21
68.8575838
0
LINE
8
DEFAULT_255_1_388
10
7.162279
20
68.8575838
11
7.162279
21
68.6994601
0
LINE
8
DEFAULT_255_1_388
10
7.162279
20
68.6994601
11
6.7954318
21
68.6994601
0
LINE
8
DEFAULT_255_1_388
10
6.7954318
20
68.6994601
11
6.7954318
21
68.2838204
0
LINE
8
DEFAULT_255_1_388
10
6.7954318
20
68.2838204
11
6.6273688
21
68.2838204
0
LINE
8
DEFAULT_255_1_388
10
6.6273688
20
68.2838204
11
6.6273688
21
68.6994601
0
LINE
8
DEFAULT_255_1_388
10
6.6273688
20
68.6994601
11
6.2605216
21
68.6994601
0
LINE
8
DEFAULT_255_1_388
10
6.2605216
20
68.6994601
11
6.2605216
21
68.8575838
0
LINE
8
DEFAULT_255_1_388
10
6.2605216
20
68.8575838
11
6.6273688
21
68.8575838
0
LINE
8
DEFAULT_255_1_388
10
6.6273688
20
68.8575838
11
6.6273688
21
69.2415987
0
LINE
8
DEFAULT_255_1_388
10
6.6273688
20
69.2415987
11
6.7954318
21
69.2415987
0
LINE
8
DEFAULT_255_1_388
10
4.1877448
20
77.4049898
11
4.5618205
21
76.3198089
0
LINE
8
DEFAULT_255_1_388
10
4.5618205
20
76.3198089
11
4.9377033
21
77.4049898
0
LINE
8
DEFAULT_255_1_388
10
4.9377033
20
77.4049898
11
5.1274518
21
77.4049898
0
LINE
8
DEFAULT_255_1_388
10
5.1274518
20
77.4049898
11
4.639527
21
76.0894
0
LINE
8
DEFAULT_255_1_388
10
4.639527
20
76.0894
11
4.485921
21
76.0894
0
LINE
8
DEFAULT_255_1_388
10
4.485921
20
76.0894
11
3.9988998
21
77.4049898
0
LINE
8
DEFAULT_255_1_388
10
3.9988998
20
77.4049898
11
4.1877448
21
77.4049898
0
LINE
8
DEFAULT_255_1_388
10
6.1096264
20
77.4049898
11
6.1096264
21
77.3110191
0
LINE
8
DEFAULT_255_1_388
10
6.1096264
20
77.3110191
11
5.564777
21
76.0894
0
LINE
8
DEFAULT_255_1_388
10
5.564777
20
76.0894
11
5.3894855
21
76.0894
0
LINE
8
DEFAULT_255_1_388
10
5.3894855
20
76.0894
11
5.9325277
21
77.267648
0
LINE
8
DEFAULT_255_1_388
10
5.9325277
20
77.267648
11
5.2205189
21
77.267648
0
LINE
8
DEFAULT_255_1_388
10
5.2205189
20
77.267648
11
5.2205189
21
77.4049898
0
LINE
8
DEFAULT_255_1_388
10
5.2205189
20
77.4049898
11
6.1096264
21
77.4049898
0
LINE
8
DEFAULT_255_1_388
10
6.7954318
20
77.1790987
11
6.7954318
21
76.7950838
0
LINE
8
DEFAULT_255_1_388
10
6.7954318
20
76.7950838
11
7.162279
21
76.7950838
0
LINE
8
DEFAULT_255_1_388
10
7.162279
20
76.7950838
11
7.162279
21
76.6369601
0
LINE
8
DEFAULT_255_1_388
10
7.162279
20
76.6369601
11
6.7954318
21
76.6369601
0
LINE
8
DEFAULT_255_1_388
10
6.7954318
20
76.6369601
11
6.7954318
21
76.2213204
0
LINE
8
DEFAULT_255_1_388
10
6.7954318
20
76.2213204
11
6.6273688
21
76.2213204
0
LINE
8
DEFAULT_255_1_388
10
6.6273688
20
76.2213204
11
6.6273688
21
76.6369601
0
LINE
8
DEFAULT_255_1_388
10
6.6273688
20
76.6369601
11
6.2605216
21
76.6369601
0
LINE
8
DEFAULT_255_1_388
10
6.2605216
20
76.6369601
11
6.2605216
21
76.7950838
0
LINE
8
DEFAULT_255_1_388
10
6.2605216
20
76.7950838
11
6.6273688
21
76.7950838
0
LINE
8
DEFAULT_255_1_388
10
6.6273688
20
76.7950838
11
6.6273688
21
77.1790987
0
LINE
8
DEFAULT_255_1_388
10
6.6273688
20
77.1790987
11
6.7954318
21
77.1790987
0
LINE
8
DEFAULT_255_1_388
10
4.1877448
20
85.3424898
11
4.5618205
21
84.2573089
0
LINE
8
DEFAULT_255_1_388
10
4.5618205
20
84.2573089
11
4.9377033
21
85.3424898
0
LINE
8
DEFAULT_255_1_388
10
4.9377033
20
85.3424898
11
5.1274518
21
85.3424898
0
LINE
8
DEFAULT_255_1_388
10
5.1274518
20
85.3424898
11
4.639527
21
84.0269
0
LINE
8
DEFAULT_255_1_388
10
4.639527
20
84.0269
11
4.485921
21
84.0269
0
LINE
8
DEFAULT_255_1_388
10
4.485921
20
84.0269
11
3.9988998
21
85.3424898
0
LINE
8
DEFAULT_255_1_388
10
3.9988998
20
85.3424898
11
4.1877448
21
85.3424898
0
LINE
8
DEFAULT_255_1_388
10
5.8864459
20
85.3433934
11
5.9162636
21
85.3433934
0
LINE
8
DEFAULT_255_1_388
10
5.9162636
20
85.3433934
11
5.9162636
21
85.2015338
0
LINE
8
DEFAULT_255_1_388
10
5.9162636
20
85.2015338
11
5.8855424
21
85.2015338
0
LINE
8
DEFAULT_255_1_388
10
5.270215
20
84.5274747
11
5.270215
21
84.5916278
0
LINE
8
DEFAULT_255_1_388
10
5.438278
20
84.5699422
11
5.438278
21
84.5084999
0
ARC
8
DEFAULT_255_1_388
10
5.8914315
20
84.6392826
40
0.562282
50
90.6001079
51
104.5146616
0
ARC
8
DEFAULT_255_1_388
10
5.8477275
20
84.80181
40
0.3939917
50
104.2855758
51
133.8630124
0
ARC
8
DEFAULT_255_1_388
10
5.8661528
20
84.7896243
40
0.4155734
50
134.5304124
51
161.6210222
0
ARC
8
DEFAULT_255_1_388
10
6.052146
20
84.7240421
40
0.6127682
50
161.2850533
51
174.2074364
0
ARC
8
DEFAULT_255_1_388
10
6.2111027
20
84.7021437
40
0.7731446
50
173.7817938
51
174.9251711
0
ARC
8
DEFAULT_255_1_388
10
5.698522
20
84.546627
40
0.3412588
50
95.8332067
51
138.995412
0
ARC
8
DEFAULT_255_1_388
10
5.72365
20
84.4027695
40
0.4870358
50
89.8755506
51
97.0540979
0
ARC
8
DEFAULT_255_1_388
10
5.728989
20
84.4967841
40
0.3930432
50
71.6407016
51
90.6240821
0
ARC
8
DEFAULT_255_1_388
10
5.7459283
20
84.5591433
40
0.3285421
50
39.6368051
51
71.0190743
0
ARC
8
DEFAULT_255_1_388
10
5.6743191
20
84.4972586
40
0.4231706
50
10.6588054
51
39.9044509
0
ARC
8
DEFAULT_255_1_388
10
5.5001736
20
84.4594223
40
0.60133
50
359.6827842
51
11.1326896
0
ARC
8
DEFAULT_255_1_388
10
5.4957072
20
84.4514715
40
0.6058047
50
347.2485908
51
0.4371098
0
ARC
8
DEFAULT_255_1_388
10
5.6832858
20
84.4063379
40
0.4128987
50
318.1408565
51
347.6118497
0
ARC
8
DEFAULT_255_1_388
10
5.7198454
20
84.3762903
40
0.3656244
50
275.6342406
51
317.824739
0
ARC
8
DEFAULT_255_1_388
10
5.6949975
20
84.5224827
40
0.513655
50
269.8872513
51
276.7916069
0
ARC
8
DEFAULT_255_1_388
10
5.6888168
20
84.4071181
40
0.398323
50
246.9139443
51
270.7436787
0
ARC
8
DEFAULT_255_1_388
10
5.6895364
20
84.3911044
40
0.3839368
50
218.1665534
51
245.8780431
0
ARC
8
DEFAULT_255_1_388
10
5.7884736
20
84.4738903
40
0.5128958
50
191.4115343
51
218.6077624
0
ARC
8
DEFAULT_255_1_388
10
6.0065052
20
84.5227777
40
0.7363054
50
179.6344971
51
191.7836758
0
ARC
8
DEFAULT_255_1_388
10
6.6344926
20
84.5991495
40
1.3642984
50
171.4523743
51
180.3158856
0
ARC
8
DEFAULT_255_1_388
10
6.1400654
20
84.6760895
40
0.8639311
50
157.9802296
51
171.6246761
0
ARC
8
DEFAULT_255_1_388
10
5.8910004
20
84.7754038
40
0.5958004
50
141.4299236
51
157.8541251
0
ARC
8
DEFAULT_255_1_388
10
5.8188088
20
84.8264746
40
0.5075416
50
102.871586
51
140.8564533
0
ARC
8
DEFAULT_255_1_388
10
5.891664
20
84.5519943
40
0.7914163
50
90.377773
51
103.5868422
0
ARC
8
DEFAULT_255_1_388
10
5.6961161
20
84.4839543
40
0.2667015
50
89.8751238
51
126.2072139
0
ARC
8
DEFAULT_255_1_388
10
5.7012632
20
84.4665847
40
0.2838229
50
124.9742447
51
144.8960197
0
ARC
8
DEFAULT_255_1_388
10
5.6814878
20
84.4826981
40
0.2583845
50
145.2974778
51
160.2660922
0
ARC
8
DEFAULT_255_1_388
10
6.0271366
20
84.5049151
40
0.5888695
50
179.6512124
51
190.285571
0
ARC
8
DEFAULT_255_1_388
10
5.8365845
20
84.4689968
40
0.3949683
50
190.0944895
51
207.5099647
0
ARC
8
DEFAULT_255_1_388
10
5.7729427
20
84.4387177
40
0.3245464
50
207.9585471
51
216.325377
0
ARC
8
DEFAULT_255_1_388
10
5.7347064
20
84.4072712
40
0.2751259
50
215.7661336
51
232.5457193
0
ARC
8
DEFAULT_255_1_388
10
5.691618
20
84.3525273
40
0.2054668
50
232.8005815
51
270.6605497
0
ARC
8
DEFAULT_255_1_388
10
5.6967604
20
84.3934853
40
0.2464268
50
269.3550767
51
288.474612
0
ARC
8
DEFAULT_255_1_388
10
5.7072111
20
84.3541721
40
0.2058436
50
289.1831976
51
322.9685307
0
ARC
8
DEFAULT_255_1_388
10
5.6384213
20
84.4084279
40
0.2934408
50
322.6007085
51
346.5183319
0
ARC
8
DEFAULT_255_1_388
10
5.5081969
20
84.4416434
40
0.4278249
50
346.2584622
51
358.7739592
0
ARC
8
DEFAULT_255_1_388
10
5.3930545
20
84.4478829
40
0.5430876
50
358.3757628
51
0.0082477
0
ARC
8
DEFAULT_255_1_388
10
5.4787363
20
84.4509856
40
0.4574157
50
359.6211417
51
11.28403
0
ARC
8
DEFAULT_255_1_388
10
5.6223969
20
84.4809535
40
0.3106708
50
11.0483152
51
31.8145585
0
ARC
8
DEFAULT_255_1_388
10
5.6571674
20
84.4998045
40
0.2711963
50
32.3028554
51
38.0820598
0
ARC
8
DEFAULT_255_1_388
10
5.7044907
20
84.5426717
40
0.2075566
50
36.8249851
51
85.741667
0
ARC
8
DEFAULT_255_1_388
10
5.696932
20
84.4863065
40
0.2643487
50
85.0150021
51
90.050843
0
LINE
8
DEFAULT_255_1_388
10
6.7954318
20
85.1165987
11
6.7954318
21
84.7325838
0
LINE
8
DEFAULT_255_1_388
10
6.7954318
20
84.7325838
11
7.162279
21
84.7325838
0
LINE
8
DEFAULT_255_1_388
10
7.162279
20
84.7325838
11
7.162279
21
84.5744601
0
LINE
8
DEFAULT_255_1_388
10
7.162279
20
84.5744601
11
6.7954318
21
84.5744601
0
LINE
8
DEFAULT_255_1_388
10
6.7954318
20
84.5744601
11
6.7954318
21
84.1588204
0
LINE
8
DEFAULT_255_1_388
10
6.7954318
20
84.1588204
11
6.6273688
21
84.1588204
0
LINE
8
DEFAULT_255_1_388
10
6.6273688
20
84.1588204
11
6.6273688
21
84.5744601
0
LINE
8
DEFAULT_255_1_388
10
6.6273688
20
84.5744601
11
6.2605216
21
84.5744601
0
LINE
8
DEFAULT_255_1_388
10
6.2605216
20
84.5744601
11
6.2605216
21
84.7325838
0
LINE
8
DEFAULT_255_1_388
10
6.2605216
20
84.7325838
11
6.6273688
21
84.7325838
0
LINE
8
DEFAULT_255_1_388
10
6.6273688
20
84.7325838
11
6.6273688
21
85.1165987
0
LINE
8
DEFAULT_255_1_388
10
6.6273688
20
85.1165987
11
6.7954318
21
85.1165987
0
LINE
8
DEFAULT_255_1_388
10
4.1877448
20
93.2799898
11
4.5618205
21
92.1948089
0
LINE
8
DEFAULT_255_1_388
10
4.5618205
20
92.1948089
11
4.9377033
21
93.2799898
0
LINE
8
DEFAULT_255_1_388
10
4.9377033
20
93.2799898
11
5.1274518
21
93.2799898
0
LINE
8
DEFAULT_255_1_388
10
5.1274518
20
93.2799898
11
4.639527
21
91.9644
0
LINE
8
DEFAULT_255_1_388
10
4.639527
20
91.9644
11
4.485921
21
91.9644
0
LINE
8
DEFAULT_255_1_388
10
4.485921
20
91.9644
11
3.9988998
21
93.2799898
0
LINE
8
DEFAULT_255_1_388
10
3.9988998
20
93.2799898
11
4.1877448
21
93.2799898
0
LINE
8
DEFAULT_255_1_388
10
5.4708063
20
92.5896666
11
5.3370788
21
92.6240021
0
LINE
8
DEFAULT_255_1_388
10
5.3370788
20
92.6240021
11
5.4039425
21
93.2799898
0
LINE
8
DEFAULT_255_1_388
10
5.4039425
20
93.2799898
11
6.0780016
21
93.2799898
0
LINE
8
DEFAULT_255_1_388
10
6.0780016
20
93.2799898
11
6.0780016
21
93.1254803
0
LINE
8
DEFAULT_255_1_388
10
6.0780016
20
93.1254803
11
5.5458021
21
93.1254803
0
LINE
8
DEFAULT_255_1_388
10
5.5458021
20
93.1254803
11
5.5060453
21
92.7667652
0
LINE
8
DEFAULT_255_1_388
10
5.2900934
20
92.3104652
11
5.4482172
21
92.3104652
0
LINE
8
DEFAULT_255_1_388
10
5.515081
20
92.6258092
11
5.4708063
21
92.5896666
0
ARC
8
DEFAULT_255_1_388
10
5.7147067
20
92.4090241
40
0.4141476
50
93.7181681
51
120.253934
0
ARC
8
DEFAULT_255_1_388
10
5.7253119
20
92.3181284
40
0.5055616
50
89.9660471
51
94.2495185
0
ARC
8
DEFAULT_255_1_388
10
5.7298941
20
92.3844154
40
0.4392953
50
73.8045384
51
90.5585736
0
ARC
8
DEFAULT_255_1_388
10
5.7563198
20
92.480952
40
0.3392225
50
41.3071072
51
73.543002
0
ARC
8
DEFAULT_255_1_388
10
5.7095018
20
92.4406461
40
0.4009977
50
13.5075837
51
41.2174839
0
ARC
8
DEFAULT_255_1_388
10
5.5248116
20
92.3922907
40
0.5918864
50
1.1330171
51
13.8830737
0
ARC
8
DEFAULT_255_1_388
10
5.3651762
20
92.3837522
40
0.7516787
50
359.9925091
51
1.5431298
0
ARC
8
DEFAULT_255_1_388
10
5.5096376
20
92.3791027
40
0.6072343
50
347.8572712
51
0.4294349
0
ARC
8
DEFAULT_255_1_388
10
5.7065511
20
92.3344898
40
0.4053482
50
323.6727442
51
348.1674594
0
ARC
8
DEFAULT_255_1_388
10
5.7396476
20
92.3143175
40
0.3667495
50
316.8171818
51
323.1486802
0
ARC
8
DEFAULT_255_1_388
10
5.7465599
20
92.3101612
40
0.358869
50
281.839603
51
316.5458142
0
ARC
8
DEFAULT_255_1_388
10
5.7042887
20
92.4851363
40
0.5388223
50
269.5770964
51
282.4214641
0
ARC
8
DEFAULT_255_1_388
10
5.6962808
20
92.461093
40
0.5147801
50
256.2425863
51
270.4486481
0
ARC
8
DEFAULT_255_1_388
10
5.6626335
20
92.3261124
40
0.3756708
50
228.9024379
51
256.33135
0
ARC
8
DEFAULT_255_1_388
10
5.6543316
20
92.3130054
40
0.360344
50
193.7536029
51
228.5272638
0
ARC
8
DEFAULT_255_1_388
10
5.7935881
20
92.3538463
40
0.5053599
50
184.9244437
51
194.4976052
0
ARC
8
DEFAULT_255_1_388
10
5.8152522
20
92.3578722
40
0.3700839
50
187.3596909
51
198.6733728
0
ARC
8
DEFAULT_255_1_388
10
5.6971765
20
92.3169373
40
0.2451195
50
198.4453795
51
217.7945479
0
ARC
8
DEFAULT_255_1_388
10
5.6638938
20
92.2933563
40
0.2043754
50
218.2887146
51
228.5613203
0
ARC
8
DEFAULT_255_1_388
10
5.6748945
20
92.3081902
40
0.2227819
50
228.9652423
51
258.1237049
0
ARC
8
DEFAULT_255_1_388
10
5.6980382
20
92.4072964
40
0.3245374
50
257.7260585
51
270.4013717
0
ARC
8
DEFAULT_255_1_388
10
5.703088
20
92.3572255
40
0.2744726
50
269.4204315
51
286.420998
0
ARC
8
DEFAULT_255_1_388
10
5.7197936
20
92.2965705
40
0.2115721
50
286.7250065
51
320.6004665
0
ARC
8
DEFAULT_255_1_388
10
5.6766851
20
92.3315527
40
0.2670878
50
320.6712228
51
344.5440474
0
ARC
8
DEFAULT_255_1_388
10
5.5465565
20
92.3697394
40
0.4026927
50
344.241448
51
356.735803
0
ARC
8
DEFAULT_255_1_388
10
5.4061872
20
92.3813656
40
0.5435085
50
356.3547471
51
0.0507222
0
ARC
8
DEFAULT_255_1_388
10
5.5564138
20
92.3848812
40
0.3932934
50
359.5579289
51
12.9534322
0
ARC
8
DEFAULT_255_1_388
10
5.6750977
20
92.4136586
40
0.2711827
50
12.6489751
51
41.608121
0
ARC
8
DEFAULT_255_1_388
10
5.7010137
20
92.4356946
40
0.2371737
50
41.7851122
51
85.9892156
0
ARC
8
DEFAULT_255_1_388
10
5.6871448
20
92.3441738
40
0.3295244
50
84.6965848
51
90.0672125
0
ARC
8
DEFAULT_255_1_388
10
5.6845015
20
92.2690118
40
0.4046926
50
89.6804991
51
99.161352
0
ARC
8
DEFAULT_255_1_388
10
5.6614024
20
92.4070848
40
0.2647044
50
98.9836248
51
113.8905702
0
ARC
8
DEFAULT_255_1_388
10
5.6355699
20
92.4680118
40
0.1985386
50
114.195234
51
127.3641866
0
LINE
8
DEFAULT_255_1_388
10
6.7954318
20
93.0540987
11
6.7954318
21
92.6700838
0
LINE
8
DEFAULT_255_1_388
10
6.7954318
20
92.6700838
11
7.162279
21
92.6700838
0
LINE
8
DEFAULT_255_1_388
10
7.162279
20
92.6700838
11
7.162279
21
92.5119601
0
LINE
8
DEFAULT_255_1_388
10
7.162279
20
92.5119601
11
6.7954318
21
92.5119601
0
LINE
8
DEFAULT_255_1_388
10
6.7954318
20
92.5119601
11
6.7954318
21
92.0963204
0
LINE
8
DEFAULT_255_1_388
10
6.7954318
20
92.0963204
11
6.6273688
21
92.0963204
0
LINE
8
DEFAULT_255_1_388
10
6.6273688
20
92.0963204
11
6.6273688
21
92.5119601
0
LINE
8
DEFAULT_255_1_388
10
6.6273688
20
92.5119601
11
6.2605216
21
92.5119601
0
LINE
8
DEFAULT_255_1_388
10
6.2605216
20
92.5119601
11
6.2605216
21
92.6700838
0
LINE
8
DEFAULT_255_1_388
10
6.2605216
20
92.6700838
11
6.6273688
21
92.6700838
0
LINE
8
DEFAULT_255_1_388
10
6.6273688
20
92.6700838
11
6.6273688
21
93.0540987
0
LINE
8
DEFAULT_255_1_388
10
6.6273688
20
93.0540987
11
6.7954318
21
93.0540987
0
LINE
8
DEFAULT_255_1_388
10
4.1877448
20
101.2174898
11
4.5618205
21
100.1323089
0
LINE
8
DEFAULT_255_1_388
10
4.5618205
20
100.1323089
11
4.9377033
21
101.2174898
0
LINE
8
DEFAULT_255_1_388
10
4.9377033
20
101.2174898
11
5.1274518
21
101.2174898
0
LINE
8
DEFAULT_255_1_388
10
5.1274518
20
101.2174898
11
4.639527
21
99.9019
0
LINE
8
DEFAULT_255_1_388
10
4.639527
20
99.9019
11
4.485921
21
99.9019
0
LINE
8
DEFAULT_255_1_388
10
4.485921
20
99.9019
11
3.9988998
21
101.2174898
0
LINE
8
DEFAULT_255_1_388
10
3.9988998
20
101.2174898
11
4.1877448
21
101.2174898
0
LINE
8
DEFAULT_255_1_388
10
5.9659596
20
101.2174898
11
5.9659596
21
100.343743
0
LINE
8
DEFAULT_255_1_388
10
5.9659596
20
100.343743
11
6.1484796
21
100.343743
0
LINE
8
DEFAULT_255_1_388
10
6.1484796
20
100.343743
11
6.1484796
21
100.2073048
0
LINE
8
DEFAULT_255_1_388
10
6.1484796
20
100.2073048
11
5.9659596
21
100.2073048
0
LINE
8
DEFAULT_255_1_388
10
5.9659596
20
100.2073048
11
5.9659596
21
99.9019
0
LINE
8
DEFAULT_255_1_388
10
5.9659596
20
99.9019
11
5.7978966
21
99.9019
0
LINE
8
DEFAULT_255_1_388
10
5.7978966
20
99.9019
11
5.7978966
21
100.2073048
0
LINE
8
DEFAULT_255_1_388
10
5.7978966
20
100.2073048
11
5.1988334
21
100.2073048
0
LINE
8
DEFAULT_255_1_388
10
5.1988334
20
100.2073048
11
5.1988334
21
100.3057933
0
LINE
8
DEFAULT_255_1_388
10
5.1988334
20
100.3057933
11
5.7879574
21
101.2174898
0
LINE
8
DEFAULT_255_1_388
10
5.7879574
20
101.2174898
11
5.9659596
21
101.2174898
0
LINE
8
DEFAULT_255_1_388
10
5.7780182
20
100.9527455
11
5.3885819
21
100.343743
0
LINE
8
DEFAULT_255_1_388
10
5.3885819
20
100.343743
11
5.7978966
21
100.343743
0
LINE
8
DEFAULT_255_1_388
10
5.7978966
20
100.343743
11
5.7978966
21
100.988888
0
LINE
8
DEFAULT_255_1_388
10
5.7978966
20
100.988888
11
5.7780182
21
100.9527455
0
LINE
8
DEFAULT_255_1_388
10
6.7954318
20
100.9915987
11
6.7954318
21
100.6075838
0
LINE
8
DEFAULT_255_1_388
10
6.7954318
20
100.6075838
11
7.162279
21
100.6075838
0
LINE
8
DEFAULT_255_1_388
10
7.162279
20
100.6075838
11
7.162279
21
100.4494601
0
LINE
8
DEFAULT_255_1_388
10
7.162279
20
100.4494601
11
6.7954318
21
100.4494601
0
LINE
8
DEFAULT_255_1_388
10
6.7954318
20
100.4494601
11
6.7954318
21
100.0338204
0
LINE
8
DEFAULT_255_1_388
10
6.7954318
20
100.0338204
11
6.6273688
21
100.0338204
0
LINE
8
DEFAULT_255_1_388
10
6.6273688
20
100.0338204
11
6.6273688
21
100.4494601
0
LINE
8
DEFAULT_255_1_388
10
6.6273688
20
100.4494601
11
6.2605216
21
100.4494601
0
LINE
8
DEFAULT_255_1_388
10
6.2605216
20
100.4494601
11
6.2605216
21
100.6075838
0
LINE
8
DEFAULT_255_1_388
10
6.2605216
20
100.6075838
11
6.6273688
21
100.6075838
0
LINE
8
DEFAULT_255_1_388
10
6.6273688
20
100.6075838
11
6.6273688
21
100.9915987
0
LINE
8
DEFAULT_255_1_388
10
6.6273688
20
100.9915987
11
6.7954318
21
100.9915987
0
LINE
8
DEFAULT_255_1_388
10
4.1877448
20
109.1549898
11
4.5618205
21
108.0698089
0
LINE
8
DEFAULT_255_1_388
10
4.5618205
20
108.0698089
11
4.9377033
21
109.1549898
0
LINE
8
DEFAULT_255_1_388
10
4.9377033
20
109.1549898
11
5.1274518
21
109.1549898
0
LINE
8
DEFAULT_255_1_388
10
5.1274518
20
109.1549898
11
4.639527
21
107.8394
0
LINE
8
DEFAULT_255_1_388
10
4.639527
20
107.8394
11
4.485921
21
107.8394
0
LINE
8
DEFAULT_255_1_388
10
4.485921
20
107.8394
11
3.9988998
21
109.1549898
0
LINE
8
DEFAULT_255_1_388
10
3.9988998
20
109.1549898
11
4.1877448
21
109.1549898
0
LINE
8
DEFAULT_255_1_388
10
5.5033346
20
108.4420775
11
5.5033346
21
108.5785157
0
LINE
8
DEFAULT_255_1_388
10
5.5033346
20
108.5785157
11
5.6289301
21
108.5785157
0
LINE
8
DEFAULT_255_1_388
10
5.4147853
20
108.8098282
11
5.2476259
21
108.8098282
0
LINE
8
DEFAULT_255_1_388
10
5.2358795
20
108.1863688
11
5.4039425
21
108.1863688
0
LINE
8
DEFAULT_255_1_388
10
5.6289301
20
108.4420775
11
5.5033346
21
108.4420775
0
ARC
8
DEFAULT_255_1_388
10
5.6256527
20
108.9601922
40
0.3816905
50
270.491971
51
281.8953028
0
ARC
8
DEFAULT_255_1_388
10
5.6527954
20
108.8362199
40
0.2547877
50
281.6690378
51
301.2943765
0
ARC
8
DEFAULT_255_1_388
10
5.6719405
20
108.8011926
40
0.2149197
50
301.7834992
51
311.754567
0
ARC
8
DEFAULT_255_1_388
10
5.6822447
20
108.789765
40
0.1995326
50
311.7325027
51
354.2803031
0
ARC
8
DEFAULT_255_1_388
10
5.6004863
20
108.803828
40
0.2823461
50
353.0941646
51
0.1174696
0
ARC
8
DEFAULT_255_1_388
10
5.5486421
20
108.8091874
40
0.3342238
50
359.1804452
51
15.0452323
0
ARC
8
DEFAULT_255_1_388
10
5.7000479
20
108.8533546
40
0.1765747
50
13.957816
51
77.6713812
0
ARC
8
DEFAULT_255_1_388
10
5.6565715
20
108.6975464
40
0.3381982
50
76.111571
51
90.7028736
0
ARC
8
DEFAULT_255_1_388
10
5.6499127
20
108.728325
40
0.3074046
50
89.5321574
51
103.5319393
0
ARC
8
DEFAULT_255_1_388
10
5.6273511
20
108.8182443
40
0.2147041
50
103.2930114
51
133.5619756
0
ARC
8
DEFAULT_255_1_388
10
5.6223452
20
108.8249351
40
0.2064084
50
133.8349761
51
173.5343225
0
ARC
8
DEFAULT_255_1_388
10
5.703711
20
108.8105144
40
0.2889266
50
172.5097183
51
180.1360699
0
ARC
8
DEFAULT_255_1_388
10
5.5966874
20
108.814388
40
0.3490913
50
155.3483706
51
180.7484035
0
ARC
8
DEFAULT_255_1_388
10
5.5911849
20
108.8111519
40
0.3454798
50
131.5745177
51
154.4799474
0
ARC
8
DEFAULT_255_1_388
10
5.6264132
20
108.7755422
40
0.3955058
50
96.9874487
51
131.9690874
0
ARC
8
DEFAULT_255_1_388
10
5.6511024
20
108.6354407
40
0.537622
50
89.8592909
51
97.7827481
0
ARC
8
DEFAULT_255_1_388
10
5.6565133
20
108.605936
40
0.5671399
50
78.3654493
51
90.4132586
0
ARC
8
DEFAULT_255_1_388
10
5.6967775
20
108.7925918
40
0.3762034
50
56.6229818
51
78.6387103
0
ARC
8
DEFAULT_255_1_388
10
5.7209604
20
108.8348846
40
0.3275964
50
47.0254604
51
56.085558
0
ARC
8
DEFAULT_255_1_388
10
5.7231855
20
108.8393189
40
0.3228382
50
10.9207523
51
46.777927
0
ARC
8
DEFAULT_255_1_388
10
5.5697449
20
108.8038401
40
0.4802559
50
359.6364235
51
11.6087615
0
ARC
8
DEFAULT_255_1_388
10
5.7761614
20
108.8021404
40
0.273833
50
332.3549969
51
359.7179765
0
ARC
8
DEFAULT_255_1_388
10
5.7030015
20
108.8368285
40
0.3547505
50
325.2332381
51
332.8746682
0
ARC
8
DEFAULT_255_1_388
10
5.7201598
20
108.8248763
40
0.3338396
50
292.9803892
51
325.2391113
0
ARC
8
DEFAULT_255_1_388
10
5.6890794
20
108.8853679
40
0.4016959
50
292.542178
51
293.6931461
0
ARC
8
DEFAULT_255_1_388
10
5.7334366
20
108.1588036
40
0.372079
50
57.643292
51
72.8626085
0
ARC
8
DEFAULT_255_1_388
10
5.77332
20
108.2234273
40
0.2961455
50
36.7246661
51
57.4701329
0
ARC
8
DEFAULT_255_1_388
10
5.7720357
20
108.224847
40
0.2963321
50
8.054535
51
36.3561529
0
ARC
8
DEFAULT_255_1_388
10
5.675003
20
108.2074073
40
0.3948682
50
359.8316595
51
8.5873361
0
ARC
8
DEFAULT_255_1_388
10
5.6327504
20
108.201997
40
0.4371398
50
343.9831631
51
0.557075
0
ARC
8
DEFAULT_255_1_388
10
5.7324553
20
108.1746963
40
0.3337749
50
311.6358204
51
343.7652116
0
ARC
8
DEFAULT_255_1_388
10
5.6898807
20
108.2226955
40
0.3979351
50
279.7829743
51
311.625622
0
ARC
8
DEFAULT_255_1_388
10
5.6559942
20
108.3843642
40
0.5630417
50
269.7285092
51
280.3857694
0
ARC
8
DEFAULT_255_1_388
10
5.6490255
20
108.3797241
40
0.5584119
50
256.6827433
51
270.4412869
0
ARC
8
DEFAULT_255_1_388
10
5.6109242
20
108.2239698
40
0.3980715
50
229.4223821
51
256.8554507
0
ARC
8
DEFAULT_255_1_388
10
5.5642795
20
108.1714683
40
0.3278564
50
181.8183354
51
229.6455015
0
ARC
8
DEFAULT_255_1_388
10
5.6812405
20
108.1861825
40
0.4453611
50
179.9760419
51
183.2330638
0
ARC
8
DEFAULT_255_1_388
10
5.6618957
20
108.1838781
40
0.2579652
50
179.4467996
51
196.2871626
0
ARC
8
DEFAULT_255_1_388
10
5.6070411
20
108.1688709
40
0.2011057
50
196.5661293
51
227.7059371
0
ARC
8
DEFAULT_255_1_388
10
5.6255018
20
108.1895155
40
0.2287994
50
227.7653015
51
257.8763321
0
ARC
8
DEFAULT_255_1_388
10
5.6508101
20
108.2955961
40
0.3378385
50
257.4583525
51
270.4267406
0
ARC
8
DEFAULT_255_1_388
10
5.6559351
20
108.328223
40
0.3704652
50
269.5965319
51
280.8788143
0
ARC
8
DEFAULT_255_1_388
10
5.6817579
20
108.1992529
40
0.2389415
50
280.6347277
51
299.8594068
0
ARC
8
DEFAULT_255_1_388
10
5.7032348
20
108.1584736
40
0.19289
50
300.3575552
51
314.5515667
0
ARC
8
DEFAULT_255_1_388
10
5.6939024
20
108.1653025
40
0.204312
50
315.0730962
51
345.0429362
0
ARC
8
DEFAULT_255_1_388
10
5.5900531
20
108.1955539
40
0.31246
50
344.598526
51
357.9270698
0
ARC
8
DEFAULT_255_1_388
10
5.4890836
20
108.2024705
40
0.4136265
50
357.4755098
51
0.0224936
0
ARC
8
DEFAULT_255_1_388
10
5.6043714
20
108.2052099
40
0.2983498
50
359.5051035
51
13.4236939
0
ARC
8
DEFAULT_255_1_388
10
5.7018804
20
108.2301637
40
0.1977186
50
12.9497905
51
48.7550905
0
ARC
8
DEFAULT_255_1_388
10
5.6813726
20
108.2021373
40
0.2323321
50
49.509109
51
72.1832965
0
ARC
8
DEFAULT_255_1_388
10
5.6411194
20
108.0826632
40
0.358397
50
71.9008458
51
84.3555134
0
ARC
8
DEFAULT_255_1_388
10
5.6229589
20
107.9294712
40
0.512641
50
84.019632
51
89.3326067
0
LINE
8
DEFAULT_255_1_388
10
6.7954318
20
108.9290987
11
6.7954318
21
108.5450838
0
LINE
8
DEFAULT_255_1_388
10
6.7954318
20
108.5450838
11
7.162279
21
108.5450838
0
LINE
8
DEFAULT_255_1_388
10
7.162279
20
108.5450838
11
7.162279
21
108.3869601
0
LINE
8
DEFAULT_255_1_388
10
7.162279
20
108.3869601
11
6.7954318
21
108.3869601
0
LINE
8
DEFAULT_255_1_388
10
6.7954318
20
108.3869601
11
6.7954318
21
107.9713204
0
LINE
8
DEFAULT_255_1_388
10
6.7954318
20
107.9713204
11
6.6273688
21
107.9713204
0
LINE
8
DEFAULT_255_1_388
10
6.6273688
20
107.9713204
11
6.6273688
21
108.3869601
0
LINE
8
DEFAULT_255_1_388
10
6.6273688
20
108.3869601
11
6.2605216
21
108.3869601
0
LINE
8
DEFAULT_255_1_388
10
6.2605216
20
108.3869601
11
6.2605216
21
108.5450838
0
LINE
8
DEFAULT_255_1_388
10
6.2605216
20
108.5450838
11
6.6273688
21
108.5450838
0
LINE
8
DEFAULT_255_1_388
10
6.6273688
20
108.5450838
11
6.6273688
21
108.9290987
0
LINE
8
DEFAULT_255_1_388
10
6.6273688
20
108.9290987
11
6.7954318
21
108.9290987
0
LINE
8
DEFAULT_255_1_388
10
4.1877448
20
117.0924898
11
4.5618205
21
116.0073089
0
LINE
8
DEFAULT_255_1_388
10
4.5618205
20
116.0073089
11
4.9377033
21
117.0924898
0
LINE
8
DEFAULT_255_1_388
10
4.9377033
20
117.0924898
11
5.1274518
21
117.0924898
0
LINE
8
DEFAULT_255_1_388
10
5.1274518
20
117.0924898
11
4.639527
21
115.7769
0
LINE
8
DEFAULT_255_1_388
10
4.639527
20
115.7769
11
4.485921
21
115.7769
0
LINE
8
DEFAULT_255_1_388
10
4.485921
20
115.7769
11
3.9988998
21
117.0924898
0
LINE
8
DEFAULT_255_1_388
10
3.9988998
20
117.0924898
11
4.1877448
21
117.0924898
0
LINE
8
DEFAULT_255_1_388
10
6.1222763
20
115.9133382
11
6.1222763
21
115.7769
0
LINE
8
DEFAULT_255_1_388
10
6.1222763
20
115.7769
11
5.2602758
21
115.7769
0
LINE
8
DEFAULT_255_1_388
10
5.2602758
20
115.7769
11
5.2602758
21
115.8970741
0
LINE
8
DEFAULT_255_1_388
10
5.2602758
20
115.8970741
11
5.7156723
21
116.4030702
0
LINE
8
DEFAULT_255_1_388
10
5.4021354
20
116.7048607
11
5.234976
21
116.7048607
0
LINE
8
DEFAULT_255_1_388
10
5.8141608
20
116.295546
11
5.4617707
21
115.9133382
0
LINE
8
DEFAULT_255_1_388
10
5.4617707
20
115.9133382
11
6.1222763
21
115.9133382
0
ARC
8
DEFAULT_255_1_388
10
4.1980782
20
117.7450983
40
2.0258655
50
318.5132526
51
320.7829045
0
ARC
8
DEFAULT_255_1_388
10
4.7928739
20
117.2609929
40
1.2589638
50
320.7372878
51
323.9739031
0
ARC
8
DEFAULT_255_1_388
10
5.2337671
20
116.9415554
40
0.7145141
50
323.8962701
51
328.64194
0
ARC
8
DEFAULT_255_1_388
10
5.4639928
20
116.7995545
40
0.4440242
50
328.8294576
51
331.7891185
0
ARC
8
DEFAULT_255_1_388
10
5.5762249
20
116.7416374
40
0.3177517
50
331.4254512
51
352.9365785
0
ARC
8
DEFAULT_255_1_388
10
5.5915248
20
116.738205
40
0.3021496
50
353.2257659
51
0.0166158
0
ARC
8
DEFAULT_255_1_388
10
5.6152009
20
116.7407894
40
0.2784847
50
359.486299
51
15.9343185
0
ARC
8
DEFAULT_255_1_388
10
5.6722276
20
116.7561269
40
0.2194403
50
16.1712913
51
43.5286088
0
ARC
8
DEFAULT_255_1_388
10
5.680922
20
116.7648191
40
0.2071504
50
43.4417391
51
83.1661095
0
ARC
8
DEFAULT_255_1_388
10
5.6658381
20
116.6819316
40
0.2912888
50
82.160179
51
90.1505708
0
ARC
8
DEFAULT_255_1_388
10
5.6622863
20
116.6215279
40
0.3517025
50
89.5460741
51
102.5418361
0
ARC
8
DEFAULT_255_1_388
10
5.6349583
20
116.7374933
40
0.2325748
50
102.1738499
51
129.206123
0
ARC
8
DEFAULT_255_1_388
10
5.6261036
20
116.7514664
40
0.2161591
50
129.72865
51
135.753947
0
ARC
8
DEFAULT_255_1_388
10
5.6397519
20
116.7405728
40
0.2335433
50
136.1757367
51
166.3673339
0
ARC
8
DEFAULT_255_1_388
10
5.7530207
20
116.7102148
40
0.3507873
50
165.9090694
51
178.8684636
0
ARC
8
DEFAULT_255_1_388
10
5.8505979
20
116.7049263
40
0.4484624
50
178.4391136
51
180.0083808
0
ARC
8
DEFAULT_255_1_388
10
5.692668
20
116.7093197
40
0.4577138
50
163.2878482
51
180.5581842
0
ARC
8
DEFAULT_255_1_388
10
5.6024721
20
116.7341393
40
0.3641968
50
133.4540601
51
162.947111
0
ARC
8
DEFAULT_255_1_388
10
5.6225603
20
116.7127789
40
0.3935189
50
100.7869829
51
133.4382499
0
ARC
8
DEFAULT_255_1_388
10
5.6616848
20
116.5385399
40
0.5720313
50
89.660664
51
101.3702276
0
ARC
8
DEFAULT_255_1_388
10
5.6691457
20
116.5454263
40
0.5651495
50
78.2172678
51
90.412935
0
ARC
8
DEFAULT_255_1_388
10
5.7090923
20
116.7281511
40
0.378122
50
55.9269121
51
78.4888449
0
ARC
8
DEFAULT_255_1_388
10
5.7311638
20
116.7662187
40
0.3342379
50
47.929771
51
55.4049217
0
ARC
8
DEFAULT_255_1_388
10
5.7426168
20
116.7778618
40
0.3179217
50
4.334829
51
48.0560205
0
ARC
8
DEFAULT_255_1_388
10
5.619397
20
116.7587487
40
0.442341
50
359.9251713
51
5.5971671
0
ARC
8
DEFAULT_255_1_388
10
5.6676125
20
116.7650728
40
0.3941854
50
337.8914027
51
358.9967534
0
ARC
8
DEFAULT_255_1_388
10
5.3623695
20
116.8828295
40
0.7213271
50
326.9132501
51
338.3508308
0
ARC
8
DEFAULT_255_1_388
10
4.9139807
20
117.1702105
40
1.2538973
50
319.6471833
51
327.0959558
0
ARC
8
DEFAULT_255_1_388
10
4.4826465
20
117.526005
40
1.8129975
50
317.2588228
51
319.9045804
0
LINE
8
DEFAULT_255_1_388
10
6.7954318
20
116.8665987
11
6.7954318
21
116.4825838
0
LINE
8
DEFAULT_255_1_388
10
6.7954318
20
116.4825838
11
7.162279
21
116.4825838
0
LINE
8
DEFAULT_255_1_388
10
7.162279
20
116.4825838
11
7.162279
21
116.3244601
0
LINE
8
DEFAULT_255_1_388
10
7.162279
20
116.3244601
11
6.7954318
21
116.3244601
0
LINE
8
DEFAULT_255_1_388
10
6.7954318
20
116.3244601
11
6.7954318
21
115.9088204
0
LINE
8
DEFAULT_255_1_388
10
6.7954318
20
115.9088204
11
6.6273688
21
115.9088204
0
LINE
8
DEFAULT_255_1_388
10
6.6273688
20
115.9088204
11
6.6273688
21
116.3244601
0
LINE
8
DEFAULT_255_1_388
10
6.6273688
20
116.3244601
11
6.2605216
21
116.3244601
0
LINE
8
DEFAULT_255_1_388
10
6.2605216
20
116.3244601
11
6.2605216
21
116.4825838
0
LINE
8
DEFAULT_255_1_388
10
6.2605216
20
116.4825838
11
6.6273688
21
116.4825838
0
LINE
8
DEFAULT_255_1_388
10
6.6273688
20
116.4825838
11
6.6273688
21
116.8665987
0
LINE
8
DEFAULT_255_1_388
10
6.6273688
20
116.8665987
11
6.7954318
21
116.8665987
0
LINE
8
DEFAULT_255_1_388
10
4.1877448
20
125.0299898
11
4.5618205
21
123.9448089
0
LINE
8
DEFAULT_255_1_388
10
4.5618205
20
123.9448089
11
4.9377033
21
125.0299898
0
LINE
8
DEFAULT_255_1_388
10
4.9377033
20
125.0299898
11
5.1274518
21
125.0299898
0
LINE
8
DEFAULT_255_1_388
10
5.1274518
20
125.0299898
11
4.639527
21
123.7144
0
LINE
8
DEFAULT_255_1_388
10
4.639527
20
123.7144
11
4.485921
21
123.7144
0
LINE
8
DEFAULT_255_1_388
10
4.485921
20
123.7144
11
3.9988998
21
125.0299898
0
LINE
8
DEFAULT_255_1_388
10
3.9988998
20
125.0299898
11
4.1877448
21
125.0299898
0
LINE
8
DEFAULT_255_1_388
10
5.809643
20
125.0363148
11
5.809643
21
123.7144
0
LINE
8
DEFAULT_255_1_388
10
5.809643
20
123.7144
11
5.64158
21
123.7144
0
LINE
8
DEFAULT_255_1_388
10
5.64158
20
123.7144
11
5.64158
21
124.828495
0
LINE
8
DEFAULT_255_1_388
10
5.64158
20
124.828495
11
5.3045504
21
124.7047066
0
LINE
8
DEFAULT_255_1_388
10
5.3045504
20
124.7047066
11
5.3045504
21
124.8565055
0
LINE
8
DEFAULT_255_1_388
10
5.3045504
20
124.8565055
11
5.7834396
21
125.0363148
0
LINE
8
DEFAULT_255_1_388
10
5.7834396
20
125.0363148
11
5.809643
21
125.0363148
0
LINE
8
DEFAULT_255_1_388
10
6.7954318
20
124.8040987
11
6.7954318
21
124.4200838
0
LINE
8
DEFAULT_255_1_388
10
6.7954318
20
124.4200838
11
7.162279
21
124.4200838
0
LINE
8
DEFAULT_255_1_388
10
7.162279
20
124.4200838
11
7.162279
21
124.2619601
0
LINE
8
DEFAULT_255_1_388
10
7.162279
20
124.2619601
11
6.7954318
21
124.2619601
0
LINE
8
DEFAULT_255_1_388
10
6.7954318
20
124.2619601
11
6.7954318
21
123.8463204
0
LINE
8
DEFAULT_255_1_388
10
6.7954318
20
123.8463204
11
6.6273688
21
123.8463204
0
LINE
8
DEFAULT_255_1_388
10
6.6273688
20
123.8463204
11
6.6273688
21
124.2619601
0
LINE
8
DEFAULT_255_1_388
10
6.6273688
20
124.2619601
11
6.2605216
21
124.2619601
0
LINE
8
DEFAULT_255_1_388
10
6.2605216
20
124.2619601
11
6.2605216
21
124.4200838
0
LINE
8
DEFAULT_255_1_388
10
6.2605216
20
124.4200838
11
6.6273688
21
124.4200838
0
LINE
8
DEFAULT_255_1_388
10
6.6273688
20
124.4200838
11
6.6273688
21
124.8040987
0
LINE
8
DEFAULT_255_1_388
10
6.6273688
20
124.8040987
11
6.7954318
21
124.8040987
0
LINE
8
DEFAULT_255_1_388
10
4.1879448
20
132.9674898
11
4.5620205
21
131.8823089
0
LINE
8
DEFAULT_255_1_388
10
4.5620205
20
131.8823089
11
4.9379033
21
132.9674898
0
LINE
8
DEFAULT_255_1_388
10
4.9379033
20
132.9674898
11
5.1276518
21
132.9674898
0
LINE
8
DEFAULT_255_1_388
10
5.1276518
20
132.9674898
11
4.639727
21
131.6519
0
LINE
8
DEFAULT_255_1_388
10
4.639727
20
131.6519
11
4.486121
21
131.6519
0
LINE
8
DEFAULT_255_1_388
10
4.486121
20
131.6519
11
3.9990998
21
132.9674898
0
LINE
8
DEFAULT_255_1_388
10
3.9990998
20
132.9674898
11
4.1879448
21
132.9674898
0
LINE
8
DEFAULT_255_1_388
10
5.7565327
20
132.7415987
11
5.7565327
21
132.3575838
0
LINE
8
DEFAULT_255_1_388
10
5.7565327
20
132.3575838
11
6.1233798
21
132.3575838
0
LINE
8
DEFAULT_255_1_388
10
6.1233798
20
132.3575838
11
6.1233798
21
132.1994601
0
LINE
8
DEFAULT_255_1_388
10
6.1233798
20
132.1994601
11
5.7565327
21
132.1994601
0
LINE
8
DEFAULT_255_1_388
10
5.7565327
20
132.1994601
11
5.7565327
21
131.7838204
0
LINE
8
DEFAULT_255_1_388
10
5.7565327
20
131.7838204
11
5.5884697
21
131.7838204
0
LINE
8
DEFAULT_255_1_388
10
5.5884697
20
131.7838204
11
5.5884697
21
132.1994601
0
LINE
8
DEFAULT_255_1_388
10
5.5884697
20
132.1994601
11
5.2216225
21
132.1994601
0
LINE
8
DEFAULT_255_1_388
10
5.2216225
20
132.1994601
11
5.2216225
21
132.3575838
0
LINE
8
DEFAULT_255_1_388
10
5.2216225
20
132.3575838
11
5.5884697
21
132.3575838
0
LINE
8
DEFAULT_255_1_388
10
5.5884697
20
132.3575838
11
5.5884697
21
132.7415987
0
LINE
8
DEFAULT_255_1_388
10
5.5884697
20
132.7415987
11
5.7565327
21
132.7415987
0
LINE
8
DEFAULT_255_1_388
10
23.1190856
20
140.367369
11
23.1190856
21
140.1505135
0
LINE
8
DEFAULT_255_1_388
10
22.2887099
20
140.1279244
11
22.2887099
21
140.3511048
0
LINE
8
DEFAULT_255_1_388
10
22.9519262
20
140.1053353
11
22.9519262
21
140.3791153
0
LINE
8
DEFAULT_255_1_388
10
22.4558693
20
140.3917652
11
22.4558693
21
140.1243102
0
ARC
8
DEFAULT_255_1_388
10
21.741319
20
140.1450118
40
1.3777776
50
353.8440855
51
0.2287917
0
ARC
8
DEFAULT_255_1_388
10
22.2632208
20
140.0867414
40
0.852639
50
344.4934746
51
353.9763743
0
ARC
8
DEFAULT_255_1_388
10
22.5999015
20
139.9910191
40
0.5026273
50
329.2803599
51
344.7473406
0
ARC
8
DEFAULT_255_1_388
10
22.7114511
20
139.9298038
40
0.3754848
50
324.9361395
51
328.6153007
0
ARC
8
DEFAULT_255_1_388
10
22.7540161
20
139.9000586
40
0.3235566
50
280.5801797
51
324.9173226
0
ARC
8
DEFAULT_255_1_388
10
22.7088789
20
140.0880236
40
0.5167077
50
269.5979457
51
281.6732777
0
ARC
8
DEFAULT_255_1_388
10
22.7007693
20
140.0745113
40
0.5032026
50
256.6228565
51
270.5105488
0
ARC
8
DEFAULT_255_1_388
10
22.6555435
20
139.9003345
40
0.3233092
50
215.8618351
51
257.2787793
0
ARC
8
DEFAULT_255_1_388
10
22.7704142
20
139.9774106
40
0.4615831
50
197.9695203
51
215.2622745
0
ARC
8
DEFAULT_255_1_388
10
23.0499818
20
140.0717641
40
0.7566307
50
187.8816486
51
198.2346584
0
ARC
8
DEFAULT_255_1_388
10
23.4953056
20
140.1360453
40
1.2065653
50
180.8977266
51
188.0054894
0
ARC
8
DEFAULT_255_1_388
10
23.800327
20
140.14754
40
1.5117443
50
180.7434591
51
181.152202
0
ARC
8
DEFAULT_255_1_388
10
23.6328266
20
140.3565371
40
1.3441277
50
173.7674302
51
180.2315596
0
ARC
8
DEFAULT_255_1_388
10
23.1246135
20
140.4139779
40
0.8326847
50
164.3058537
51
173.9000553
0
ARC
8
DEFAULT_255_1_388
10
22.7970135
20
140.5083652
40
0.4917711
50
148.7922028
51
164.5682288
0
ARC
8
DEFAULT_255_1_388
10
22.6900872
20
140.5680457
40
0.3694204
50
144.5883979
51
148.1161588
0
ARC
8
DEFAULT_255_1_388
10
22.6513618
20
140.5950667
40
0.322202
50
101.6440149
51
144.5142619
0
ARC
8
DEFAULT_255_1_388
10
22.699181
20
140.4050337
40
0.5180451
50
89.528284
51
102.5820197
0
ARC
8
DEFAULT_255_1_388
10
22.7080802
20
140.4006376
40
0.5224441
50
77.0437914
51
90.508231
0
ARC
8
DEFAULT_255_1_388
10
22.7533055
20
140.5854272
40
0.3322297
50
48.2777708
51
77.4996087
0
ARC
8
DEFAULT_255_1_388
10
22.7614795
20
140.5999557
40
0.315966
50
36.3141586
51
47.6307332
0
ARC
8
DEFAULT_255_1_388
10
22.6637518
20
140.5341159
40
0.4337313
50
18.2931065
51
35.6770203
0
ARC
8
DEFAULT_255_1_388
10
22.3776358
20
140.4359107
40
0.7362203
50
8.0246996
51
18.5605636
0
ARC
8
DEFAULT_255_1_388
10
21.9092714
20
140.3667432
40
1.2096583
50
1.127539
51
8.1718423
0
ARC
8
DEFAULT_255_1_388
10
21.5443847
20
140.3524374
40
1.5747719
50
0.5432713
51
1.38669
0
ARC
8
DEFAULT_255_1_388
10
21.7501226
20
140.3831163
40
1.2018103
50
359.8092569
51
4.9408001
0
ARC
8
DEFAULT_255_1_388
10
22.2237807
20
140.42539
40
0.7262727
50
4.8364937
51
12.2906017
0
ARC
8
DEFAULT_255_1_388
10
22.5337272
20
140.4944485
40
0.4087324
50
12.0806994
51
23.8171225
0
ARC
8
DEFAULT_255_1_388
10
22.6657668
20
140.5503508
40
0.2653719
50
24.2874621
51
31.3934353
0
ARC
8
DEFAULT_255_1_388
10
22.7248104
20
140.5889822
40
0.1948607
50
30.7407708
51
82.4658033
0
ARC
8
DEFAULT_255_1_388
10
22.7045765
20
140.4896017
40
0.2961198
50
81.1057101
51
90.2187368
0
ARC
8
DEFAULT_255_1_388
10
22.7005577
20
140.5186421
40
0.2670929
50
89.380395
51
105.6763916
0
ARC
8
DEFAULT_255_1_388
10
22.6799299
20
140.593632
40
0.1893189
50
105.7980655
51
149.7387869
0
ARC
8
DEFAULT_255_1_388
10
22.7996439
20
140.5216719
40
0.3289892
50
149.4208441
51
163.628295
0
ARC
8
DEFAULT_255_1_388
10
23.0348668
20
140.4499345
40
0.5749004
50
163.3764549
51
172.141138
0
ARC
8
DEFAULT_255_1_388
10
23.406139
20
140.3967582
40
0.9499585
50
172.0258462
51
178.0705453
0
ARC
8
DEFAULT_255_1_388
10
23.7482943
20
140.3805682
40
1.2924734
50
177.8639301
51
179.5036263
0
ARC
8
DEFAULT_255_1_388
10
23.6263961
20
140.1202151
40
1.170534
50
179.7995545
51
185.246089
0
ARC
8
DEFAULT_255_1_388
10
23.1715554
20
140.0771404
40
0.7136613
50
185.1411911
51
193.0082205
0
ARC
8
DEFAULT_255_1_388
10
22.8741815
20
140.0068441
40
0.4080987
50
192.7897338
51
205.2507384
0
ARC
8
DEFAULT_255_1_388
10
22.7564025
20
139.9542538
40
0.2791522
50
205.8001921
51
211.2545876
0
ARC
8
DEFAULT_255_1_388
10
22.6975564
20
139.9148132
40
0.2084074
50
210.3789935
51
238.4007996
0
ARC
8
DEFAULT_255_1_388
10
22.695365
20
139.9200786
40
0.2117943
50
239.6521916
51
265.9793852
0
ARC
8
DEFAULT_255_1_388
10
22.7049499
20
139.9957358
40
0.2879689
50
265.1324455
51
270.0603288
0
ARC
8
DEFAULT_255_1_388
10
22.7081876
20
139.9592418
40
0.2514919
50
269.3314378
51
287.2180039
0
ARC
8
DEFAULT_255_1_388
10
22.7236958
20
139.9026291
40
0.1928357
50
287.7957942
51
329.0808983
0
ARC
8
DEFAULT_255_1_388
10
22.6159715
20
139.9698651
40
0.319808
50
328.6635261
51
343.3325043
0
ARC
8
DEFAULT_255_1_388
10
22.3715174
20
140.0460195
40
0.5758408
50
343.0498092
51
351.9392499
0
ARC
8
DEFAULT_255_1_388
10
21.9814496
20
140.1035205
40
0.9701202
50
351.8071632
51
357.7957897
0
ARC
8
DEFAULT_255_1_388
10
21.6179973
20
140.1223724
40
1.3340376
50
357.5870923
51
359.2682493
0
LINE
8
DEFAULT_255_1_388
10
23.4380439
20
140.9049898
11
23.8121196
21
139.8198089
0
LINE
8
DEFAULT_255_1_388
10
23.8121196
20
139.8198089
11
24.1880024
21
140.9049898
0
LINE
8
DEFAULT_255_1_388
10
24.1880024
20
140.9049898
11
24.3777509
21
140.9049898
0
LINE
8
DEFAULT_255_1_388
10
24.3777509
20
140.9049898
11
23.8898261
21
139.5894
0
LINE
8
DEFAULT_255_1_388
10
23.8898261
20
139.5894
11
23.7362202
21
139.5894
0
LINE
8
DEFAULT_255_1_388
10
23.7362202
20
139.5894
11
23.2491989
21
140.9049898
0
LINE
8
DEFAULT_255_1_388
10
23.2491989
20
140.9049898
11
23.4380439
21
140.9049898
0
ENDSEC
0
EOF