0
SECTION
2
HEADER
9
$MEASUREMENT
70
1
0
ENDSEC
0
SECTION
2
TABLES
0
TABLE
2
LTYPE
0
LTYPE
72
65
70
64
2
CONTINUOUS
3
______
73
0
40
0
0
ENDTAB
0
TABLE
2
LAYER
0
LAYER
2
DEFAULT_255_2_778
70
0
62
255
6
CONTINUOUS
0
LAYER
2
DEFAULT_255_1_234
70
0
62
255
6
CONTINUOUS
0
LAYER
2
DEFAULT_255_2_778_1
70
0
62
255
6
CONTINUOUS
0
ENDTAB
0
ENDSEC
0
SECTION
2
ENTITIES
0
ARC
8
DEFAULT_255_2_778
10
3.5700693
20
147.242652
40
0.7914215
50
129.1312896
51
180.1450914
0
ARC
8
DEFAULT_255_2_778
10
3.5703345
20
147.2431391
40
0.7912112
50
89.854026
51
129.1684493
0
ARC
8
DEFAULT_255_2_778
10
25.7993937
20
147.2428257
40
0.7915249
50
39.4792447
51
90.147911
0
ARC
8
DEFAULT_255_2_778
10
25.7999935
20
147.2426723
40
0.7911595
50
359.8533901
51
39.5154338
0
ARC
8
DEFAULT_255_2_778
10
25.7996693
20
-1.9864002
40
0.7914836
50
309.4761667
51
0.1482649
0
ARC
8
DEFAULT_255_2_778
10
25.799398
20
-1.9868313
40
0.7913235
50
269.8517415
51
309.511178
0
ARC
8
DEFAULT_255_2_778
10
3.570342
20
-1.9867731
40
0.7913815
50
219.1282118
51
270.1454017
0
ARC
8
DEFAULT_255_2_778
10
3.5700247
20
-1.9863907
40
0.7913769
50
179.8524075
51
219.1641908
0
LINE
8
DEFAULT_255_2_778
10
3.5723503
20
148.0343479
11
25.7973503
21
148.0343479
0
LINE
8
DEFAULT_255_2_778
10
26.5911503
20
147.2406479
11
26.5911503
21
-1.9843521
0
LINE
8
DEFAULT_255_2_778
10
25.7973503
20
-2.7781521
11
3.5723503
21
-2.7781521
0
LINE
8
DEFAULT_255_2_778
10
2.7786503
20
-1.9843521
11
2.7786503
21
147.2406479
0
LINE
8
DEFAULT_255_1_234
10
10.3831344
20
-0.1934909
11
10.1076458
21
-0.1934909
0
LINE
8
DEFAULT_255_1_234
10
10.1076458
20
-0.1934909
11
10.1076458
21
-0.6513
0
LINE
8
DEFAULT_255_1_234
10
10.1076458
20
-0.6513
11
9.9534364
21
-0.6513
0
LINE
8
DEFAULT_255_1_234
10
9.9534364
20
-0.6513
11
9.9534364
21
0.5181211
0
LINE
8
DEFAULT_255_1_234
10
9.9534364
20
0.5181211
11
10.3847407
21
0.5181211
0
LINE
8
DEFAULT_255_1_234
10
10.1076458
20
0.3912196
11
10.1076458
21
-0.0673926
0
LINE
8
DEFAULT_255_1_234
10
10.1076458
20
-0.0673926
11
10.3847407
21
-0.0673926
0
LINE
8
DEFAULT_255_1_234
10
10.3935756
20
0.3912196
11
10.1076458
21
0.3912196
0
ARC
8
DEFAULT_255_1_234
10
10.3889534
20
-0.0877805
40
0.6059162
50
78.8378113
51
90.3983573
0
ARC
8
DEFAULT_255_1_234
10
10.4305548
20
0.1142879
40
0.3996205
50
58.9632738
51
79.0810598
0
ARC
8
DEFAULT_255_1_234
10
10.460709
20
0.1702721
40
0.3361177
50
48.0197965
51
58.447194
0
ARC
8
DEFAULT_255_1_234
10
10.4695951
20
0.1788225
40
0.3238191
50
3.3375044
51
48.1766626
0
ARC
8
DEFAULT_255_1_234
10
10.346579
20
0.1611171
40
0.4477806
50
359.9477528
51
4.6829065
0
ARC
8
DEFAULT_255_1_234
10
10.3589107
20
0.1568628
40
0.4354656
50
346.1877825
51
0.5060252
0
ARC
8
DEFAULT_255_1_234
10
10.4947975
20
0.1215731
40
0.295089
50
310.8831995
51
346.5426355
0
ARC
8
DEFAULT_255_1_234
10
10.4639395
20
0.1632695
40
0.3468331
50
286.6925341
51
310.2288297
0
ARC
8
DEFAULT_255_1_234
10
10.4070226
20
0.3422882
40
0.5346654
50
274.6850312
51
287.0245141
0
ARC
8
DEFAULT_255_1_234
10
10.3844949
20
0.5631932
40
0.7566852
50
269.8969846
51
275.018904
0
ARC
8
DEFAULT_255_1_234
10
10.387254
20
0.3552707
40
0.4226708
50
269.6593078
51
279.4153575
0
ARC
8
DEFAULT_255_1_234
10
10.4129815
20
0.2062133
40
0.2714146
50
279.2049762
51
294.9900808
0
ARC
8
DEFAULT_255_1_234
10
10.4420141
20
0.1414508
40
0.2004525
50
295.2888114
51
311.2911209
0
ARC
8
DEFAULT_255_1_234
10
10.4491035
20
0.130922
40
0.1878703
50
311.7854996
51
347.2861051
0
ARC
8
DEFAULT_255_1_234
10
10.3507194
20
0.1562092
40
0.2894234
50
346.6893224
51
0.1059443
0
ARC
8
DEFAULT_255_1_234
10
10.2752089
20
0.1590685
40
0.3649409
50
359.6350983
51
0.0053152
0
ARC
8
DEFAULT_255_1_234
10
10.3722417
20
0.1615937
40
0.2679199
50
359.4672059
51
15.5933957
0
ARC
8
DEFAULT_255_1_234
10
10.4347306
20
0.1784779
40
0.2031932
50
15.7442113
51
46.6203375
0
ARC
8
DEFAULT_255_1_234
10
10.4199527
20
0.1614484
40
0.2257226
50
46.8628658
51
75.6676503
0
ARC
8
DEFAULT_255_1_234
10
10.3905347
20
0.0555718
40
0.3355939
50
75.276167
51
88.2915297
0
ARC
8
DEFAULT_255_1_234
10
10.3847054
20
-0.0322476
40
0.4235602
50
87.8575022
51
88.8000139
0
LINE
8
DEFAULT_255_1_234
10
11.7188125
20
-0.5300208
11
11.7188125
21
-0.6513
0
LINE
8
DEFAULT_255_1_234
10
11.7188125
20
-0.6513
11
10.9525846
21
-0.6513
0
LINE
8
DEFAULT_255_1_234
10
10.9525846
20
-0.6513
11
10.9525846
21
-0.5444779
0
LINE
8
DEFAULT_255_1_234
10
10.9525846
20
-0.5444779
11
11.3573842
21
-0.0947005
0
LINE
8
DEFAULT_255_1_234
10
11.0786829
20
0.1735595
11
10.9300958
21
0.1735595
0
LINE
8
DEFAULT_255_1_234
10
11.4449302
20
-0.1902782
11
11.1316924
21
-0.5300208
0
LINE
8
DEFAULT_255_1_234
10
11.1316924
20
-0.5300208
11
11.7188125
21
-0.5300208
0
ARC
8
DEFAULT_255_1_234
10
10.0083676
20
1.0982527
40
1.8008286
50
318.5132453
51
320.7828378
0
ARC
8
DEFAULT_255_1_234
10
10.537065
20
0.6679426
40
1.1191493
50
320.7372736
51
323.9737074
0
ARC
8
DEFAULT_255_1_234
10
10.9290506
20
0.3839361
40
0.6350923
50
323.8961724
51
328.6421089
0
ARC
8
DEFAULT_255_1_234
10
11.1337102
20
0.2577031
40
0.3946393
50
328.8299013
51
331.789948
0
ARC
8
DEFAULT_255_1_234
10
11.233428
20
0.2062509
40
0.2824501
50
331.4255242
51
352.9364833
0
ARC
8
DEFAULT_255_1_234
10
11.2470781
20
0.2031976
40
0.2685315
50
353.2248685
51
0.0169286
0
ARC
8
DEFAULT_255_1_234
10
11.2680658
20
0.205495
40
0.2475536
50
359.4866256
51
15.9339782
0
ARC
8
DEFAULT_255_1_234
10
11.3187643
20
0.2191286
40
0.1950618
50
16.1714718
51
43.5284424
0
ARC
8
DEFAULT_255_1_234
10
11.3264952
20
0.2268573
40
0.184134
50
43.4415429
51
83.1661404
0
ARC
8
DEFAULT_255_1_234
10
11.313087
20
0.1531771
40
0.258926
50
82.160215
51
90.1505798
0
ARC
8
DEFAULT_255_1_234
10
11.3099297
20
0.0994865
40
0.3126255
50
89.5460705
51
102.5418777
0
ARC
8
DEFAULT_255_1_234
10
11.2856383
20
0.2025665
40
0.2067346
50
102.1739365
51
129.2061916
0
ARC
8
DEFAULT_255_1_234
10
11.2777455
20
0.2150094
40
0.1921118
50
129.7279328
51
135.7542026
0
ARC
8
DEFAULT_255_1_234
10
11.2898983
20
0.2053045
40
0.2075944
50
136.175737
51
166.3674722
0
ARC
8
DEFAULT_255_1_234
10
11.3905902
20
0.1783182
40
0.3118201
50
165.9092917
51
178.8683903
0
ARC
8
DEFAULT_255_1_234
10
11.4770763
20
0.1736179
40
0.3983935
50
178.438168
51
180.0083905
0
ARC
8
DEFAULT_255_1_234
10
11.3369365
20
0.1775231
40
0.4068601
50
163.2878735
51
180.5581814
0
ARC
8
DEFAULT_255_1_234
10
11.2567627
20
0.199584
40
0.3237344
50
133.454115
51
162.9470031
0
ARC
8
DEFAULT_255_1_234
10
11.2746168
20
0.1806
40
0.349795
50
100.7869394
51
133.4384016
0
ARC
8
DEFAULT_255_1_234
10
11.3093939
20
0.0257319
40
0.5084616
50
89.6605301
51
101.3704185
0
ARC
8
DEFAULT_255_1_234
10
11.3160278
20
0.0318496
40
0.502348
50
78.2171172
51
90.4130393
0
ARC
8
DEFAULT_255_1_234
10
11.3515357
20
0.1942637
40
0.3361092
50
55.9268222
51
78.4888551
0
ARC
8
DEFAULT_255_1_234
10
11.3711797
20
0.2281324
40
0.2970617
50
47.9292255
51
55.4054003
0
ARC
8
DEFAULT_255_1_234
10
11.3813357
20
0.2384502
40
0.2825983
50
4.3347696
51
48.0560701
0
ARC
8
DEFAULT_255_1_234
10
11.2717751
20
0.2214601
40
0.393225
50
359.925209
51
5.5967654
0
ARC
8
DEFAULT_255_1_234
10
11.3146643
20
0.2270816
40
0.3503892
50
337.8914096
51
358.9967724
0
ARC
8
DEFAULT_255_1_234
10
11.0433055
20
0.3317706
40
0.6412172
50
326.9135351
51
338.3505194
0
ARC
8
DEFAULT_255_1_234
10
10.6447359
20
0.5872284
40
1.1146189
50
319.6472867
51
327.095818
0
ARC
8
DEFAULT_255_1_234
10
10.2614362
20
0.9034
40
1.6114559
50
317.2586784
51
319.9046139
0
LINE
8
DEFAULT_255_1_234
10
12.2007167
20
-0.0938974
11
12.2007167
21
-0.2151766
0
LINE
8
DEFAULT_255_1_234
10
12.2007167
20
-0.2151766
11
11.8087679
21
-0.2151766
0
LINE
8
DEFAULT_255_1_234
10
11.8087679
20
-0.2151766
11
11.8087679
21
-0.0938974
0
LINE
8
DEFAULT_255_1_234
10
11.8087679
20
-0.0938974
11
12.2007167
21
-0.0938974
0
LINE
8
DEFAULT_255_1_234
10
12.8183574
20
0.5237433
11
12.8183574
21
-0.6513
0
LINE
8
DEFAULT_255_1_234
10
12.8183574
20
-0.6513
11
12.6689671
21
-0.6513
0
LINE
8
DEFAULT_255_1_234
10
12.6689671
20
-0.6513
11
12.6689671
21
0.3390133
0
LINE
8
DEFAULT_255_1_234
10
12.6689671
20
0.3390133
11
12.3693833
21
0.2289785
0
LINE
8
DEFAULT_255_1_234
10
12.3693833
20
0.2289785
11
12.3693833
21
0.3639117
0
LINE
8
DEFAULT_255_1_234
10
12.3693833
20
0.3639117
11
12.7950654
21
0.5237433
0
LINE
8
DEFAULT_255_1_234
10
12.7950654
20
0.5237433
11
12.8183574
21
0.5237433
0
LINE
8
DEFAULT_255_1_234
10
13.8102771
20
0.5189243
11
13.8367818
21
0.5189243
0
LINE
8
DEFAULT_255_1_234
10
13.8367818
20
0.5189243
11
13.8367818
21
0.392826
0
LINE
8
DEFAULT_255_1_234
10
13.8367818
20
0.392826
11
13.8094739
21
0.392826
0
LINE
8
DEFAULT_255_1_234
10
13.2625125
20
-0.2063417
11
13.2625125
21
-0.1493164
0
LINE
8
DEFAULT_255_1_234
10
13.4119029
20
-0.1685925
11
13.4119029
21
-0.2232083
0
ARC
8
DEFAULT_255_1_234
10
13.8147087
20
-0.1069545
40
0.4998079
50
90.6001036
51
104.514704
0
ARC
8
DEFAULT_255_1_234
10
13.7758603
20
0.0375131
40
0.3502176
50
104.2855254
51
133.862935
0
ARC
8
DEFAULT_255_1_234
10
13.792236
20
0.026683
40
0.3693984
50
134.5302688
51
161.6210873
0
ARC
8
DEFAULT_255_1_234
10
13.9575549
20
-0.0316105
40
0.5446739
50
161.2849839
51
174.2076652
0
ARC
8
DEFAULT_255_1_234
10
14.0982486
20
-0.0510213
40
0.6866274
50
173.7810589
51
174.9254635
0
ARC
8
DEFAULT_255_1_234
10
13.6432318
20
-0.1893161
40
0.3033419
50
95.8330959
51
138.9954921
0
ARC
8
DEFAULT_255_1_234
10
13.6655674
20
-0.3171625
40
0.4328947
50
89.8753725
51
97.0544009
0
ARC
8
DEFAULT_255_1_234
10
13.670314
20
-0.2336252
40
0.3493769
50
71.6407809
51
90.6240094
0
ARC
8
DEFAULT_255_1_234
10
13.6853713
20
-0.1781918
40
0.2920396
50
39.6367836
51
71.019018
0
ARC
8
DEFAULT_255_1_234
10
13.6217186
20
-0.2332002
40
0.3761538
50
10.658731
51
39.9043955
0
ARC
8
DEFAULT_255_1_234
10
13.4669269
20
-0.2668314
40
0.5345136
50
359.682601
51
11.132623
0
ARC
8
DEFAULT_255_1_234
10
13.46294
20
-0.273899
40
0.5385081
50
347.2486944
51
0.4369317
0
ARC
8
DEFAULT_255_1_234
10
13.6296877
20
-0.3140193
40
0.3670249
50
318.1409698
51
347.6118597
0
ARC
8
DEFAULT_255_1_234
10
13.662187
20
-0.3407298
40
0.3250007
50
275.6342139
51
317.8248465
0
ARC
8
DEFAULT_255_1_234
10
13.6400981
20
-0.2107781
40
0.4565864
50
269.8874292
51
276.7917694
0
ARC
8
DEFAULT_255_1_234
10
13.6346052
20
-0.3133257
40
0.3540676
50
246.9140195
51
270.7437342
0
ARC
8
DEFAULT_255_1_234
10
13.6352442
20
-0.3275616
40
0.3412781
50
218.1665114
51
245.878116
0
ARC
8
DEFAULT_255_1_234
10
13.7231903
20
-0.2539721
40
0.455911
50
191.4115814
51
218.6077802
0
ARC
8
DEFAULT_255_1_234
10
13.9169992
20
-0.2105167
40
0.6545001
50
179.6345085
51
191.7836486
0
ARC
8
DEFAULT_255_1_234
10
14.4752329
20
-0.1426303
40
1.2127388
50
171.4525249
51
180.3158839
0
ARC
8
DEFAULT_255_1_234
10
14.0357205
20
-0.0742392
40
0.7679464
50
157.9802646
51
171.6246686
0
ARC
8
DEFAULT_255_1_234
10
13.8143226
20
0.0140421
40
0.5296008
50
141.4298019
51
157.854097
0
ARC
8
DEFAULT_255_1_234
10
13.7501546
20
0.0594381
40
0.4511509
50
102.8715806
51
140.8564722
0
ARC
8
DEFAULT_255_1_234
10
13.8149162
20
-0.1845448
40
0.7034845
50
90.3778349
51
103.5869322
0
ARC
8
DEFAULT_255_1_234
10
13.6410938
20
-0.245027
40
0.2370698
50
89.8751008
51
126.2071704
0
ARC
8
DEFAULT_255_1_234
10
13.6456728
20
-0.2604697
40
0.2522934
50
124.9745049
51
144.895901
0
ARC
8
DEFAULT_255_1_234
10
13.6280918
20
-0.246144
40
0.2296779
50
145.2974905
51
160.2660252
0
ARC
8
DEFAULT_255_1_234
10
13.9353457
20
-0.2263929
40
0.5234525
50
179.6514266
51
190.2855912
0
ARC
8
DEFAULT_255_1_234
10
13.7659594
20
-0.2583214
40
0.3510893
50
190.0945431
51
207.5098196
0
ARC
8
DEFAULT_255_1_234
10
13.7093864
20
-0.2852377
40
0.288489
50
207.9583163
51
216.3251085
0
ARC
8
DEFAULT_255_1_234
10
13.6753972
20
-0.3131895
40
0.2445587
50
215.7661442
51
232.5456785
0
ARC
8
DEFAULT_255_1_234
10
13.6370955
20
-0.3618518
40
0.1826382
50
232.8005391
51
270.6605633
0
ARC
8
DEFAULT_255_1_234
10
13.6416656
20
-0.3254388
40
0.2190529
50
269.35537
51
288.4744281
0
ARC
8
DEFAULT_255_1_234
10
13.6509553
20
-0.3603882
40
0.1829749
50
289.1833337
51
322.9683818
0
ARC
8
DEFAULT_255_1_234
10
13.5898075
20
-0.3121609
40
0.2608399
50
322.6007884
51
346.5182367
0
ARC
8
DEFAULT_255_1_234
10
13.4740671
20
-0.2826384
40
0.3802777
50
346.2582162
51
358.7741648
0
ARC
8
DEFAULT_255_1_234
10
13.372234
20
-0.2771035
40
0.4822176
50
358.3755224
51
0.0098023
0
ARC
8
DEFAULT_255_1_234
10
13.4478527
20
-0.2743343
40
0.4066078
50
359.6214041
51
11.2839074
0
ARC
8
DEFAULT_255_1_234
10
13.5755674
20
-0.2476934
40
0.2761514
50
11.0482309
51
31.8146458
0
ARC
8
DEFAULT_255_1_234
10
13.6064717
20
-0.2309416
40
0.2410679
50
32.3035391
51
38.082671
0
ARC
8
DEFAULT_255_1_234
10
13.6485377
20
-0.1928338
40
0.1844966
50
36.825067
51
85.7415724
0
ARC
8
DEFAULT_255_1_234
10
13.641821
20
-0.2428699
40
0.2349122
50
85.0140713
51
90.0513278
0
LINE
8
DEFAULT_255_1_234
10
14.9732728
20
-0.6513
11
14.8616316
21
-0.3460939
0
LINE
8
DEFAULT_255_1_234
10
14.8616316
20
-0.3460939
11
14.3716956
21
-0.3460939
0
LINE
8
DEFAULT_255_1_234
10
14.3716956
20
-0.3460939
11
14.2616608
21
-0.6513
0
LINE
8
DEFAULT_255_1_234
10
14.2616608
20
-0.6513
11
14.1026324
21
-0.6513
0
LINE
8
DEFAULT_255_1_234
10
14.1026324
20
-0.6513
11
14.549197
21
0.5181211
0
LINE
8
DEFAULT_255_1_234
10
14.549197
20
0.5181211
11
14.6841302
21
0.5181211
0
LINE
8
DEFAULT_255_1_234
10
14.6841302
20
0.5181211
11
15.131498
21
-0.6513
0
LINE
8
DEFAULT_255_1_234
10
15.131498
20
-0.6513
11
14.9732728
21
-0.6513
0
LINE
8
DEFAULT_255_1_234
10
14.6166636
20
0.3277689
11
14.4182797
21
-0.2191925
0
LINE
8
DEFAULT_255_1_234
10
14.4182797
20
-0.2191925
11
14.8158507
21
-0.2191925
0
LINE
8
DEFAULT_255_1_234
10
14.8158507
20
-0.2191925
11
14.6166636
21
0.3277689
0
LINE
8
DEFAULT_255_1_234
10
15.6125992
20
-0.6513
11
15.2889201
21
-0.6513
0
LINE
8
DEFAULT_255_1_234
10
15.2889201
20
-0.6513
11
15.2889201
21
0.5181211
0
LINE
8
DEFAULT_255_1_234
10
15.2889201
20
0.5181211
11
15.6190246
21
0.5181211
0
LINE
8
DEFAULT_255_1_234
10
16.1346622
20
-0.0272339
11
16.1346622
21
-0.1019291
0
LINE
8
DEFAULT_255_1_234
10
15.6230404
20
0.3912196
11
15.4431295
21
0.3912196
0
LINE
8
DEFAULT_255_1_234
10
15.4431295
20
0.3912196
11
15.4431295
21
-0.5252017
0
LINE
8
DEFAULT_255_1_234
10
15.4431295
20
-0.5252017
11
15.6053706
21
-0.5252017
0
LINE
8
DEFAULT_255_1_234
10
15.9820591
20
-0.0987164
11
15.9820591
21
-0.0304466
0
ARC
8
DEFAULT_255_1_234
10
15.6229188
20
-0.0684106
40
0.5865446
50
75.4101064
51
90.3804066
0
ARC
8
DEFAULT_255_1_234
10
15.6458702
20
0.0272492
40
0.4881916
50
60.145586
51
75.1888407
0
ARC
8
DEFAULT_255_1_234
10
15.6617477
20
0.0549199
40
0.4562893
50
26.5253612
51
60.1450928
0
ARC
8
DEFAULT_255_1_234
10
15.5497226
20
-0.0044842
40
0.5830602
50
7.4030428
51
26.8320788
0
ARC
8
DEFAULT_255_1_234
10
15.3902983
20
-0.0293196
40
0.7443669
50
0.1605367
51
7.7176192
0
ARC
8
DEFAULT_255_1_234
10
15.4066888
20
-0.1057566
40
0.7279835
50
348.7289388
51
0.3012466
0
ARC
8
DEFAULT_255_1_234
10
15.5723318
20
-0.1386614
40
0.559104
50
333.0706509
51
348.7181832
0
ARC
8
DEFAULT_255_1_234
10
15.6690076
20
-0.1911681
40
0.4491417
50
299.2531685
51
333.4571258
0
ARC
8
DEFAULT_255_1_234
10
15.6329215
20
-0.1226172
40
0.5265881
50
278.107187
51
299.0339503
0
ARC
8
DEFAULT_255_1_234
10
15.6073294
20
0.0281216
40
0.679442
50
270.4443897
51
278.4511052
0
ARC
8
DEFAULT_255_1_234
10
15.6094124
20
-0.0647787
40
0.4604407
50
269.4970433
51
284.0205042
0
ARC
8
DEFAULT_255_1_234
10
15.6449425
20
-0.2013022
40
0.3193797
50
283.7700273
51
318.1555492
0
ARC
8
DEFAULT_255_1_234
10
15.6112183
20
-0.1760633
40
0.3613588
50
318.7415601
51
343.6873628
0
ARC
8
DEFAULT_255_1_234
10
15.4308207
20
-0.1197168
40
0.5503313
50
343.3325091
51
355.8548958
0
ARC
8
DEFAULT_255_1_234
10
15.2209891
20
-0.0997681
40
0.7610708
50
355.4988528
51
0.0791727
0
ARC
8
DEFAULT_255_1_234
10
15.2992514
20
-0.026222
40
0.6828208
50
359.6455037
51
9.8607896
0
ARC
8
DEFAULT_255_1_234
10
15.5353211
20
0.0164099
40
0.4429406
50
9.6571907
51
26.1932807
0
ARC
8
DEFAULT_255_1_234
10
15.62812
20
0.0595118
40
0.3406537
50
26.5777228
51
40.1532208
0
ARC
8
DEFAULT_255_1_234
10
15.6536927
20
0.0794619
40
0.308246
50
40.3840491
51
80.1431104
0
ARC
8
DEFAULT_255_1_234
10
15.6210044
20
-0.0654667
40
0.4566909
50
79.2152159
51
89.7445637
0
LINE
8
DEFAULT_255_1_234
10
16.5225951
20
0.5181211
11
16.5225951
21
-0.5252017
0
LINE
8
DEFAULT_255_1_234
10
16.5225951
20
-0.5252017
11
17.0767851
21
-0.5252017
0
LINE
8
DEFAULT_255_1_234
10
17.0767851
20
-0.5252017
11
17.0767851
21
-0.6513
0
LINE
8
DEFAULT_255_1_234
10
17.0767851
20
-0.6513
11
16.3675826
21
-0.6513
0
LINE
8
DEFAULT_255_1_234
10
16.3675826
20
-0.6513
11
16.3675826
21
0.5181211
0
LINE
8
DEFAULT_255_1_234
10
16.3675826
20
0.5181211
11
16.5225951
21
0.5181211
0
LINE
8
DEFAULT_255_1_234
10
17.53861
20
-0.0938974
11
17.53861
21
-0.2151766
0
LINE
8
DEFAULT_255_1_234
10
17.53861
20
-0.2151766
11
17.1466612
21
-0.2151766
0
LINE
8
DEFAULT_255_1_234
10
17.1466612
20
-0.2151766
11
17.1466612
21
-0.0938974
0
LINE
8
DEFAULT_255_1_234
10
17.1466612
20
-0.0938974
11
17.53861
21
-0.0938974
0
LINE
8
DEFAULT_255_1_234
10
18.4341488
20
-0.5300208
11
18.4341488
21
-0.6513
0
LINE
8
DEFAULT_255_1_234
10
18.4341488
20
-0.6513
11
17.667921
21
-0.6513
0
LINE
8
DEFAULT_255_1_234
10
17.667921
20
-0.6513
11
17.667921
21
-0.5444779
0
LINE
8
DEFAULT_255_1_234
10
17.667921
20
-0.5444779
11
18.0727206
21
-0.0947005
0
LINE
8
DEFAULT_255_1_234
10
17.7940193
20
0.1735595
11
17.6454321
21
0.1735595
0
LINE
8
DEFAULT_255_1_234
10
18.1602666
20
-0.1902782
11
17.8470288
21
-0.5300208
0
LINE
8
DEFAULT_255_1_234
10
17.8470288
20
-0.5300208
11
18.4341488
21
-0.5300208
0
ARC
8
DEFAULT_255_1_234
10
16.7237039
20
1.0982527
40
1.8008286
50
318.5132453
51
320.7828378
0
ARC
8
DEFAULT_255_1_234
10
17.2524014
20
0.6679426
40
1.1191493
50
320.7372736
51
323.9737074
0
ARC
8
DEFAULT_255_1_234
10
17.644387
20
0.3839361
40
0.6350923
50
323.8961724
51
328.6421089
0
ARC
8
DEFAULT_255_1_234
10
17.8490466
20
0.2577031
40
0.3946393
50
328.8299013
51
331.789948
0
ARC
8
DEFAULT_255_1_234
10
17.9487644
20
0.2062509
40
0.2824501
50
331.4255242
51
352.9364833
0
ARC
8
DEFAULT_255_1_234
10
17.9624145
20
0.2031976
40
0.2685315
50
353.2248685
51
0.0169286
0
ARC
8
DEFAULT_255_1_234
10
17.9834021
20
0.205495
40
0.2475536
50
359.4866256
51
15.9339782
0
ARC
8
DEFAULT_255_1_234
10
18.0341007
20
0.2191286
40
0.1950618
50
16.1714718
51
43.5284424
0
ARC
8
DEFAULT_255_1_234
10
18.0418315
20
0.2268573
40
0.184134
50
43.4415429
51
83.1661404
0
ARC
8
DEFAULT_255_1_234
10
18.0284234
20
0.1531771
40
0.258926
50
82.160215
51
90.1505798
0
ARC
8
DEFAULT_255_1_234
10
18.0252661
20
0.0994865
40
0.3126255
50
89.5460705
51
102.5418777
0
ARC
8
DEFAULT_255_1_234
10
18.0009747
20
0.2025665
40
0.2067346
50
102.1739365
51
129.2061916
0
ARC
8
DEFAULT_255_1_234
10
17.9930819
20
0.2150094
40
0.1921118
50
129.7279328
51
135.7542026
0
ARC
8
DEFAULT_255_1_234
10
18.0052346
20
0.2053045
40
0.2075944
50
136.175737
51
166.3674722
0
ARC
8
DEFAULT_255_1_234
10
18.1059266
20
0.1783182
40
0.3118201
50
165.9092917
51
178.8683903
0
ARC
8
DEFAULT_255_1_234
10
18.1924127
20
0.1736179
40
0.3983935
50
178.438168
51
180.0083905
0
ARC
8
DEFAULT_255_1_234
10
18.0522729
20
0.1775231
40
0.4068601
50
163.2878735
51
180.5581814
0
ARC
8
DEFAULT_255_1_234
10
17.972099
20
0.199584
40
0.3237344
50
133.454115
51
162.9470031
0
ARC
8
DEFAULT_255_1_234
10
17.9899532
20
0.1806
40
0.349795
50
100.7869394
51
133.4384016
0
ARC
8
DEFAULT_255_1_234
10
18.0247303
20
0.0257319
40
0.5084616
50
89.6605301
51
101.3704185
0
ARC
8
DEFAULT_255_1_234
10
18.0313642
20
0.0318496
40
0.502348
50
78.2171172
51
90.4130393
0
ARC
8
DEFAULT_255_1_234
10
18.066872
20
0.1942637
40
0.3361092
50
55.9268222
51
78.4888551
0
ARC
8
DEFAULT_255_1_234
10
18.0865161
20
0.2281324
40
0.2970617
50
47.9292255
51
55.4054003
0
ARC
8
DEFAULT_255_1_234
10
18.0966721
20
0.2384502
40
0.2825983
50
4.3347696
51
48.0560701
0
ARC
8
DEFAULT_255_1_234
10
17.9871115
20
0.2214601
40
0.393225
50
359.925209
51
5.5967654
0
ARC
8
DEFAULT_255_1_234
10
18.0300007
20
0.2270816
40
0.3503892
50
337.8914096
51
358.9967724
0
ARC
8
DEFAULT_255_1_234
10
17.7586419
20
0.3317706
40
0.6412172
50
326.9135351
51
338.3505194
0
ARC
8
DEFAULT_255_1_234
10
17.3600722
20
0.5872284
40
1.1146189
50
319.6472867
51
327.095818
0
ARC
8
DEFAULT_255_1_234
10
16.9767726
20
0.9034
40
1.6114559
50
317.2586784
51
319.9046139
0
LINE
8
DEFAULT_255_1_234
10
8.5475344
20
142.0200091
11
8.2720458
21
142.0200091
0
LINE
8
DEFAULT_255_1_234
10
8.2720458
20
142.0200091
11
8.2720458
21
141.5622
0
LINE
8
DEFAULT_255_1_234
10
8.2720458
20
141.5622
11
8.1178364
21
141.5622
0
LINE
8
DEFAULT_255_1_234
10
8.1178364
20
141.5622
11
8.1178364
21
142.7316211
0
LINE
8
DEFAULT_255_1_234
10
8.1178364
20
142.7316211
11
8.5491407
21
142.7316211
0
LINE
8
DEFAULT_255_1_234
10
8.2720458
20
142.6047196
11
8.2720458
21
142.1461074
0
LINE
8
DEFAULT_255_1_234
10
8.2720458
20
142.1461074
11
8.5491407
21
142.1461074
0
LINE
8
DEFAULT_255_1_234
10
8.5579756
20
142.6047196
11
8.2720458
21
142.6047196
0
ARC
8
DEFAULT_255_1_234
10
8.5533534
20
142.1257195
40
0.6059162
50
78.8378113
51
90.3983573
0
ARC
8
DEFAULT_255_1_234
10
8.5949548
20
142.3277879
40
0.3996205
50
58.9632738
51
79.0810598
0
ARC
8
DEFAULT_255_1_234
10
8.625109
20
142.3837721
40
0.3361177
50
48.0197965
51
58.447194
0
ARC
8
DEFAULT_255_1_234
10
8.6339951
20
142.3923225
40
0.3238191
50
3.3375044
51
48.1766626
0
ARC
8
DEFAULT_255_1_234
10
8.510979
20
142.3746171
40
0.4477806
50
359.9477528
51
4.6829065
0
ARC
8
DEFAULT_255_1_234
10
8.5233107
20
142.3703628
40
0.4354656
50
346.1877825
51
0.5060252
0
ARC
8
DEFAULT_255_1_234
10
8.6591975
20
142.3350731
40
0.295089
50
310.8831995
51
346.5426355
0
ARC
8
DEFAULT_255_1_234
10
8.6283395
20
142.3767695
40
0.3468331
50
286.6925341
51
310.2288297
0
ARC
8
DEFAULT_255_1_234
10
8.5714226
20
142.5557882
40
0.5346654
50
274.6850312
51
287.0245141
0
ARC
8
DEFAULT_255_1_234
10
8.5488949
20
142.7766932
40
0.7566852
50
269.8969846
51
275.018904
0
ARC
8
DEFAULT_255_1_234
10
8.551654
20
142.5687707
40
0.4226708
50
269.6593078
51
279.4153575
0
ARC
8
DEFAULT_255_1_234
10
8.5773815
20
142.4197133
40
0.2714146
50
279.2049762
51
294.9900808
0
ARC
8
DEFAULT_255_1_234
10
8.6064141
20
142.3549508
40
0.2004525
50
295.2888114
51
311.2911209
0
ARC
8
DEFAULT_255_1_234
10
8.6135035
20
142.344422
40
0.1878703
50
311.7854996
51
347.2861051
0
ARC
8
DEFAULT_255_1_234
10
8.5151194
20
142.3697092
40
0.2894234
50
346.6893224
51
0.1059443
0
ARC
8
DEFAULT_255_1_234
10
8.4396089
20
142.3725685
40
0.3649409
50
359.6350983
51
0.0053152
0
ARC
8
DEFAULT_255_1_234
10
8.5366417
20
142.3750937
40
0.2679199
50
359.4672059
51
15.5933957
0
ARC
8
DEFAULT_255_1_234
10
8.5991306
20
142.3919779
40
0.2031932
50
15.7442113
51
46.6203375
0
ARC
8
DEFAULT_255_1_234
10
8.5843527
20
142.3749484
40
0.2257226
50
46.8628658
51
75.6676503
0
ARC
8
DEFAULT_255_1_234
10
8.5549347
20
142.2690718
40
0.3355939
50
75.276167
51
88.2915297
0
ARC
8
DEFAULT_255_1_234
10
8.5491054
20
142.1812524
40
0.4235602
50
87.8575022
51
88.8000139
0
LINE
8
DEFAULT_255_1_234
10
9.5523048
20
142.4360531
11
9.5523048
21
142.2979072
0
LINE
8
DEFAULT_255_1_234
10
9.2808321
20
142.1790375
11
9.2808321
21
141.5622
0
LINE
8
DEFAULT_255_1_234
10
9.2808321
20
141.5622
11
9.1322449
21
141.5622
0
LINE
8
DEFAULT_255_1_234
10
9.1322449
20
141.5622
11
9.1322449
21
142.4312341
0
LINE
8
DEFAULT_255_1_234
10
9.1322449
20
142.4312341
11
9.2768162
21
142.4312341
0
LINE
8
DEFAULT_255_1_234
10
9.2768162
20
142.4312341
11
9.2792257
21
142.3308374
0
ARC
8
DEFAULT_255_1_234
10
9.4856454
20
141.8919342
40
0.4114092
50
80.6754243
51
86.8932892
0
ARC
8
DEFAULT_255_1_234
10
9.4795988
20
141.79517
40
0.5083596
50
86.8038578
51
90.0431435
0
ARC
8
DEFAULT_255_1_234
10
9.4758969
20
142.0408866
40
0.2626638
50
89.2759698
51
106.6213787
0
ARC
8
DEFAULT_255_1_234
10
9.4554533
20
142.115183
40
0.1856317
50
107.1346045
51
157.6458115
0
ARC
8
DEFAULT_255_1_234
10
9.5246134
20
142.0768311
40
0.2643398
50
155.6586782
51
157.2539184
0
ARC
8
DEFAULT_255_1_234
10
9.5041337
20
142.1937157
40
0.2634121
50
127.8165941
51
148.6302098
0
ARC
8
DEFAULT_255_1_234
10
9.4787806
20
142.2197218
40
0.2273596
50
91.3329982
51
126.7875809
0
ARC
8
DEFAULT_255_1_234
10
9.4863746
20
142.1482195
40
0.299078
50
89.986594
51
92.4688449
0
ARC
8
DEFAULT_255_1_234
10
9.4872141
20
142.1757078
40
0.2715908
50
85.3589899
51
90.1623399
0
ARC
8
DEFAULT_255_1_234
10
9.4956657
20
142.2761164
40
0.1708278
50
78.401942
51
85.4594656
0
ARC
8
DEFAULT_255_1_234
10
9.5101541
20
142.3452236
40
0.1002194
50
67.7858312
51
78.5728455
0
ARC
8
DEFAULT_255_1_234
10
9.5209393
20
142.3731887
40
0.0702548
50
63.4835954
51
67.3062642
0
LINE
8
DEFAULT_255_1_234
10
9.6334254
20
141.9943075
11
9.6334254
21
142.0047488
0
LINE
8
DEFAULT_255_1_234
10
10.4245516
20
141.9975202
11
10.4245516
21
141.987079
0
ARC
8
DEFAULT_255_1_234
10
10.1920433
20
142.0079837
40
0.5586273
50
166.3003825
51
180.3317926
0
ARC
8
DEFAULT_255_1_234
10
10.1057593
20
142.0272964
40
0.4702272
50
153.8608245
51
166.0967125
0
ARC
8
DEFAULT_255_1_234
10
10.0391995
20
142.062975
40
0.3947658
50
135.1316692
51
154.253643
0
ARC
8
DEFAULT_255_1_234
10
10.0113555
20
142.0875666
40
0.3576898
50
121.7044358
51
134.776924
0
ARC
8
DEFAULT_255_1_234
10
10.0180548
20
142.0746867
40
0.3721701
50
93.4002104
51
121.5398234
0
ARC
8
DEFAULT_255_1_234
10
10.0275504
20
141.9921228
40
0.4551749
50
89.9706281
51
93.9769836
0
ARC
8
DEFAULT_255_1_234
10
10.0322596
20
142.0311362
40
0.4161854
50
71.3323442
51
90.6161982
0
ARC
8
DEFAULT_255_1_234
10
10.0485293
20
142.0913578
40
0.3539455
50
41.1815071
51
70.707185
0
ARC
8
DEFAULT_255_1_234
10
10.0007693
20
142.0479919
40
0.4184468
50
12.1971897
51
41.3445735
0
ARC
8
DEFAULT_255_1_234
10
9.80817
20
142.0021425
40
0.616399
50
359.5703439
51
12.5804035
0
ARC
8
DEFAULT_255_1_234
10
9.8554775
20
141.9839116
40
0.5690829
50
347.0197749
51
0.3188898
0
ARC
8
DEFAULT_255_1_234
10
9.9513277
20
141.9632808
40
0.4710501
50
334.3504053
51
346.846361
0
ARC
8
DEFAULT_255_1_234
10
10.0358701
20
141.9193805
40
0.3758475
50
310.422922
51
334.8045033
0
ARC
8
DEFAULT_255_1_234
10
10.0440526
20
141.9129782
40
0.3656736
50
301.8486886
51
310.097356
0
ARC
8
DEFAULT_255_1_234
10
10.0408252
20
141.9205638
40
0.3738224
50
274.307774
51
301.655379
0
ARC
8
DEFAULT_255_1_234
10
10.029756
20
142.0083361
40
0.4621997
50
269.9546461
51
274.8588071
0
ARC
8
DEFAULT_255_1_234
10
10.0248493
20
141.9582249
40
0.4121134
50
250.888809
51
270.631312
0
ARC
8
DEFAULT_255_1_234
10
10.0098413
20
141.9023277
40
0.3544073
50
221.1701932
51
250.2227191
0
ARC
8
DEFAULT_255_1_234
10
10.0582568
20
141.9464439
40
0.4198961
50
191.6263638
51
221.3526367
0
ARC
8
DEFAULT_255_1_234
10
10.2470563
20
141.9901329
40
0.6136451
50
179.610213
51
192.0693181
0
ARC
8
DEFAULT_255_1_234
10
10.2893791
20
141.9838633
40
0.5065736
50
179.636298
51
190.6162791
0
ARC
8
DEFAULT_255_1_234
10
10.1251459
20
141.951859
40
0.3392576
50
190.4136628
51
208.7170242
0
ARC
8
DEFAULT_255_1_234
10
10.0741084
20
141.9265366
40
0.2823401
50
209.1867941
51
217.4225593
0
ARC
8
DEFAULT_255_1_234
10
10.0211918
20
141.8799558
40
0.2120636
50
216.1156896
51
265.2575835
0
ARC
8
DEFAULT_255_1_234
10
10.0291066
20
141.9373109
40
0.2698952
50
264.5897417
51
270.0601757
0
ARC
8
DEFAULT_255_1_234
10
10.0324127
20
141.8993185
40
0.2319225
50
269.2532621
51
291.8792492
0
ARC
8
DEFAULT_255_1_234
10
10.0353348
20
141.8815238
40
0.2143562
50
292.9269754
51
323.1776747
0
ARC
8
DEFAULT_255_1_234
10
9.996017
20
141.9163452
40
0.2667346
50
322.2518483
51
323.0930371
0
ARC
8
DEFAULT_255_1_234
10
9.9665829
20
141.934499
40
0.3011886
50
323.6941278
51
343.8493282
0
ARC
8
DEFAULT_255_1_234
10
9.8087372
20
141.982535
40
0.4661719
50
343.5748474
51
355.0079071
0
ARC
8
DEFAULT_255_1_234
10
9.6079618
20
142.0033424
40
0.6680042
50
354.7285225
51
0.1206288
0
ARC
8
DEFAULT_255_1_234
10
9.7848084
20
142.0079751
40
0.4911667
50
359.623636
51
11.2015604
0
ARC
8
DEFAULT_255_1_234
10
9.9382311
20
142.039564
40
0.3345323
50
10.9989411
51
30.8319188
0
ARC
8
DEFAULT_255_1_234
10
9.9778184
20
142.0604297
40
0.2898553
50
31.3008956
51
37.3959224
0
ARC
8
DEFAULT_255_1_234
10
10.0274762
20
142.1023653
40
0.2249582
50
36.5915954
51
62.2442953
0
ARC
8
DEFAULT_255_1_234
10
10.0321216
20
142.1020602
40
0.2231053
50
63.3365542
51
89.7195421
0
ARC
8
DEFAULT_255_1_234
10
10.0278069
20
142.0451884
40
0.2800267
50
88.8936788
51
90.0047485
0
ARC
8
DEFAULT_255_1_234
10
10.0246429
20
142.1024787
40
0.2227586
50
89.1921125
51
114.7099455
0
ARC
8
DEFAULT_255_1_234
10
10.0275193
20
142.1062628
40
0.2205633
50
115.7997161
51
142.2900762
0
ARC
8
DEFAULT_255_1_234
10
10.0713925
20
142.0672658
40
0.2791541
50
141.4658779
51
142.3795754
0
ARC
8
DEFAULT_255_1_234
10
10.082283
20
142.0629557
40
0.2904292
50
143.0175714
51
163.234115
0
ARC
8
DEFAULT_255_1_234
10
10.2401002
20
142.0130054
40
0.4559523
50
162.9447461
51
174.3732162
0
ARC
8
DEFAULT_255_1_234
10
10.4546816
20
141.9889143
40
0.6718682
50
174.1228657
51
180.1565175
0
LINE
8
DEFAULT_255_1_234
10
10.5747451
20
141.9927012
11
10.5747451
21
142.0039456
0
LINE
8
DEFAULT_255_1_234
10
11.1594557
20
142.342885
11
11.1594557
21
142.795875
0
LINE
8
DEFAULT_255_1_234
10
11.1594557
20
142.795875
11
11.3080428
21
142.795875
0
LINE
8
DEFAULT_255_1_234
10
11.3080428
20
142.795875
11
11.3080428
21
141.5622
0
LINE
8
DEFAULT_255_1_234
10
11.3080428
20
141.5622
11
11.1715033
21
141.5622
0
LINE
8
DEFAULT_255_1_234
10
11.1715033
20
141.5622
11
11.1642747
21
141.6553682
0
LINE
8
DEFAULT_255_1_234
10
11.1594557
20
141.7991363
11
11.1594557
21
142.1983137
0
ARC
8
DEFAULT_255_1_234
10
11.2622605
20
142.0083457
40
0.6875294
50
169.1661407
51
180.3666851
0
ARC
8
DEFAULT_255_1_234
10
11.042625
20
142.0521387
40
0.4635805
50
150.2838427
51
169.3798909
0
ARC
8
DEFAULT_255_1_234
10
10.9792867
20
142.0845238
40
0.392532
50
142.1062393
51
149.806405
0
ARC
8
DEFAULT_255_1_234
10
10.9220599
20
142.1343749
40
0.3167807
50
118.4283255
51
142.8643566
0
ARC
8
DEFAULT_255_1_234
10
10.9121944
20
142.1406137
40
0.3066506
50
89.9199246
51
117.3621547
0
ARC
8
DEFAULT_255_1_234
10
10.9176923
20
142.0648731
40
0.3824245
50
89.9987914
51
90.7595231
0
ARC
8
DEFAULT_255_1_234
10
10.9214314
20
142.0883667
40
0.3589502
50
72.8978905
51
90.5955712
0
ARC
8
DEFAULT_255_1_234
10
10.9412262
20
142.1598123
40
0.2848505
50
39.9932841
51
72.477307
0
ARC
8
DEFAULT_255_1_234
10
10.938301
20
141.8385579
40
0.2908996
50
275.084999
51
320.969419
0
ARC
8
DEFAULT_255_1_234
10
10.916873
20
141.9652893
40
0.4191533
50
269.8935077
51
276.4672393
0
ARC
8
DEFAULT_255_1_234
10
10.9100745
20
141.8385703
40
0.2924958
50
222.0839186
51
271.1792213
0
ARC
8
DEFAULT_255_1_234
10
10.9711255
20
141.9010816
40
0.3797413
50
217.5160585
51
222.9101888
0
ARC
8
DEFAULT_255_1_234
10
11.0205094
20
141.9350781
40
0.4396261
50
193.0962774
51
217.1109254
0
ARC
8
DEFAULT_255_1_234
10
11.2162193
20
141.9839128
40
0.6413192
50
181.1070734
51
193.3838631
0
ARC
8
DEFAULT_255_1_234
10
11.3828252
20
141.9925869
40
0.8080801
50
179.9919009
51
181.4937549
0
ARC
8
DEFAULT_255_1_234
10
11.3011854
20
141.983972
40
0.5778615
50
179.6919417
51
188.6549204
0
ARC
8
DEFAULT_255_1_234
10
11.099227
20
141.9521672
40
0.3734182
50
188.4936033
51
202.2187731
0
ARC
8
DEFAULT_255_1_234
10
11.0024978
20
141.9138391
40
0.2693801
50
202.4517848
51
215.9307642
0
ARC
8
DEFAULT_255_1_234
10
10.9432424
20
141.8666191
40
0.1937215
50
214.9062306
51
264.2077075
0
ARC
8
DEFAULT_255_1_234
10
10.9526252
20
141.926415
40
0.2541804
50
263.4637896
51
270.0934907
0
ARC
8
DEFAULT_255_1_234
10
10.9566169
20
141.9172045
40
0.2449958
50
269.1634649
51
291.0931088
0
ARC
8
DEFAULT_255_1_234
10
10.9647874
20
141.8839994
40
0.2111194
50
292.2674853
51
328.1937478
0
ARC
8
DEFAULT_255_1_234
10
10.8956292
20
141.9339026
40
0.2962539
50
327.0410354
51
332.9414029
0
ARC
8
DEFAULT_255_1_234
10
10.936949
20
142.0815886
40
0.2512647
50
27.6811062
51
48.7893196
0
ARC
8
DEFAULT_255_1_234
10
10.9652771
20
142.1076916
40
0.2130039
50
49.8959006
51
87.010286
0
ARC
8
DEFAULT_255_1_234
10
10.9548629
20
142.0289504
40
0.292249
50
85.7764096
51
90.0424572
0
ARC
8
DEFAULT_255_1_234
10
10.9519345
20
142.0949006
40
0.2263149
50
89.313423
51
109.4265906
0
ARC
8
DEFAULT_255_1_234
10
10.9445056
20
142.1253962
40
0.1951098
50
110.3478057
51
145.1577858
0
ARC
8
DEFAULT_255_1_234
10
11.0098849
20
142.077775
40
0.2759807
50
144.7982748
51
162.8715388
0
ARC
8
DEFAULT_255_1_234
10
11.1793499
20
142.0232842
40
0.453983
50
162.5984223
51
173.3418672
0
ARC
8
DEFAULT_255_1_234
10
11.4461277
20
141.9901851
40
0.7228019
50
173.1877442
51
180.2462216
0
LINE
8
DEFAULT_255_1_234
10
12.0782865
20
141.5622
11
12.0750738
21
141.6481396
0
LINE
8
DEFAULT_255_1_234
10
11.535341
20
141.8657997
11
11.535341
21
142.4312341
0
LINE
8
DEFAULT_255_1_234
10
11.535341
20
142.4312341
11
11.6839282
21
142.4312341
0
LINE
8
DEFAULT_255_1_234
10
11.6839282
20
142.4312341
11
11.6839282
21
141.8698156
0
LINE
8
DEFAULT_255_1_234
10
12.071058
20
141.7991363
11
12.071058
21
142.4312341
0
LINE
8
DEFAULT_255_1_234
10
12.071058
20
142.4312341
11
12.2196451
21
142.4312341
0
LINE
8
DEFAULT_255_1_234
10
12.2196451
20
142.4312341
11
12.2196451
21
141.5622
0
LINE
8
DEFAULT_255_1_234
10
12.2196451
20
141.5622
11
12.0782865
21
141.5622
0
ARC
8
DEFAULT_255_1_234
10
11.8635203
20
141.829906
40
0.2789157
50
282.5436552
51
319.3308843
0
ARC
8
DEFAULT_255_1_234
10
11.8248036
20
141.9805137
40
0.4343667
50
269.8917857
51
283.214153
0
ARC
8
DEFAULT_255_1_234
10
11.8204721
20
142.0965183
40
0.5503818
50
269.9995424
51
270.3655186
0
ARC
8
DEFAULT_255_1_234
10
11.8174197
20
141.927453
40
0.3813286
50
257.7355913
51
270.4579866
0
ARC
8
DEFAULT_255_1_234
10
11.7876896
20
141.7975503
40
0.2480795
50
233.3384413
51
258.0721298
0
ARC
8
DEFAULT_255_1_234
10
11.7742503
20
141.7756041
40
0.2224626
50
221.9626381
51
232.7401232
0
ARC
8
DEFAULT_255_1_234
10
11.8022552
20
141.797133
40
0.2576959
50
197.9450831
51
221.3585622
0
ARC
8
DEFAULT_255_1_234
10
11.9417747
20
141.8447997
40
0.4051213
50
185.8088195
51
198.2790125
0
ARC
8
DEFAULT_255_1_234
10
12.130955
20
141.8672963
40
0.5956158
50
180.1439627
51
186.1199408
0
ARC
8
DEFAULT_255_1_234
10
12.0408418
20
141.866256
40
0.3569313
50
179.4285986
51
191.0735588
0
ARC
8
DEFAULT_255_1_234
10
11.8724846
20
141.8315017
40
0.1850421
50
190.5251661
51
212.6990766
0
ARC
8
DEFAULT_255_1_234
10
11.8260639
20
141.805883
40
0.1321852
50
214.2246197
51
264.4398755
0
ARC
8
DEFAULT_255_1_234
10
11.8437975
20
141.8968426
40
0.224609
50
262.1850223
51
270.1952455
0
ARC
8
DEFAULT_255_1_234
10
11.8479865
20
142.0244524
40
0.3522342
50
269.4431043
51
282.9585023
0
ARC
8
DEFAULT_255_1_234
10
11.8816555
20
141.8874561
40
0.2111871
50
282.391263
51
311.9722193
0
ARC
8
DEFAULT_255_1_234
10
11.8824152
20
141.8801809
40
0.2053153
50
313.1724425
51
336.7506893
0
LINE
8
DEFAULT_255_1_234
10
12.9987237
20
141.8360823
11
13.1392792
21
141.8360823
0
LINE
8
DEFAULT_255_1_234
10
12.4067846
20
141.9886853
11
12.4067846
21
142.0135837
0
LINE
8
DEFAULT_255_1_234
10
13.1392792
20
142.1324534
11
12.9987237
21
142.1324534
0
LINE
8
DEFAULT_255_1_234
10
12.5553718
20
142.0079615
11
12.5553718
21
141.9798504
0
ARC
8
DEFAULT_255_1_234
10
12.7975273
20
141.8814121
40
0.2140268
50
269.0327816
51
309.2224514
0
ARC
8
DEFAULT_255_1_234
10
12.8185027
20
141.8599108
40
0.1841255
50
308.396669
51
329.6984113
0
ARC
8
DEFAULT_255_1_234
10
12.8322882
20
141.849482
40
0.166974
50
330.401383
51
355.3970571
0
ARC
8
DEFAULT_255_1_234
10
12.8779748
20
141.8512082
40
0.2617417
50
329.2357853
51
356.6870514
0
ARC
8
DEFAULT_255_1_234
10
12.822977
20
141.8802971
40
0.3238945
50
324.8706984
51
329.7905871
0
ARC
8
DEFAULT_255_1_234
10
12.8151489
20
141.8870106
40
0.3341614
50
298.8769168
51
324.7016144
0
ARC
8
DEFAULT_255_1_234
10
12.781968
20
141.9398917
40
0.3965068
50
296.9023738
51
299.385174
0
ARC
8
DEFAULT_255_1_234
10
12.7949294
20
141.9111422
40
0.365007
50
269.8406811
51
297.1299281
0
ARC
8
DEFAULT_255_1_234
10
12.789595
20
141.9749407
40
0.4288259
50
253.315473
51
270.5771285
0
ARC
8
DEFAULT_255_1_234
10
12.7648985
20
141.8855739
40
0.3361372
50
221.1002312
51
252.9744583
0
ARC
8
DEFAULT_255_1_234
10
12.8108983
20
141.925059
40
0.3967576
50
194.5394537
51
221.0302238
0
ARC
8
DEFAULT_255_1_234
10
12.9957804
20
141.9765952
40
0.5886672
50
182.0499201
51
194.8773585
0
ARC
8
DEFAULT_255_1_234
10
13.1728002
20
141.988406
40
0.7660157
50
179.9791086
51
182.4591564
0
ARC
8
DEFAULT_255_1_234
10
12.9990046
20
142.0165498
40
0.5922274
50
168.614861
51
180.2869651
0
ARC
8
DEFAULT_255_1_234
10
12.8788191
20
142.0401269
40
0.4697532
50
154.9162259
51
168.5402336
0
ARC
8
DEFAULT_255_1_234
10
12.7866699
20
142.085663
40
0.3669966
50
133.5746694
51
155.2558665
0
ARC
8
DEFAULT_255_1_234
10
12.7703857
20
142.0995467
40
0.3457206
50
122.0165146
51
133.2055214
0
ARC
8
DEFAULT_255_1_234
10
12.7739696
20
142.0907361
40
0.355095
50
97.8731644
51
121.7531281
0
ARC
8
DEFAULT_255_1_234
10
12.7918779
20
141.9850159
40
0.4622833
50
89.8471353
51
98.2769494
0
ARC
8
DEFAULT_255_1_234
10
12.7967531
20
142.0460091
40
0.401305
50
73.3760412
51
90.5199766
0
ARC
8
DEFAULT_255_1_234
10
12.8163895
20
142.1182516
40
0.3264695
50
47.7085968
51
73.0509704
0
ARC
8
DEFAULT_255_1_234
10
12.8293765
20
142.1295128
40
0.309407
50
3.7443473
51
48.0843753
0
ARC
8
DEFAULT_255_1_234
10
12.7306714
20
142.1137614
40
0.4090351
50
2.6192045
51
5.0432185
0
ARC
8
DEFAULT_255_1_234
10
12.7763568
20
142.1177592
40
0.2228519
50
3.780656
51
23.9356886
0
ARC
8
DEFAULT_255_1_234
10
12.7992184
20
142.1258155
40
0.198697
50
24.4869552
51
46.9440088
0
ARC
8
DEFAULT_255_1_234
10
12.7993034
20
142.1281484
40
0.1969404
50
46.498716
51
89.3298174
0
ARC
8
DEFAULT_255_1_234
10
12.7931388
20
142.0686723
40
0.2565428
50
88.1083975
51
90.0061569
0
ARC
8
DEFAULT_255_1_234
10
12.7903818
20
142.0740759
40
0.251154
50
89.3773333
51
107.2071161
0
ARC
8
DEFAULT_255_1_234
10
12.7760941
20
142.125819
40
0.1975072
50
107.6883219
51
143.3583002
0
ARC
8
DEFAULT_255_1_234
10
12.8328325
20
142.0831873
40
0.2684762
50
143.2846717
51
162.935323
0
ARC
8
DEFAULT_255_1_234
10
12.9833926
20
142.0348652
40
0.4265927
50
162.6650068
51
174.0805419
0
ARC
8
DEFAULT_255_1_234
10
13.1976766
20
142.0099636
40
0.6423078
50
173.8423985
51
180.1785963
0
ARC
8
DEFAULT_255_1_234
10
13.1428866
20
141.9768039
40
0.5875227
50
179.7028978
51
188.2277152
0
ARC
8
DEFAULT_255_1_234
10
12.9327167
20
141.9453247
40
0.3750127
50
188.0629871
51
201.1160002
0
ARC
8
DEFAULT_255_1_234
10
12.8229366
20
141.9034238
40
0.2575093
50
201.2187293
51
216.9761968
0
ARC
8
DEFAULT_255_1_234
10
12.7777929
20
141.8695993
40
0.2010998
50
217.0135981
51
265.2056839
0
ARC
8
DEFAULT_255_1_234
10
12.7933788
20
141.9617695
40
0.2943543
50
263.681807
51
270.104251
0
LINE
8
DEFAULT_255_1_234
10
13.3593488
20
142.6416656
11
13.5079359
21
142.6416656
0
LINE
8
DEFAULT_255_1_234
10
13.5079359
20
142.6416656
11
13.5079359
21
142.4312341
0
LINE
8
DEFAULT_255_1_234
10
13.5079359
20
142.4312341
11
13.6701771
21
142.4312341
0
LINE
8
DEFAULT_255_1_234
10
13.6701771
20
142.4312341
11
13.6701771
21
142.3163802
0
LINE
8
DEFAULT_255_1_234
10
13.6701771
20
142.3163802
11
13.5079359
21
142.3163802
0
LINE
8
DEFAULT_255_1_234
10
13.5079359
20
142.3163802
11
13.5079359
21
141.7774506
0
LINE
8
DEFAULT_255_1_234
10
13.6741929
20
141.6826761
11
13.6741929
21
141.5622
0
LINE
8
DEFAULT_255_1_234
10
13.3593488
20
141.7774506
11
13.3593488
21
142.3163802
0
LINE
8
DEFAULT_255_1_234
10
13.3593488
20
142.3163802
11
13.2011235
21
142.3163802
0
LINE
8
DEFAULT_255_1_234
10
13.2011235
20
142.3163802
11
13.2011235
21
142.4312341
0
LINE
8
DEFAULT_255_1_234
10
13.2011235
20
142.4312341
11
13.3593488
21
142.4312341
0
LINE
8
DEFAULT_255_1_234
10
13.3593488
20
142.4312341
11
13.3593488
21
142.6416656
0
ARC
8
DEFAULT_255_1_234
10
13.7086862
20
141.7764084
40
0.200753
50
179.7025659
51
187.917967
0
ARC
8
DEFAULT_255_1_234
10
13.6340888
20
141.7656724
40
0.1253883
50
187.7545981
51
200.2447476
0
ARC
8
DEFAULT_255_1_234
10
13.5920209
20
141.7499859
40
0.0804913
50
200.130383
51
219.174133
0
ARC
8
DEFAULT_255_1_234
10
13.5784386
20
141.7407515
40
0.0641445
50
220.4434483
51
249.6172
0
ARC
8
DEFAULT_255_1_234
10
13.5939236
20
141.7796968
40
0.1060489
50
249.1032952
51
262.775154
0
ARC
8
DEFAULT_255_1_234
10
13.6027408
20
141.8425715
40
0.1695354
50
262.4913187
51
270.2611758
0
ARC
8
DEFAULT_255_1_234
10
13.6024825
20
141.8641103
40
0.191075
50
270.3091804
51
275.6625139
0
ARC
8
DEFAULT_255_1_234
10
13.588205
20
142.0142435
40
0.3418851
50
275.5610264
51
279.0879356
0
ARC
8
DEFAULT_255_1_234
10
13.5551927
20
142.2237699
40
0.5539959
50
279.0365489
51
281.5011378
0
ARC
8
DEFAULT_255_1_234
10
13.5195004
20
142.4041423
40
0.7378639
50
281.4243939
51
282.1017894
0
ARC
8
DEFAULT_255_1_234
10
13.5538251
20
141.9959858
40
0.4501761
50
275.2597045
51
285.5083879
0
ARC
8
DEFAULT_255_1_234
10
13.5599576
20
141.9403606
40
0.3942242
50
270.0268409
51
275.1132796
0
ARC
8
DEFAULT_255_1_234
10
13.5579541
20
141.8076614
40
0.261534
50
257.3573315
51
270.479383
0
ARC
8
DEFAULT_255_1_234
10
13.5366431
20
141.7178406
40
0.1692304
50
230.8037497
51
257.741658
0
ARC
8
DEFAULT_255_1_234
10
13.5298335
20
141.7068777
40
0.1564393
50
219.974146
51
230.1990686
0
ARC
8
DEFAULT_255_1_234
10
13.5630281
20
141.7322579
40
0.1981916
50
196.5084186
51
219.4318458
0
ARC
8
DEFAULT_255_1_234
10
13.6645727
20
141.7641194
40
0.3046086
50
184.6404872
51
196.8269686
0
ARC
8
DEFAULT_255_1_234
10
13.7890791
20
141.7766908
40
0.4297309
50
179.8986958
51
184.9681077
0
LINE
8
DEFAULT_255_1_234
10
14.0051005
20
142.4312341
11
14.0051005
21
141.5622
0
LINE
8
DEFAULT_255_1_234
10
14.0051005
20
141.5622
11
13.8565134
21
141.5622
0
LINE
8
DEFAULT_255_1_234
10
13.8565134
20
141.5622
11
13.8565134
21
142.4312341
0
LINE
8
DEFAULT_255_1_234
10
13.8565134
20
142.4312341
11
14.0051005
21
142.4312341
0
ARC
8
DEFAULT_255_1_234
10
13.9423282
20
142.6626889
40
0.097867
50
161.415052
51
180.5526306
0
ARC
8
DEFAULT_255_1_234
10
13.9299061
20
142.6661077
40
0.0850062
50
138.1827368
51
160.9307106
0
ARC
8
DEFAULT_255_1_234
10
13.9189006
20
142.6756588
40
0.0704362
50
104.6368899
51
138.0039868
0
ARC
8
DEFAULT_255_1_234
10
13.9296161
20
142.6389963
40
0.1086221
50
92.0600725
51
105.2189128
0
ARC
8
DEFAULT_255_1_234
10
13.9319509
20
142.6047117
40
0.1429728
50
89.9756393
51
92.5012496
0
ARC
8
DEFAULT_255_1_234
10
13.9329529
20
142.6272731
40
0.1204151
50
78.0235316
51
90.4478182
0
ARC
8
DEFAULT_255_1_234
10
13.9421621
20
142.6686295
40
0.0780493
50
55.051506
51
78.3369085
0
ARC
8
DEFAULT_255_1_234
10
13.9471895
20
142.6770711
40
0.0682538
50
42.0501187
51
54.4513741
0
ARC
8
DEFAULT_255_1_234
10
13.9336762
20
142.6646798
40
0.0865878
50
1.7497075
51
42.1496013
0
ARC
8
DEFAULT_255_1_234
10
13.9082095
20
142.6617738
40
0.1121515
50
359.9852656
51
2.8364544
0
ARC
8
DEFAULT_255_1_234
10
13.9248087
20
142.6608229
40
0.0955566
50
342.1070653
51
0.552888
0
ARC
8
DEFAULT_255_1_234
10
13.9390784
20
142.6568904
40
0.0807713
50
316.7107116
51
341.6516965
0
ARC
8
DEFAULT_255_1_234
10
13.9457822
20
142.6508823
40
0.0717724
50
285.4397031
51
316.5324284
0
ARC
8
DEFAULT_255_1_234
10
13.9347739
20
142.6874554
40
0.1099597
50
272.3547054
51
285.8953117
0
ARC
8
DEFAULT_255_1_234
10
13.9320897
20
142.7240048
40
0.1465932
50
269.9695369
51
272.8160237
0
ARC
8
DEFAULT_255_1_234
10
13.9311078
20
142.7020863
40
0.1246779
50
258.8431134
51
270.4153935
0
ARC
8
DEFAULT_255_1_234
10
13.922112
20
142.6585414
40
0.0802162
50
238.5431189
51
259.1288175
0
ARC
8
DEFAULT_255_1_234
10
13.9153005
20
142.6461856
40
0.0661247
50
222.5062634
51
237.9906969
0
ARC
8
DEFAULT_255_1_234
10
13.9280593
20
142.6577889
40
0.0833707
50
184.1069131
51
222.460413
0
ARC
8
DEFAULT_255_1_234
10
13.9549833
20
142.6616349
40
0.1105176
50
179.9429482
51
185.0960898
0
LINE
8
DEFAULT_255_1_234
10
14.3087002
20
142.4312341
11
14.529573
21
141.7637966
0
LINE
8
DEFAULT_255_1_234
10
14.529573
20
141.7637966
11
14.7448236
21
142.4312341
0
LINE
8
DEFAULT_255_1_234
10
14.7448236
20
142.4312341
11
14.8966235
21
142.4312341
0
LINE
8
DEFAULT_255_1_234
10
14.8966235
20
142.4312341
11
14.584992
21
141.5622
0
LINE
8
DEFAULT_255_1_234
10
14.584992
20
141.5622
11
14.4717445
21
141.5622
0
LINE
8
DEFAULT_255_1_234
10
14.4717445
20
141.5622
11
14.1569004
21
142.4312341
0
LINE
8
DEFAULT_255_1_234
10
14.1569004
20
142.4312341
11
14.3087002
21
142.4312341
0
LINE
8
DEFAULT_255_1_234
10
15.2010264
20
142.4312341
11
15.2010264
21
141.5622
0
LINE
8
DEFAULT_255_1_234
10
15.2010264
20
141.5622
11
15.0524392
21
141.5622
0
LINE
8
DEFAULT_255_1_234
10
15.0524392
20
141.5622
11
15.0524392
21
142.4312341
0
LINE
8
DEFAULT_255_1_234
10
15.0524392
20
142.4312341
11
15.2010264
21
142.4312341
0
ARC
8
DEFAULT_255_1_234
10
15.1382541
20
142.6626889
40
0.097867
50
161.415052
51
180.5526306
0
ARC
8
DEFAULT_255_1_234
10
15.1258319
20
142.6661077
40
0.0850062
50
138.1827368
51
160.9307106
0
ARC
8
DEFAULT_255_1_234
10
15.1148265
20
142.6756588
40
0.0704362
50
104.6368899
51
138.0039868
0
ARC
8
DEFAULT_255_1_234
10
15.1255419
20
142.6389963
40
0.1086221
50
92.0600725
51
105.2189128
0
ARC
8
DEFAULT_255_1_234
10
15.1278768
20
142.6047117
40
0.1429728
50
89.9756393
51
92.5012496
0
ARC
8
DEFAULT_255_1_234
10
15.1288787
20
142.6272731
40
0.1204151
50
78.0235316
51
90.4478182
0
ARC
8
DEFAULT_255_1_234
10
15.1380879
20
142.6686295
40
0.0780493
50
55.051506
51
78.3369085
0
ARC
8
DEFAULT_255_1_234
10
15.1431153
20
142.6770711
40
0.0682538
50
42.0501187
51
54.4513741
0
ARC
8
DEFAULT_255_1_234
10
15.129602
20
142.6646798
40
0.0865878
50
1.7497075
51
42.1496013
0
ARC
8
DEFAULT_255_1_234
10
15.1041353
20
142.6617738
40
0.1121515
50
359.9852656
51
2.8364544
0
ARC
8
DEFAULT_255_1_234
10
15.1207345
20
142.6608229
40
0.0955566
50
342.1070653
51
0.552888
0
ARC
8
DEFAULT_255_1_234
10
15.1350043
20
142.6568904
40
0.0807713
50
316.7107116
51
341.6516965
0
ARC
8
DEFAULT_255_1_234
10
15.141708
20
142.6508823
40
0.0717724
50
285.4397031
51
316.5324284
0
ARC
8
DEFAULT_255_1_234
10
15.1306997
20
142.6874554
40
0.1099597
50
272.3547054
51
285.8953117
0
ARC
8
DEFAULT_255_1_234
10
15.1280155
20
142.7240048
40
0.1465932
50
269.9695369
51
272.8160237
0
ARC
8
DEFAULT_255_1_234
10
15.1270336
20
142.7020863
40
0.1246779
50
258.8431134
51
270.4153935
0
ARC
8
DEFAULT_255_1_234
10
15.1180379
20
142.6585414
40
0.0802162
50
238.5431189
51
259.1288175
0
ARC
8
DEFAULT_255_1_234
10
15.1112264
20
142.6461856
40
0.0661247
50
222.5062634
51
237.9906969
0
ARC
8
DEFAULT_255_1_234
10
15.1239851
20
142.6577889
40
0.0833707
50
184.1069131
51
222.460413
0
ARC
8
DEFAULT_255_1_234
10
15.1509092
20
142.6616349
40
0.1105176
50
179.9429482
51
185.0960898
0
LINE
8
DEFAULT_255_1_234
10
15.4917753
20
142.6416656
11
15.6403625
21
142.6416656
0
LINE
8
DEFAULT_255_1_234
10
15.6403625
20
142.6416656
11
15.6403625
21
142.4312341
0
LINE
8
DEFAULT_255_1_234
10
15.6403625
20
142.4312341
11
15.8026036
21
142.4312341
0
LINE
8
DEFAULT_255_1_234
10
15.8026036
20
142.4312341
11
15.8026036
21
142.3163802
0
LINE
8
DEFAULT_255_1_234
10
15.8026036
20
142.3163802
11
15.6403625
21
142.3163802
0
LINE
8
DEFAULT_255_1_234
10
15.6403625
20
142.3163802
11
15.6403625
21
141.7774506
0
LINE
8
DEFAULT_255_1_234
10
15.8066194
20
141.6826761
11
15.8066194
21
141.5622
0
LINE
8
DEFAULT_255_1_234
10
15.4917753
20
141.7774506
11
15.4917753
21
142.3163802
0
LINE
8
DEFAULT_255_1_234
10
15.4917753
20
142.3163802
11
15.33355
21
142.3163802
0
LINE
8
DEFAULT_255_1_234
10
15.33355
20
142.3163802
11
15.33355
21
142.4312341
0
LINE
8
DEFAULT_255_1_234
10
15.33355
20
142.4312341
11
15.4917753
21
142.4312341
0
LINE
8
DEFAULT_255_1_234
10
15.4917753
20
142.4312341
11
15.4917753
21
142.6416656
0
ARC
8
DEFAULT_255_1_234
10
15.8411127
20
141.7764084
40
0.200753
50
179.7025659
51
187.917967
0
ARC
8
DEFAULT_255_1_234
10
15.7665153
20
141.7656724
40
0.1253883
50
187.7545981
51
200.2447476
0
ARC
8
DEFAULT_255_1_234
10
15.7244474
20
141.7499859
40
0.0804913
50
200.130383
51
219.174133
0
ARC
8
DEFAULT_255_1_234
10
15.7108651
20
141.7407515
40
0.0641445
50
220.4434483
51
249.6172
0
ARC
8
DEFAULT_255_1_234
10
15.7263501
20
141.7796968
40
0.1060489
50
249.1032952
51
262.775154
0
ARC
8
DEFAULT_255_1_234
10
15.7351673
20
141.8425715
40
0.1695354
50
262.4913187
51
270.2611758
0
ARC
8
DEFAULT_255_1_234
10
15.7349091
20
141.8641103
40
0.191075
50
270.3091804
51
275.6625139
0
ARC
8
DEFAULT_255_1_234
10
15.7206315
20
142.0142435
40
0.3418851
50
275.5610264
51
279.0879356
0
ARC
8
DEFAULT_255_1_234
10
15.6876192
20
142.2237699
40
0.5539959
50
279.0365489
51
281.5011378
0
ARC
8
DEFAULT_255_1_234
10
15.6519269
20
142.4041423
40
0.7378639
50
281.4243939
51
282.1017894
0
ARC
8
DEFAULT_255_1_234
10
15.6862516
20
141.9959858
40
0.4501761
50
275.2597045
51
285.5083879
0
ARC
8
DEFAULT_255_1_234
10
15.6923841
20
141.9403606
40
0.3942242
50
270.0268409
51
275.1132796
0
ARC
8
DEFAULT_255_1_234
10
15.6903806
20
141.8076614
40
0.261534
50
257.3573315
51
270.479383
0
ARC
8
DEFAULT_255_1_234
10
15.6690697
20
141.7178406
40
0.1692304
50
230.8037497
51
257.741658
0
ARC
8
DEFAULT_255_1_234
10
15.66226
20
141.7068777
40
0.1564393
50
219.974146
51
230.1990686
0
ARC
8
DEFAULT_255_1_234
10
15.6954546
20
141.7322579
40
0.1981916
50
196.5084186
51
219.4318458
0
ARC
8
DEFAULT_255_1_234
10
15.7969992
20
141.7641194
40
0.3046086
50
184.6404872
51
196.8269686
0
ARC
8
DEFAULT_255_1_234
10
15.9215056
20
141.7766908
40
0.4297309
50
179.8986958
51
184.9681077
0
LINE
8
DEFAULT_255_1_234
10
16.0435557
20
142.4312341
11
16.2604126
21
141.7798601
0
LINE
8
DEFAULT_255_1_234
10
16.2604126
20
141.7798601
11
16.4628125
21
142.4312341
0
LINE
8
DEFAULT_255_1_234
10
16.4628125
20
142.4312341
11
16.6218409
21
142.4312341
0
LINE
8
DEFAULT_255_1_234
10
16.6218409
20
142.4312341
11
16.2724603
21
141.42807
0
LINE
8
DEFAULT_255_1_234
10
16.0146415
20
141.211213
11
15.9865304
21
141.2136226
0
LINE
8
DEFAULT_255_1_234
10
15.9865304
20
141.2136226
11
15.9311114
21
141.2240638
0
LINE
8
DEFAULT_255_1_234
10
15.9311114
20
141.2240638
11
15.9311114
21
141.3445399
0
LINE
8
DEFAULT_255_1_234
10
15.9311114
20
141.3445399
11
15.9712701
21
141.3413272
0
LINE
8
DEFAULT_255_1_234
10
16.1584096
20
141.483489
11
16.1913397
21
141.5718381
0
LINE
8
DEFAULT_255_1_234
10
16.1913397
20
141.5718381
11
15.8813146
21
142.4312341
0
LINE
8
DEFAULT_255_1_234
10
15.8813146
20
142.4312341
11
16.0435557
21
142.4312341
0
ARC
8
DEFAULT_255_1_234
10
15.8089945
20
141.5965403
40
0.4931356
50
327.7224013
51
340.0237316
0
ARC
8
DEFAULT_255_1_234
10
15.9842161
20
141.483372
40
0.2845645
50
305.2163759
51
328.1469174
0
ARC
8
DEFAULT_255_1_234
10
16.0187212
20
141.4424893
40
0.2313123
50
268.9893887
51
304.0733175
0
ARC
8
DEFAULT_255_1_234
10
15.9727414
20
141.6448864
40
0.3035628
50
269.7222887
51
278.0404605
0
ARC
8
DEFAULT_255_1_234
10
15.9883237
20
141.5388823
40
0.1964222
50
277.8648378
51
290.8634365
0
ARC
8
DEFAULT_255_1_234
10
16.0091226
20
141.4833422
40
0.1371168
50
291.0076295
51
305.5967213
0
ARC
8
DEFAULT_255_1_234
10
16.0072417
20
141.4817702
40
0.1369553
50
306.6194038
51
324.1023288
0
ARC
8
DEFAULT_255_1_234
10
15.9325231
20
141.53722
40
0.2299972
50
323.8264381
51
334.2987676
0
ARC
8
DEFAULT_255_1_234
10
15.808134
20
141.5983087
40
0.3685747
50
334.1277399
51
340.8153554
0
ARC
8
DEFAULT_255_1_234
10
15.7105275
20
141.6342465
40
0.4725741
50
340.5889714
51
341.3967148
0
LINE
8
DEFAULT_255_1_234
10
17.5053321
20
141.6834792
11
17.5053321
21
141.5622
0
LINE
8
DEFAULT_255_1_234
10
17.5053321
20
141.5622
11
16.7391042
21
141.5622
0
LINE
8
DEFAULT_255_1_234
10
16.7391042
20
141.5622
11
16.7391042
21
141.6690221
0
LINE
8
DEFAULT_255_1_234
10
16.7391042
20
141.6690221
11
17.1439039
21
142.1187995
0
LINE
8
DEFAULT_255_1_234
10
16.8652025
20
142.3870595
11
16.7166154
21
142.3870595
0
LINE
8
DEFAULT_255_1_234
10
17.2314498
20
142.0232218
11
16.918212
21
141.6834792
0
LINE
8
DEFAULT_255_1_234
10
16.918212
20
141.6834792
11
17.5053321
21
141.6834792
0
ARC
8
DEFAULT_255_1_234
10
15.7948872
20
143.3117527
40
1.8008286
50
318.5132453
51
320.7828378
0
ARC
8
DEFAULT_255_1_234
10
16.3235846
20
142.8814426
40
1.1191493
50
320.7372736
51
323.9737074
0
ARC
8
DEFAULT_255_1_234
10
16.7155703
20
142.5974361
40
0.6350923
50
323.8961724
51
328.6421089
0
ARC
8
DEFAULT_255_1_234
10
16.9202298
20
142.4712031
40
0.3946393
50
328.8299013
51
331.789948
0
ARC
8
DEFAULT_255_1_234
10
17.0199477
20
142.4197509
40
0.2824501
50
331.4255242
51
352.9364833
0
ARC
8
DEFAULT_255_1_234
10
17.0335977
20
142.4166976
40
0.2685315
50
353.2248685
51
0.0169286
0
ARC
8
DEFAULT_255_1_234
10
17.0545854
20
142.418995
40
0.2475536
50
359.4866256
51
15.9339782
0
ARC
8
DEFAULT_255_1_234
10
17.1052839
20
142.4326286
40
0.1950618
50
16.1714718
51
43.5284424
0
ARC
8
DEFAULT_255_1_234
10
17.1130148
20
142.4403573
40
0.184134
50
43.4415429
51
83.1661404
0
ARC
8
DEFAULT_255_1_234
10
17.0996066
20
142.3666771
40
0.258926
50
82.160215
51
90.1505798
0
ARC
8
DEFAULT_255_1_234
10
17.0964494
20
142.3129865
40
0.3126255
50
89.5460705
51
102.5418777
0
ARC
8
DEFAULT_255_1_234
10
17.072158
20
142.4160665
40
0.2067346
50
102.1739365
51
129.2061916
0
ARC
8
DEFAULT_255_1_234
10
17.0642651
20
142.4285094
40
0.1921118
50
129.7279328
51
135.7542026
0
ARC
8
DEFAULT_255_1_234
10
17.0764179
20
142.4188045
40
0.2075944
50
136.175737
51
166.3674722
0
ARC
8
DEFAULT_255_1_234
10
17.1771098
20
142.3918182
40
0.3118201
50
165.9092917
51
178.8683903
0
ARC
8
DEFAULT_255_1_234
10
17.263596
20
142.3871179
40
0.3983935
50
178.438168
51
180.0083905
0
ARC
8
DEFAULT_255_1_234
10
17.1234562
20
142.3910231
40
0.4068601
50
163.2878735
51
180.5581814
0
ARC
8
DEFAULT_255_1_234
10
17.0432823
20
142.413084
40
0.3237344
50
133.454115
51
162.9470031
0
ARC
8
DEFAULT_255_1_234
10
17.0611364
20
142.3941
40
0.349795
50
100.7869394
51
133.4384016
0
ARC
8
DEFAULT_255_1_234
10
17.0959136
20
142.2392319
40
0.5084616
50
89.6605301
51
101.3704185
0
ARC
8
DEFAULT_255_1_234
10
17.1025475
20
142.2453496
40
0.502348
50
78.2171172
51
90.4130393
0
ARC
8
DEFAULT_255_1_234
10
17.1380553
20
142.4077637
40
0.3361092
50
55.9268222
51
78.4888551
0
ARC
8
DEFAULT_255_1_234
10
17.1576993
20
142.4416324
40
0.2970617
50
47.9292255
51
55.4054003
0
ARC
8
DEFAULT_255_1_234
10
17.1678554
20
142.4519502
40
0.2825983
50
4.3347696
51
48.0560701
0
ARC
8
DEFAULT_255_1_234
10
17.0582947
20
142.4349601
40
0.393225
50
359.925209
51
5.5967654
0
ARC
8
DEFAULT_255_1_234
10
17.1011839
20
142.4405816
40
0.3503892
50
337.8914096
51
358.9967724
0
ARC
8
DEFAULT_255_1_234
10
16.8298251
20
142.5452706
40
0.6412172
50
326.9135351
51
338.3505194
0
ARC
8
DEFAULT_255_1_234
10
16.4312555
20
142.8007284
40
1.1146189
50
319.6472867
51
327.095818
0
ARC
8
DEFAULT_255_1_234
10
16.0479558
20
143.1169
40
1.6114559
50
317.2586784
51
319.9046139
0
LINE
8
DEFAULT_255_1_234
10
18.3960519
20
142.2537327
11
18.3960519
21
142.0609709
0
LINE
8
DEFAULT_255_1_234
10
17.6579351
20
142.0408916
11
17.6579351
21
142.2392755
0
LINE
8
DEFAULT_255_1_234
10
18.2474647
20
142.0208123
11
18.2474647
21
142.2641739
0
LINE
8
DEFAULT_255_1_234
10
17.8065223
20
142.2754184
11
17.8065223
21
142.0376789
0
ARC
8
DEFAULT_255_1_234
10
17.1713408
20
142.0560805
40
1.2247208
50
353.8441951
51
0.2287902
0
ARC
8
DEFAULT_255_1_234
10
17.6352912
20
142.0042806
40
0.7578929
50
344.4934747
51
353.9765454
0
ARC
8
DEFAULT_255_1_234
10
17.9345502
20
141.9191981
40
0.4467846
50
329.2803592
51
344.7472793
0
ARC
8
DEFAULT_255_1_234
10
18.0338327
20
141.8647018
40
0.3336173
50
324.9352394
51
328.6160465
0
ARC
8
DEFAULT_255_1_234
10
18.0715436
20
141.8383427
40
0.2876076
50
280.580143
51
324.9173126
0
ARC
8
DEFAULT_255_1_234
10
18.0314228
20
142.0054099
40
0.4592847
50
269.5977311
51
281.6734359
0
ARC
8
DEFAULT_255_1_234
10
18.0242134
20
141.9934173
40
0.4472986
50
256.6228859
51
270.51044
0
ARC
8
DEFAULT_255_1_234
10
17.9840112
20
141.8385877
40
0.2873874
50
215.8618325
51
257.2788573
0
ARC
8
DEFAULT_255_1_234
10
18.0861143
20
141.9070977
40
0.4102928
50
197.9693508
51
215.2623606
0
ARC
8
DEFAULT_255_1_234
10
18.3346259
20
141.9909709
40
0.6725652
50
187.8816417
51
198.2346507
0
ARC
8
DEFAULT_255_1_234
10
18.7304467
20
142.0481079
40
1.0724845
50
180.8976217
51
188.0055519
0
ARC
8
DEFAULT_255_1_234
10
19.0104655
20
142.0584777
40
1.3526448
50
180.7449369
51
181.1510016
0
ARC
8
DEFAULT_255_1_234
10
18.8527384
20
142.2441042
40
1.1948131
50
173.7675579
51
180.231553
0
ARC
8
DEFAULT_255_1_234
10
18.4009531
20
142.2951666
40
0.7401564
50
164.3058563
51
173.9002247
0
ARC
8
DEFAULT_255_1_234
10
18.10976
20
142.3790656
40
0.4371288
50
148.7922025
51
164.568378
0
ARC
8
DEFAULT_255_1_234
10
18.0146052
20
142.4321929
40
0.3282386
50
144.5883898
51
148.1176286
0
ARC
8
DEFAULT_255_1_234
10
17.980295
20
142.4561315
40
0.2864044
50
101.6440918
51
144.514236
0
ARC
8
DEFAULT_255_1_234
10
18.0228017
20
142.2872069
40
0.4604934
50
89.5284041
51
102.5819763
0
ARC
8
DEFAULT_255_1_234
10
18.0307104
20
142.2833018
40
0.464401
50
77.0437873
51
90.5081339
0
ARC
8
DEFAULT_255_1_234
10
18.0709106
20
142.4475615
40
0.2953195
50
48.2778575
51
77.4994676
0
ARC
8
DEFAULT_255_1_234
10
18.0781737
20
142.4604746
40
0.2808655
50
36.3142134
51
47.6305865
0
ARC
8
DEFAULT_255_1_234
10
17.9913044
20
142.4019515
40
0.3855453
50
18.2931786
51
35.6769206
0
ARC
8
DEFAULT_255_1_234
10
17.7369803
20
142.3146593
40
0.654423
50
8.024666
51
18.5605216
0
ARC
8
DEFAULT_255_1_234
10
17.3206723
20
142.2531792
40
1.0752407
50
1.1274072
51
8.1718305
0
ARC
8
DEFAULT_255_1_234
10
16.9970914
20
142.2404885
40
1.3990231
50
0.5424119
51
1.3863029
0
ARC
8
DEFAULT_255_1_234
10
17.1792292
20
142.2677342
40
1.0682415
50
359.8090433
51
4.9407866
0
ARC
8
DEFAULT_255_1_234
10
17.6002306
20
142.3053113
40
0.6455691
50
4.8362157
51
12.2904523
0
ARC
8
DEFAULT_255_1_234
10
17.875742
20
142.3666965
40
0.3633074
50
12.0805627
51
23.8173984
0
ARC
8
DEFAULT_255_1_234
10
17.9931126
20
142.4163919
40
0.2358723
50
24.2871213
51
31.3935614
0
ARC
8
DEFAULT_255_1_234
10
18.0455823
20
142.4507233
40
0.1732111
50
30.7407893
51
82.4657128
0
ARC
8
DEFAULT_255_1_234
10
18.0275957
20
142.3623691
40
0.263235
50
81.1060089
51
90.2184952
0
ARC
8
DEFAULT_255_1_234
10
18.0240256
20
142.3881924
40
0.2374236
50
89.3806855
51
105.6762551
0
ARC
8
DEFAULT_255_1_234
10
18.0056887
20
142.4548567
40
0.1682847
50
105.7981136
51
149.7388061
0
ARC
8
DEFAULT_255_1_234
10
18.1120965
20
142.390895
40
0.2924306
50
149.4208916
51
163.6286378
0
ARC
8
DEFAULT_255_1_234
10
18.3211853
20
142.327125
40
0.5110213
50
163.3763315
51
172.1410975
0
ARC
8
DEFAULT_255_1_234
10
18.6512572
20
142.2798518
40
0.8444586
50
172.0259487
51
178.0703232
0
ARC
8
DEFAULT_255_1_234
10
18.9542662
20
142.2654906
40
1.1477868
50
177.8631668
51
179.5044149
0
ARC
8
DEFAULT_255_1_234
10
18.8470066
20
142.0340389
40
1.0404907
50
179.7995573
51
185.2460446
0
ARC
8
DEFAULT_255_1_234
10
18.4427105
20
141.9957513
40
0.6343885
50
185.1411642
51
193.0079639
0
ARC
8
DEFAULT_255_1_234
10
18.1783578
20
141.9332641
40
0.3627568
50
192.7897626
51
205.2507664
0
ARC
8
DEFAULT_255_1_234
10
18.0737125
20
141.8865415
40
0.2481908
50
205.8005384
51
211.2537509
0
ARC
8
DEFAULT_255_1_234
10
18.0213565
20
141.851458
40
0.1852521
50
210.3789793
51
238.4008143
0
ARC
8
DEFAULT_255_1_234
10
18.0194087
20
141.8561376
40
0.1882621
50
239.6520629
51
265.9793761
0
ARC
8
DEFAULT_255_1_234
10
18.0279288
20
141.9233427
40
0.2559272
50
265.1315437
51
270.060332
0
ARC
8
DEFAULT_255_1_234
10
18.0308066
20
141.8909534
40
0.2235528
50
269.3314664
51
287.2178029
0
ARC
8
DEFAULT_255_1_234
10
18.0445918
20
141.8406279
40
0.1714108
50
287.7958004
51
329.080874
0
ARC
8
DEFAULT_255_1_234
10
17.9488375
20
141.900393
40
0.2842745
50
328.6634704
51
343.3325132
0
ARC
8
DEFAULT_255_1_234
10
17.7315395
20
141.9680863
40
0.5118644
50
343.0499468
51
351.9393422
0
ARC
8
DEFAULT_255_1_234
10
17.3848695
20
142.0191949
40
0.8622784
50
351.8069023
51
357.7959224
0
ARC
8
DEFAULT_255_1_234
10
17.0613251
20
142.0359721
40
1.1862365
50
357.5871873
51
359.2677531
0
LINE
8
DEFAULT_255_1_234
10
19.3197018
20
142.2537327
11
19.3197018
21
142.0609709
0
LINE
8
DEFAULT_255_1_234
10
18.581585
20
142.0408916
11
18.581585
21
142.2392755
0
LINE
8
DEFAULT_255_1_234
10
19.1711146
20
142.0208123
11
19.1711146
21
142.2641739
0
LINE
8
DEFAULT_255_1_234
10
18.7301722
20
142.2754184
11
18.7301722
21
142.0376789
0
ARC
8
DEFAULT_255_1_234
10
18.0949907
20
142.0560805
40
1.2247208
50
353.8441951
51
0.2287902
0
ARC
8
DEFAULT_255_1_234
10
18.5589411
20
142.0042806
40
0.7578929
50
344.4934747
51
353.9765454
0
ARC
8
DEFAULT_255_1_234
10
18.8582001
20
141.9191981
40
0.4467846
50
329.2803592
51
344.7472793
0
ARC
8
DEFAULT_255_1_234
10
18.9574826
20
141.8647018
40
0.3336173
50
324.9352394
51
328.6160465
0
ARC
8
DEFAULT_255_1_234
10
18.9951935
20
141.8383427
40
0.2876076
50
280.580143
51
324.9173126
0
ARC
8
DEFAULT_255_1_234
10
18.9550727
20
142.0054099
40
0.4592847
50
269.5977311
51
281.6734359
0
ARC
8
DEFAULT_255_1_234
10
18.9478633
20
141.9934173
40
0.4472986
50
256.6228859
51
270.51044
0
ARC
8
DEFAULT_255_1_234
10
18.9076611
20
141.8385877
40
0.2873874
50
215.8618325
51
257.2788573
0
ARC
8
DEFAULT_255_1_234
10
19.0097642
20
141.9070977
40
0.4102928
50
197.9693508
51
215.2623606
0
ARC
8
DEFAULT_255_1_234
10
19.2582758
20
141.9909709
40
0.6725652
50
187.8816417
51
198.2346507
0
ARC
8
DEFAULT_255_1_234
10
19.6540966
20
142.0481079
40
1.0724845
50
180.8976217
51
188.0055519
0
ARC
8
DEFAULT_255_1_234
10
19.9341154
20
142.0584777
40
1.3526448
50
180.7449369
51
181.1510016
0
ARC
8
DEFAULT_255_1_234
10
19.7763883
20
142.2441042
40
1.1948131
50
173.7675579
51
180.231553
0
ARC
8
DEFAULT_255_1_234
10
19.324603
20
142.2951666
40
0.7401564
50
164.3058563
51
173.9002247
0
ARC
8
DEFAULT_255_1_234
10
19.0334099
20
142.3790656
40
0.4371288
50
148.7922025
51
164.568378
0
ARC
8
DEFAULT_255_1_234
10
18.9382551
20
142.4321929
40
0.3282386
50
144.5883898
51
148.1176286
0
ARC
8
DEFAULT_255_1_234
10
18.9039449
20
142.4561315
40
0.2864044
50
101.6440918
51
144.514236
0
ARC
8
DEFAULT_255_1_234
10
18.9464516
20
142.2872069
40
0.4604934
50
89.5284041
51
102.5819763
0
ARC
8
DEFAULT_255_1_234
10
18.9543603
20
142.2833018
40
0.464401
50
77.0437873
51
90.5081339
0
ARC
8
DEFAULT_255_1_234
10
18.9945605
20
142.4475615
40
0.2953195
50
48.2778575
51
77.4994676
0
ARC
8
DEFAULT_255_1_234
10
19.0018236
20
142.4604746
40
0.2808655
50
36.3142134
51
47.6305865
0
ARC
8
DEFAULT_255_1_234
10
18.9149543
20
142.4019515
40
0.3855453
50
18.2931786
51
35.6769206
0
ARC
8
DEFAULT_255_1_234
10
18.6606302
20
142.3146593
40
0.654423
50
8.024666
51
18.5605216
0
ARC
8
DEFAULT_255_1_234
10
18.2443222
20
142.2531792
40
1.0752407
50
1.1274072
51
8.1718305
0
ARC
8
DEFAULT_255_1_234
10
17.9207413
20
142.2404885
40
1.3990231
50
0.5424119
51
1.3863029
0
ARC
8
DEFAULT_255_1_234
10
18.1028791
20
142.2677342
40
1.0682415
50
359.8090433
51
4.9407866
0
ARC
8
DEFAULT_255_1_234
10
18.5238805
20
142.3053113
40
0.6455691
50
4.8362157
51
12.2904523
0
ARC
8
DEFAULT_255_1_234
10
18.799392
20
142.3666965
40
0.3633074
50
12.0805627
51
23.8173984
0
ARC
8
DEFAULT_255_1_234
10
18.9167625
20
142.4163919
40
0.2358723
50
24.2871213
51
31.3935614
0
ARC
8
DEFAULT_255_1_234
10
18.9692322
20
142.4507233
40
0.1732111
50
30.7407893
51
82.4657128
0
ARC
8
DEFAULT_255_1_234
10
18.9512456
20
142.3623691
40
0.263235
50
81.1060089
51
90.2184952
0
ARC
8
DEFAULT_255_1_234
10
18.9476755
20
142.3881924
40
0.2374236
50
89.3806855
51
105.6762551
0
ARC
8
DEFAULT_255_1_234
10
18.9293386
20
142.4548567
40
0.1682847
50
105.7981136
51
149.7388061
0
ARC
8
DEFAULT_255_1_234
10
19.0357464
20
142.390895
40
0.2924306
50
149.4208916
51
163.6286378
0
ARC
8
DEFAULT_255_1_234
10
19.2448352
20
142.327125
40
0.5110213
50
163.3763315
51
172.1410975
0
ARC
8
DEFAULT_255_1_234
10
19.5749071
20
142.2798518
40
0.8444586
50
172.0259487
51
178.0703232
0
ARC
8
DEFAULT_255_1_234
10
19.8779161
20
142.2654906
40
1.1477868
50
177.8631668
51
179.5044149
0
ARC
8
DEFAULT_255_1_234
10
19.7706565
20
142.0340389
40
1.0404907
50
179.7995573
51
185.2460446
0
ARC
8
DEFAULT_255_1_234
10
19.3663604
20
141.9957513
40
0.6343885
50
185.1411642
51
193.0079639
0
ARC
8
DEFAULT_255_1_234
10
19.1020077
20
141.9332641
40
0.3627568
50
192.7897626
51
205.2507664
0
ARC
8
DEFAULT_255_1_234
10
18.9973624
20
141.8865415
40
0.2481908
50
205.8005384
51
211.2537509
0
ARC
8
DEFAULT_255_1_234
10
18.9450064
20
141.851458
40
0.1852521
50
210.3789793
51
238.4008143
0
ARC
8
DEFAULT_255_1_234
10
18.9430586
20
141.8561376
40
0.1882621
50
239.6520629
51
265.9793761
0
ARC
8
DEFAULT_255_1_234
10
18.9515787
20
141.9233427
40
0.2559272
50
265.1315437
51
270.060332
0
ARC
8
DEFAULT_255_1_234
10
18.9544565
20
141.8909534
40
0.2235528
50
269.3314664
51
287.2178029
0
ARC
8
DEFAULT_255_1_234
10
18.9682417
20
141.8406279
40
0.1714108
50
287.7958004
51
329.080874
0
ARC
8
DEFAULT_255_1_234
10
18.8724874
20
141.900393
40
0.2842745
50
328.6634704
51
343.3325132
0
ARC
8
DEFAULT_255_1_234
10
18.6551894
20
141.9680863
40
0.5118644
50
343.0499468
51
351.9393422
0
ARC
8
DEFAULT_255_1_234
10
18.3085194
20
142.0191949
40
0.8622784
50
351.8069023
51
357.7959224
0
ARC
8
DEFAULT_255_1_234
10
17.984975
20
142.0359721
40
1.1862365
50
357.5871873
51
359.2677531
0
LINE
8
DEFAULT_255_1_234
10
20.2433517
20
142.2537327
11
20.2433517
21
142.0609709
0
LINE
8
DEFAULT_255_1_234
10
19.5052349
20
142.0408916
11
19.5052349
21
142.2392755
0
LINE
8
DEFAULT_255_1_234
10
20.0947645
20
142.0208123
11
20.0947645
21
142.2641739
0
LINE
8
DEFAULT_255_1_234
10
19.6538221
20
142.2754184
11
19.6538221
21
142.0376789
0
ARC
8
DEFAULT_255_1_234
10
19.0186406
20
142.0560805
40
1.2247208
50
353.8441951
51
0.2287902
0
ARC
8
DEFAULT_255_1_234
10
19.482591
20
142.0042806
40
0.7578929
50
344.4934747
51
353.9765454
0
ARC
8
DEFAULT_255_1_234
10
19.78185
20
141.9191981
40
0.4467846
50
329.2803592
51
344.7472793
0
ARC
8
DEFAULT_255_1_234
10
19.8811325
20
141.8647018
40
0.3336173
50
324.9352394
51
328.6160465
0
ARC
8
DEFAULT_255_1_234
10
19.9188434
20
141.8383427
40
0.2876076
50
280.580143
51
324.9173126
0
ARC
8
DEFAULT_255_1_234
10
19.8787226
20
142.0054099
40
0.4592847
50
269.5977311
51
281.6734359
0
ARC
8
DEFAULT_255_1_234
10
19.8715132
20
141.9934173
40
0.4472986
50
256.6228859
51
270.51044
0
ARC
8
DEFAULT_255_1_234
10
19.831311
20
141.8385877
40
0.2873874
50
215.8618325
51
257.2788573
0
ARC
8
DEFAULT_255_1_234
10
19.9334141
20
141.9070977
40
0.4102928
50
197.9693508
51
215.2623606
0
ARC
8
DEFAULT_255_1_234
10
20.1819257
20
141.9909709
40
0.6725652
50
187.8816417
51
198.2346507
0
ARC
8
DEFAULT_255_1_234
10
20.5777465
20
142.0481079
40
1.0724845
50
180.8976217
51
188.0055519
0
ARC
8
DEFAULT_255_1_234
10
20.8577653
20
142.0584777
40
1.3526448
50
180.7449369
51
181.1510016
0
ARC
8
DEFAULT_255_1_234
10
20.7000382
20
142.2441042
40
1.1948131
50
173.7675579
51
180.231553
0
ARC
8
DEFAULT_255_1_234
10
20.2482529
20
142.2951666
40
0.7401564
50
164.3058563
51
173.9002247
0
ARC
8
DEFAULT_255_1_234
10
19.9570598
20
142.3790656
40
0.4371288
50
148.7922025
51
164.568378
0
ARC
8
DEFAULT_255_1_234
10
19.861905
20
142.4321929
40
0.3282386
50
144.5883898
51
148.1176286
0
ARC
8
DEFAULT_255_1_234
10
19.8275948
20
142.4561315
40
0.2864044
50
101.6440918
51
144.514236
0
ARC
8
DEFAULT_255_1_234
10
19.8701015
20
142.2872069
40
0.4604934
50
89.5284041
51
102.5819763
0
ARC
8
DEFAULT_255_1_234
10
19.8780102
20
142.2833018
40
0.464401
50
77.0437873
51
90.5081339
0
ARC
8
DEFAULT_255_1_234
10
19.9182104
20
142.4475615
40
0.2953195
50
48.2778575
51
77.4994676
0
ARC
8
DEFAULT_255_1_234
10
19.9254735
20
142.4604746
40
0.2808655
50
36.3142134
51
47.6305865
0
ARC
8
DEFAULT_255_1_234
10
19.8386042
20
142.4019515
40
0.3855453
50
18.2931786
51
35.6769206
0
ARC
8
DEFAULT_255_1_234
10
19.5842801
20
142.3146593
40
0.654423
50
8.024666
51
18.5605216
0
ARC
8
DEFAULT_255_1_234
10
19.1679721
20
142.2531792
40
1.0752407
50
1.1274072
51
8.1718305
0
ARC
8
DEFAULT_255_1_234
10
18.8443912
20
142.2404885
40
1.3990231
50
0.5424119
51
1.3863029
0
ARC
8
DEFAULT_255_1_234
10
19.026529
20
142.2677342
40
1.0682415
50
359.8090433
51
4.9407866
0
ARC
8
DEFAULT_255_1_234
10
19.4475304
20
142.3053113
40
0.6455691
50
4.8362157
51
12.2904523
0
ARC
8
DEFAULT_255_1_234
10
19.7230419
20
142.3666965
40
0.3633074
50
12.0805627
51
23.8173984
0
ARC
8
DEFAULT_255_1_234
10
19.8404124
20
142.4163919
40
0.2358723
50
24.2871213
51
31.3935614
0
ARC
8
DEFAULT_255_1_234
10
19.8928821
20
142.4507233
40
0.1732111
50
30.7407893
51
82.4657128
0
ARC
8
DEFAULT_255_1_234
10
19.8748955
20
142.3623691
40
0.263235
50
81.1060089
51
90.2184952
0
ARC
8
DEFAULT_255_1_234
10
19.8713254
20
142.3881924
40
0.2374236
50
89.3806855
51
105.6762551
0
ARC
8
DEFAULT_255_1_234
10
19.8529885
20
142.4548567
40
0.1682847
50
105.7981136
51
149.7388061
0
ARC
8
DEFAULT_255_1_234
10
19.9593963
20
142.390895
40
0.2924306
50
149.4208916
51
163.6286378
0
ARC
8
DEFAULT_255_1_234
10
20.1684851
20
142.327125
40
0.5110213
50
163.3763315
51
172.1410975
0
ARC
8
DEFAULT_255_1_234
10
20.498557
20
142.2798518
40
0.8444586
50
172.0259487
51
178.0703232
0
ARC
8
DEFAULT_255_1_234
10
20.801566
20
142.2654906
40
1.1477868
50
177.8631668
51
179.5044149
0
ARC
8
DEFAULT_255_1_234
10
20.6943064
20
142.0340389
40
1.0404907
50
179.7995573
51
185.2460446
0
ARC
8
DEFAULT_255_1_234
10
20.2900104
20
141.9957513
40
0.6343885
50
185.1411642
51
193.0079639
0
ARC
8
DEFAULT_255_1_234
10
20.0256576
20
141.9332641
40
0.3627568
50
192.7897626
51
205.2507664
0
ARC
8
DEFAULT_255_1_234
10
19.9210123
20
141.8865415
40
0.2481908
50
205.8005384
51
211.2537509
0
ARC
8
DEFAULT_255_1_234
10
19.8686564
20
141.851458
40
0.1852521
50
210.3789793
51
238.4008143
0
ARC
8
DEFAULT_255_1_234
10
19.8667085
20
141.8561376
40
0.1882621
50
239.6520629
51
265.9793761
0
ARC
8
DEFAULT_255_1_234
10
19.8752286
20
141.9233427
40
0.2559272
50
265.1315437
51
270.060332
0
ARC
8
DEFAULT_255_1_234
10
19.8781064
20
141.8909534
40
0.2235528
50
269.3314664
51
287.2178029
0
ARC
8
DEFAULT_255_1_234
10
19.8918916
20
141.8406279
40
0.1714108
50
287.7958004
51
329.080874
0
ARC
8
DEFAULT_255_1_234
10
19.7961373
20
141.900393
40
0.2842745
50
328.6634704
51
343.3325132
0
ARC
8
DEFAULT_255_1_234
10
19.5788393
20
141.9680863
40
0.5118644
50
343.0499468
51
351.9393422
0
ARC
8
DEFAULT_255_1_234
10
19.2321693
20
142.0191949
40
0.8622784
50
351.8069023
51
357.7959224
0
ARC
8
DEFAULT_255_1_234
10
18.9086249
20
142.0359721
40
1.1862365
50
357.5871873
51
359.2677531
0
ARC
8
DEFAULT_255_2_778
10
8.4842378
20
145.5683433
40
0.4373747
50
56.3665942
51
72.7074496
0
ARC
8
DEFAULT_255_2_778
10
8.5215053
20
145.6819036
40
0.3178747
50
73.036784
51
89.7973226
0
ARC
8
DEFAULT_255_2_778
10
8.5288513
20
145.6595167
40
0.3403165
50
91.0475309
51
125.5485458
0
ARC
8
DEFAULT_255_2_778
10
8.6945904
20
145.4106582
40
0.6392287
50
124.6669492
51
139.114563
0
ARC
8
DEFAULT_255_2_778
10
8.9360319
20
145.1872476
40
0.9680575
50
138.4713305
51
142.1157612
0
ARC
8
DEFAULT_255_2_778
10
8.5585787
20
145.2179798
40
0.5212765
50
117.7453356
51
135.8758074
0
ARC
8
DEFAULT_255_2_778
10
8.4614378
20
145.4003273
40
0.3146729
50
90.4656379
51
117.5483702
0
ARC
8
DEFAULT_255_2_778
10
8.4553272
20
145.3850634
40
0.3299454
50
64.3679478
51
89.3829577
0
ARC
8
DEFAULT_255_2_778
10
8.4230062
20
145.3034901
40
0.4175182
50
64.8738747
51
65.2115951
0
LINE
8
DEFAULT_255_2_778
10
8.1719896
20
145.7817008
11
8.1719896
21
145.9577008
0
LINE
8
DEFAULT_255_2_778
10
8.1719896
20
145.9577008
11
7.8316896
21
145.9577008
0
LINE
8
DEFAULT_255_2_778
10
7.8316896
20
145.9577008
11
7.8316896
21
144.7390008
0
LINE
8
DEFAULT_255_2_778
10
7.8316896
20
144.7390008
11
8.1970896
21
144.7390008
0
LINE
8
DEFAULT_255_2_778
10
8.1970896
20
144.7390008
11
8.1843896
21
145.5809008
0
LINE
8
DEFAULT_255_2_778
10
8.6002896
20
145.6815008
11
8.7264896
21
145.9325008
0
ARC
8
DEFAULT_255_2_778
10
12.3462297
20
145.1264166
40
0.1058286
50
290.4109967
51
338.4144294
0
ARC
8
DEFAULT_255_2_778
10
12.162295
20
145.495521
40
0.5177505
50
282.5203845
51
295.2483499
0
ARC
8
DEFAULT_255_2_778
10
12.2164596
20
145.3621179
40
0.3756367
50
270.2518229
51
277.9224239
0
ARC
8
DEFAULT_255_2_778
10
12.2019255
20
145.1496058
40
0.163922
50
191.9135594
51
275.6664103
0
ARC
8
DEFAULT_255_2_778
10
12.266424
20
145.2771972
40
0.6680449
50
207.8643513
51
221.7718618
0
ARC
8
DEFAULT_255_2_778
10
12.0489477
20
145.0707613
40
0.3684417
50
220.3588923
51
270.0277924
0
ARC
8
DEFAULT_255_2_778
10
12.0434926
20
145.2028085
40
0.5005206
50
270.6449322
51
287.6494066
0
ARC
8
DEFAULT_255_2_778
10
11.9529907
20
145.4987608
40
0.8099892
50
287.4026496
51
297.6988649
0
ARC
8
DEFAULT_255_2_778
10
11.7449905
20
145.9019576
40
1.2636684
50
297.5514274
51
304.3018591
0
LINE
8
DEFAULT_255_2_778
10
12.0415344
20
145.1157664
11
12.0351344
21
145.9637664
0
LINE
8
DEFAULT_255_2_778
10
12.0351344
20
145.9637664
11
11.6758344
21
145.9637664
0
LINE
8
DEFAULT_255_2_778
10
11.6758344
20
145.9637664
11
11.6758344
21
144.9649664
0
LINE
8
DEFAULT_255_2_778
10
12.4571344
20
144.8580664
11
12.4698344
21
144.7450664
0
LINE
8
DEFAULT_255_2_778
10
12.4698344
20
144.7450664
11
12.8101344
21
144.7450664
0
LINE
8
DEFAULT_255_2_778
10
12.8101344
20
144.7450664
11
12.8101344
21
145.9764664
0
LINE
8
DEFAULT_255_2_778
10
12.8101344
20
145.9764664
11
12.4444344
21
145.9764664
0
LINE
8
DEFAULT_255_2_778
10
12.4444344
20
145.9764664
11
12.4444344
21
145.0842664
0
LINE
8
DEFAULT_255_2_778
10
15.1797344
20
144.7387664
11
15.1797344
21
145.9701664
0
LINE
8
DEFAULT_255_2_778
10
15.1797344
20
145.9701664
11
15.5453344
21
145.9701664
0
LINE
8
DEFAULT_255_2_778
10
15.5453344
20
145.9701664
11
15.5453344
21
144.7387664
0
LINE
8
DEFAULT_255_2_778
10
15.5453344
20
144.7387664
11
15.1797344
21
144.7387664
0
ARC
8
DEFAULT_255_2_778
10
15.3647435
20
146.362866
40
0.1978332
50
90.7257917
51
180.9507563
0
ARC
8
DEFAULT_255_2_778
10
15.3597161
20
146.3629493
40
0.1977501
50
359.0247012
51
89.2694187
0
ARC
8
DEFAULT_255_2_778
10
15.3597161
20
146.3562174
40
0.1977501
50
270.7305813
51
0.9752988
0
ARC
8
DEFAULT_255_2_778
10
15.3647435
20
146.3563007
40
0.1978332
50
179.0492437
51
269.2742083
0
LINE
8
DEFAULT_255_2_778
10
15.1669375
20
146.3595833
11
15.1669375
21
146.3595833
0
LINE
8
DEFAULT_255_2_778
10
16.8729729
20
144.7354854
11
16.8729729
21
145.9668854
0
LINE
8
DEFAULT_255_2_778
10
16.8729729
20
145.9668854
11
17.2386729
21
145.9668854
0
LINE
8
DEFAULT_255_2_778
10
17.2386729
20
145.9668854
11
17.2386729
21
144.7354854
0
LINE
8
DEFAULT_255_2_778
10
17.2386729
20
144.7354854
11
16.8729729
21
144.7354854
0
ARC
8
DEFAULT_255_2_778
10
17.0581435
20
146.359666
40
0.1978332
50
90.7257917
51
180.9507563
0
ARC
8
DEFAULT_255_2_778
10
17.0531161
20
146.3597493
40
0.1977501
50
359.0247012
51
89.2694187
0
ARC
8
DEFAULT_255_2_778
10
17.0531161
20
146.3530174
40
0.1977501
50
270.7305813
51
0.9752988
0
ARC
8
DEFAULT_255_2_778
10
17.0581435
20
146.3531007
40
0.1978332
50
179.0492437
51
269.2742083
0
LINE
8
DEFAULT_255_2_778
10
16.8603375
20
146.3563833
11
16.8603375
21
146.3563833
0
ARC
8
DEFAULT_255_2_778
10
21.970418
20
144.5939227
40
0.3997146
50
186.2131711
51
214.6577436
0
ARC
8
DEFAULT_255_2_778
10
21.8841491
20
144.5543601
40
0.3066997
50
217.744646
51
266.8145684
0
ARC
8
DEFAULT_255_2_778
10
21.9237244
20
144.7652036
40
0.5201599
50
263.7511447
51
266.7848801
0
ARC
8
DEFAULT_255_2_778
10
21.9002471
20
144.5709163
40
0.2402213
50
195.2759813
51
268.6413445
0
ARC
8
DEFAULT_255_2_778
10
22.1728439
20
144.6965818
40
0.5385664
50
193.3133601
51
200.5393414
0
ARC
8
DEFAULT_255_2_778
10
21.9558314
20
144.5436054
40
0.3084425
50
141.9154932
51
174.6130531
0
ARC
8
DEFAULT_255_2_778
10
21.8946765
20
144.5695396
40
0.2449229
50
90.0292982
51
137.86297
0
ARC
8
DEFAULT_255_2_778
10
21.8900311
20
144.5876835
40
0.3117117
50
89.169111
51
162.3562446
0
ARC
8
DEFAULT_255_2_778
10
22.1495641
20
144.4560256
40
0.6007672
50
157.8882743
51
162.6116909
0
ARC
8
DEFAULT_255_2_778
10
13.7518475
20
145.148469
40
0.434232
50
284.0737984
51
307.1283935
0
ARC
8
DEFAULT_255_2_778
10
13.6603344
20
145.4850455
40
0.7829896
50
272.5675489
51
284.5802087
0
ARC
8
DEFAULT_255_2_778
10
13.6344156
20
145.8439403
40
1.1427274
50
269.9523961
51
273.0596894
0
ARC
8
DEFAULT_255_2_778
10
13.6383034
20
146.2256179
40
1.5244123
50
264.3721605
51
269.8181894
0
ARC
8
DEFAULT_255_2_778
10
13.7027881
20
146.8973919
40
2.1992727
50
260.3040359
51
264.4165702
0
ARC
8
DEFAULT_255_2_778
10
13.7920902
20
147.4498156
40
2.75885
50
259.2299789
51
260.4081406
0
ARC
8
DEFAULT_255_2_778
10
13.5130405
20
145.2993783
40
0.6077178
50
188.8927198
51
247.0988028
0
ARC
8
DEFAULT_255_2_778
10
13.8555895
20
145.3905217
40
0.9609548
50
185.1081288
51
191.1050073
0
ARC
8
DEFAULT_255_2_778
10
13.7233792
20
145.318017
40
0.8250312
50
161.5072483
51
180.9066349
0
ARC
8
DEFAULT_255_2_778
10
13.4744453
20
145.3967627
40
0.5639907
50
120.4701872
51
161.0725957
0
ARC
8
DEFAULT_255_2_778
10
13.5600933
20
145.330027
40
0.6661417
50
90.0499347
51
123.9108507
0
ARC
8
DEFAULT_255_2_778
10
13.573003
20
145.173498
40
0.8227812
50
89.9974966
51
90.9394619
0
ARC
8
DEFAULT_255_2_778
10
13.567053
20
145.0124594
40
0.9838382
50
77.8335832
51
89.6513936
0
ARC
8
DEFAULT_255_2_778
10
13.4795686
20
144.5945554
40
1.4107957
50
69.8093959
51
77.9373312
0
ARC
8
DEFAULT_255_2_778
10
13.3760065
20
144.2927908
40
1.7297745
50
69.0266426
51
70.0397415
0
ARC
8
DEFAULT_255_2_778
10
13.5343739
20
144.3147164
40
1.4359408
50
73.9178594
51
79.2452957
0
ARC
8
DEFAULT_255_2_778
10
13.6318735
20
144.8350106
40
0.9065925
50
79.1629935
51
86.6049203
0
ARC
8
DEFAULT_255_2_778
10
13.649902
20
145.086333
40
0.654651
50
86.8774046
51
89.9568351
0
ARC
8
DEFAULT_255_2_778
10
13.64243
20
145.3236025
40
0.4174572
50
88.9067133
51
108.0688095
0
ARC
8
DEFAULT_255_2_778
10
13.5852023
20
145.4973459
40
0.2345328
50
107.942404
51
152.2459688
0
ARC
8
DEFAULT_255_2_778
10
14.2993316
20
145.1670872
40
1.0210941
50
154.5072776
51
162.5682748
0
ARC
8
DEFAULT_255_2_778
10
13.9273868
20
145.2818314
40
0.6318603
50
162.3915767
51
174.8213024
0
ARC
8
DEFAULT_255_2_778
10
13.7622439
20
145.3006421
40
0.4657093
50
175.2922289
51
179.9490984
0
ARC
8
DEFAULT_255_2_778
10
13.635088
20
145.2932528
40
0.338643
50
178.6796766
51
234.9381893
0
ARC
8
DEFAULT_255_2_778
10
13.6327313
20
145.3049177
40
0.3469445
50
236.3635337
51
264.9414885
0
ARC
8
DEFAULT_255_2_778
10
13.6587955
20
145.4804041
40
0.5241505
50
263.7947872
51
270.1188666
0
ARC
8
DEFAULT_255_2_778
10
13.6535226
20
145.7177912
40
0.7615633
50
270.4785196
51
281.0719661
0
ARC
8
DEFAULT_255_2_778
10
13.5692117
20
146.1716518
40
1.2231753
50
280.8649891
51
287.2606546
0
ARC
8
DEFAULT_255_2_778
10
14.6239491
20
147.0045775
40
2.2970478
50
276.5245429
51
279.5045514
0
ARC
8
DEFAULT_255_2_778
10
14.6893389
20
146.4269423
40
1.7157236
50
272.7759418
51
276.5469051
0
ARC
8
DEFAULT_255_2_778
10
14.7091281
20
146.0466849
40
1.3349546
50
270.0439674
51
272.7180028
0
ARC
8
DEFAULT_255_2_778
10
14.7005118
20
145.5785255
40
0.8668484
50
258.6359382
51
270.6372354
0
ARC
8
DEFAULT_255_2_778
10
14.6078537
20
145.1426002
40
0.4212409
50
235.5405817
51
259.3086539
0
ARC
8
DEFAULT_255_2_778
10
14.5467662
20
145.0352689
40
0.2983588
50
181.5929591
51
233.550276
0
ARC
8
DEFAULT_255_2_778
10
14.7449853
20
145.0652298
40
0.4979343
50
179.9387066
51
184.4062155
0
ARC
8
DEFAULT_255_2_778
10
14.8385536
20
145.1612996
40
0.2332136
50
194.3846046
51
259.805052
0
ARC
8
DEFAULT_255_2_778
10
14.9431857
20
145.5265482
40
0.6124159
50
256.2164989
51
270.9014371
0
ARC
8
DEFAULT_255_2_778
10
14.9523166
20
145.8934885
40
0.9792806
50
270.0294815
51
272.249316
0
LINE
8
DEFAULT_255_2_778
10
15.5956513
20
145.9637625
11
15.9422513
21
145.9637625
0
LINE
8
DEFAULT_255_2_778
10
15.9422513
20
145.9637625
11
16.2131513
21
145.2224625
0
LINE
8
DEFAULT_255_2_778
10
16.2131513
20
145.2224625
11
16.4840513
21
145.9701625
0
LINE
8
DEFAULT_255_2_778
10
16.4840513
20
145.9701625
11
16.7928513
21
145.9701625
0
LINE
8
DEFAULT_255_2_778
10
16.7928513
20
145.9701625
11
16.2885513
21
144.7199625
0
LINE
8
DEFAULT_255_2_778
10
16.2885513
20
144.7199625
11
16.0678513
21
144.7199625
0
LINE
8
DEFAULT_255_2_778
10
16.0678513
20
144.7199625
11
15.5956513
21
145.9637625
0
LINE
8
DEFAULT_255_2_778
10
6.2182513
20
146.5921625
11
6.3002513
21
146.5921625
0
LINE
8
DEFAULT_255_2_778
10
6.3002513
20
146.5921625
11
6.3002513
21
144.6352625
0
LINE
8
DEFAULT_255_2_778
10
6.3002513
20
144.6352625
11
18.5070513
21
144.6321625
0
LINE
8
DEFAULT_255_2_778
10
18.5070513
20
144.6321625
11
18.5102513
21
144.5503625
0
LINE
8
DEFAULT_255_2_778
10
18.5102513
20
144.5503625
11
6.2182513
21
144.5503625
0
LINE
8
DEFAULT_255_2_778
10
6.2182513
20
144.5503625
11
6.2182513
21
146.5858625
0
LINE
8
DEFAULT_255_2_778
10
18.9671513
20
144.6384625
11
18.9671513
21
144.5506625
0
LINE
8
DEFAULT_255_2_778
10
18.9671513
20
144.5506625
11
21.5730513
21
144.5506625
0
LINE
8
DEFAULT_255_2_778
10
21.8945513
20
144.2458625
11
21.8945513
21
144.3307625
0
LINE
8
DEFAULT_255_2_778
10
21.8945513
20
144.8144625
11
21.8945513
21
144.8993625
0
LINE
8
DEFAULT_255_2_778
10
21.5762513
20
144.6355625
11
18.9735513
21
144.6355625
0
LINE
8
DEFAULT_255_2_778
10
13.9382513
20
145.0033625
11
14.0139513
21
144.8022625
0
LINE
8
DEFAULT_255_2_778
10
13.9951513
20
145.9079625
11
13.9321513
21
145.6944625
0
LINE
8
DEFAULT_255_2_778
10
14.2470513
20
145.0657625
11
14.2470513
21
145.7565625
0
LINE
8
DEFAULT_255_2_778
10
14.2470513
20
145.7565625
11
14.0578513
21
145.7565625
0
LINE
8
DEFAULT_255_2_778
10
14.0578513
20
145.7565625
11
14.0578513
21
145.9701625
0
LINE
8
DEFAULT_255_2_778
10
14.0578513
20
145.9701625
11
14.2470513
21
145.9701625
0
LINE
8
DEFAULT_255_2_778
10
14.2470513
20
145.9701625
11
14.3856513
21
146.4725625
0
LINE
8
DEFAULT_255_2_778
10
14.3856513
20
146.4725625
11
14.5999513
21
146.4725625
0
LINE
8
DEFAULT_255_2_778
10
14.5999513
20
146.4725625
11
14.6126513
21
145.9701625
0
LINE
8
DEFAULT_255_2_778
10
14.6126513
20
145.9701625
11
14.9529513
21
145.9701625
0
LINE
8
DEFAULT_255_2_778
10
14.9529513
20
145.9701625
11
14.9529513
21
145.7565625
0
LINE
8
DEFAULT_255_2_778
10
14.9529513
20
145.7565625
11
14.6126513
21
145.7565625
0
LINE
8
DEFAULT_255_2_778
10
14.6126513
20
145.7565625
11
14.6126513
21
145.1033625
0
LINE
8
DEFAULT_255_2_778
10
14.9907513
20
144.9149625
11
15.0032513
21
144.7390625
0
ARC
8
DEFAULT_255_2_778
10
18.2771567
20
144.5983016
40
0.588921
50
314.1465216
51
331.9330914
0
ARC
8
DEFAULT_255_2_778
10
18.4147245
20
144.4581113
40
0.3925118
50
269.0312524
51
313.9901377
0
ARC
8
DEFAULT_255_2_778
10
18.4130071
20
144.6504619
40
0.584827
50
255.6549108
51
269.5180973
0
ARC
8
DEFAULT_255_2_778
10
18.4880411
20
144.9536139
40
0.8971207
50
246.7072254
51
255.8091359
0
ARC
8
DEFAULT_255_2_778
10
18.6124803
20
145.2561796
40
1.2242447
50
243.4735796
51
246.9574492
0
ARC
8
DEFAULT_255_2_778
10
18.3377307
20
144.6868958
40
0.365718
50
238.6975405
51
269.7536991
0
ARC
8
DEFAULT_255_2_778
10
18.3341625
20
144.7208672
40
0.3996911
50
270.2861506
51
285.9235992
0
ARC
8
DEFAULT_255_2_778
10
18.3190528
20
144.5415257
40
0.2399938
50
301.3239159
51
328.5484084
0
ARC
8
DEFAULT_255_2_778
10
17.8344662
20
144.8677796
40
0.8240117
50
326.7768178
51
337.3925755
0
ARC
8
DEFAULT_255_2_778
10
16.7758869
20
145.3264406
40
1.9776351
50
336.9149998
51
342.1307954
0
ARC
8
DEFAULT_255_2_778
10
18.1003835
20
145.1310501
40
0.1954042
50
190.120766
51
263.958695
0
ARC
8
DEFAULT_255_2_778
10
18.1765334
20
145.4336691
40
0.5062622
50
258.9866291
51
270.5697296
0
ARC
8
DEFAULT_255_2_778
10
18.179421
20
145.7511009
40
0.8236717
50
270.1493118
51
275.0745303
0
ARC
8
DEFAULT_255_2_778
10
18.1623931
20
145.9681991
40
1.0414275
50
274.9512067
51
276.4741818
0
ARC
8
DEFAULT_255_2_778
10
17.8865118
20
147.2244593
40
2.5197089
50
276.512457
51
279.4178429
0
ARC
8
DEFAULT_255_2_778
10
17.9623799
20
146.5541109
40
1.8450814
50
272.9002784
51
276.532699
0
ARC
8
DEFAULT_255_2_778
10
17.9860581
20
146.111808
40
1.4021477
50
270.0528156
51
272.8484525
0
ARC
8
DEFAULT_255_2_778
10
17.9780255
20
145.6030179
40
0.8934054
50
259.5071449
51
270.5980454
0
ARC
8
DEFAULT_255_2_778
10
17.887913
20
145.1420607
40
0.4237716
50
238.7101736
51
260.1371304
0
ARC
8
DEFAULT_255_2_778
10
17.8040731
20
144.9956077
40
0.2551147
50
181.256628
51
237.7180126
0
LINE
8
DEFAULT_255_2_778
10
18.0657198
20
144.1608129
11
18.1477198
21
144.3744129
0
LINE
8
DEFAULT_255_2_778
10
18.6581198
20
144.7196129
11
18.2295198
21
145.7499129
0
LINE
8
DEFAULT_255_2_778
10
18.2295198
20
145.7499129
11
17.9080198
21
145.7499129
0
LINE
8
DEFAULT_255_2_778
10
17.9080198
20
145.7499129
11
17.9080198
21
145.0967129
0
LINE
8
DEFAULT_255_2_778
10
18.2798198
20
144.9334129
11
18.2988198
21
144.7387129
0
LINE
8
DEFAULT_255_2_778
10
17.5490198
20
144.9900129
11
17.5363198
21
145.7565129
0
LINE
8
DEFAULT_255_2_778
10
17.5363198
20
145.7565129
11
17.3471198
21
145.7565129
0
LINE
8
DEFAULT_255_2_778
10
17.3471198
20
145.7565129
11
17.3471198
21
145.9701129
0
LINE
8
DEFAULT_255_2_778
10
17.3471198
20
145.9701129
11
17.5487198
21
145.9701129
0
LINE
8
DEFAULT_255_2_778
10
17.5487198
20
145.9701129
11
17.6747198
21
146.4725129
0
LINE
8
DEFAULT_255_2_778
10
17.6747198
20
146.4725129
11
17.8890198
21
146.4725129
0
LINE
8
DEFAULT_255_2_778
10
17.8890198
20
146.4725129
11
17.9017198
21
145.9701129
0
LINE
8
DEFAULT_255_2_778
10
17.9017198
20
145.9701129
11
18.5319198
21
145.9701129
0
LINE
8
DEFAULT_255_2_778
10
18.5319198
20
145.9701129
11
18.8343198
21
145.1409129
0
LINE
8
DEFAULT_255_2_778
10
18.8343198
20
145.1409129
11
19.1367198
21
145.9701129
0
LINE
8
DEFAULT_255_2_778
10
19.1367198
20
145.9701129
11
19.4519198
21
145.9701129
0
LINE
8
DEFAULT_255_2_778
10
19.4519198
20
145.9701129
11
18.7965198
21
144.3241129
0
ARC
8
DEFAULT_255_2_778
10
19.6924911
20
145.9240064
40
0.0240119
50
28.9725327
51
103.4850922
0
ARC
8
DEFAULT_255_2_778
10
19.6675258
20
145.7088978
40
0.2392435
50
85.3570436
51
90.3180147
0
ARC
8
DEFAULT_255_2_778
10
19.68302
20
145.3124354
40
0.7352792
50
91.4451573
51
94.5103719
0
ARC
8
DEFAULT_255_2_778
10
19.6762642
20
145.5375413
40
0.5100756
50
90.0204387
51
91.3242457
0
ARC
8
DEFAULT_255_2_778
10
19.6820782
20
145.8162926
40
0.231402
50
77.5838349
51
91.484776
0
ARC
8
DEFAULT_255_2_778
10
19.7300541
20
146.0104087
40
0.0319233
50
15.1916927
51
86.8071299
0
ARC
8
DEFAULT_255_2_778
10
19.7392759
20
146.0165197
40
0.0217032
50
359.9550511
51
5.9623374
0
ARC
8
DEFAULT_255_2_778
10
19.7113423
20
146.0214073
40
0.0498786
50
318.6903529
51
354.3569627
0
ARC
8
DEFAULT_255_2_778
10
19.59333
20
146.1089286
40
0.1966754
50
312.4194177
51
322.2354785
0
ARC
8
DEFAULT_255_2_778
10
19.7074456
20
145.9209292
40
0.0466555
50
7.7623904
51
66.56899
0
ARC
8
DEFAULT_255_2_778
10
19.5728806
20
145.8929086
40
0.184022
50
4.3922991
51
10.7492459
0
ARC
8
DEFAULT_255_2_778
10
19.7790464
20
145.9032679
40
0.0229895
50
170.6523659
51
230.6545988
0
ARC
8
DEFAULT_255_2_778
10
19.7669101
20
145.8937613
40
0.0086241
50
253.5721784
51
270.5831571
0
ARC
8
DEFAULT_255_2_778
10
19.6864906
20
145.9904188
40
0.034333
50
13.334954
51
106.2290103
0
ARC
8
DEFAULT_255_2_778
10
19.6694514
20
145.843395
40
0.1801426
50
87.631716
51
90.0488074
0
ARC
8
DEFAULT_255_2_778
10
19.6792828
20
146.0423746
40
0.0666888
50
261.3891358
51
304.5653386
0
ARC
8
DEFAULT_255_2_778
10
19.7080184
20
145.9950951
40
0.0118802
50
319.9940947
51
0.6866831
0
ARC
8
DEFAULT_255_2_778
10
19.6909745
20
145.9669613
40
0.1602765
50
89.8843696
51
180.00852
0
ARC
8
DEFAULT_255_2_778
10
19.6918123
20
145.9671526
40
0.1600857
50
359.923006
51
90.1841118
0
ARC
8
DEFAULT_255_2_778
10
19.6917276
20
145.9667075
40
0.1601705
50
269.8462838
51
0.0822692
0
ARC
8
DEFAULT_255_2_778
10
19.6908681
20
145.9667074
40
0.1601705
50
179.9177057
51
270.1537517
0
ARC
8
DEFAULT_255_2_778
10
19.6941702
20
145.9680588
40
0.1256773
50
179.9900739
51
180.5112141
0
ARC
8
DEFAULT_255_2_778
10
19.6929324
20
145.9681978
40
0.1244397
50
135.616881
51
180.0539568
0
ARC
8
DEFAULT_255_2_778
10
19.6926982
20
145.9684377
40
0.1241046
50
90.5079979
51
135.6204406
0
ARC
8
DEFAULT_255_2_778
10
19.6904941
20
145.9686676
40
0.1238749
50
44.3347873
51
89.4894407
0
ARC
8
DEFAULT_255_2_778
10
19.6901635
20
145.9681978
40
0.1244397
50
359.9460432
51
44.383119
0
ARC
8
DEFAULT_255_2_778
10
19.6889256
20
145.9680588
40
0.1256775
50
359.4887859
51
0.0099261
0
ARC
8
DEFAULT_255_2_778
10
19.6889212
20
145.9658161
40
0.1256817
50
359.9900717
51
0.5112118
0
ARC
8
DEFAULT_255_2_778
10
19.6899314
20
145.9656718
40
0.1246718
50
315.6604182
51
0.0563277
0
ARC
8
DEFAULT_255_2_778
10
19.690317
20
145.9655233
40
0.1242924
50
270.5905059
51
315.5851458
0
ARC
8
DEFAULT_255_2_778
10
19.6928761
20
145.9657548
40
0.1245239
50
224.4596468
51
269.4118891
0
ARC
8
DEFAULT_255_2_778
10
19.6931644
20
145.9656718
40
0.1246718
50
179.9436723
51
224.3395818
0
ARC
8
DEFAULT_255_2_778
10
19.6941746
20
145.9658161
40
0.1256819
50
179.4887882
51
180.0099283
0
LINE
8
DEFAULT_255_2_778
10
19.7671979
20
145.8854375
11
19.7261979
21
145.8854375
0
LINE
8
DEFAULT_255_2_778
10
19.7261979
20
145.8854375
11
19.7134979
21
145.9356375
0
LINE
8
DEFAULT_255_2_778
10
19.6661979
20
145.9481375
11
19.6661979
21
145.8854375
0
LINE
8
DEFAULT_255_2_778
10
19.6661979
20
145.8854375
11
19.6282979
21
145.8854375
0
LINE
8
DEFAULT_255_2_778
10
19.6282979
20
145.8854375
11
19.6251979
21
146.0454375
0
LINE
8
DEFAULT_255_2_778
10
19.7669979
20
145.8851375
11
19.7671979
21
145.8854375
0
LINE
8
DEFAULT_255_2_778
10
19.6692979
20
146.0235375
11
19.6692979
21
145.9764375
0
LINE
8
DEFAULT_255_2_778
10
19.5306979
20
145.9669375
11
19.5306979
21
145.9669375
0
LINE
8
DEFAULT_255_2_778
10
19.5684979
20
145.9669375
11
19.5684979
21
145.9669375
0
LINE
8
DEFAULT_255_2_778
10
11.0900688
20
145.6943698
11
11.0900688
21
145.0660698
0
ARC
8
DEFAULT_255_2_778
10
10.4258178
20
146.2592512
40
1.3656176
50
292.8223416
51
299.1049387
0
ARC
8
DEFAULT_255_2_778
10
10.6923229
20
145.6175623
40
0.6708024
50
282.4794629
51
293.1002978
0
ARC
8
DEFAULT_255_2_778
10
10.7656801
20
145.2920416
40
0.3371233
50
270.5838487
51
282.2615078
0
ARC
8
DEFAULT_255_2_778
10
10.7637817
20
145.125428
40
0.1705756
50
241.3798642
51
271.7918735
0
ARC
8
DEFAULT_255_2_778
10
10.7476697
20
145.088612
40
0.1305871
50
222.8095502
51
239.8477433
0
ARC
8
DEFAULT_255_2_778
10
10.8383448
20
145.2131648
40
0.2833162
50
195.5923976
51
228.8379937
0
ARC
8
DEFAULT_255_2_778
10
11.2233514
20
145.3369125
40
0.6875956
50
182.8988217
51
196.901328
0
ARC
8
DEFAULT_255_2_778
10
11.7297763
20
145.3790595
40
1.1956176
50
179.9089191
51
183.6886871
0
ARC
8
DEFAULT_255_2_778
10
12.0981229
20
145.3794544
40
1.5639636
50
177.2544012
51
179.9448392
0
LINE
8
DEFAULT_255_2_778
10
10.5359547
20
145.4543705
11
10.5359688
21
145.4546698
0
ARC
8
DEFAULT_255_2_778
10
11.0005754
20
145.3897208
40
0.4691244
50
149.0121274
51
172.0420019
0
ARC
8
DEFAULT_255_2_778
10
10.8347413
20
145.4801494
40
0.280511
50
88.5440138
51
147.4067729
0
ARC
8
DEFAULT_255_2_778
10
10.7657193
20
144.9299864
40
0.8340669
50
72.0203436
51
84.7616527
0
ARC
8
DEFAULT_255_2_778
10
10.8831282
20
145.3080191
40
0.4382821
50
61.8252032
51
71.3646611
0
ARC
8
DEFAULT_255_2_778
10
10.4737962
20
145.9784032
40
1.2918982
50
287.0682731
51
298.4915226
0
ARC
8
DEFAULT_255_2_778
10
10.6328818
20
145.4554772
40
0.7453122
50
270.6811176
51
287.1763457
0
ARC
8
DEFAULT_255_2_778
10
10.6416525
20
145.2894494
40
0.5792318
50
267.7358327
51
270.0088232
0
ARC
8
DEFAULT_255_2_778
10
10.6221952
20
145.1298768
40
0.4192211
50
203.9093897
51
269.5317059
0
ARC
8
DEFAULT_255_2_778
10
11.0896726
20
145.3892122
40
0.9528801
50
192.6009015
51
206.7737237
0
ARC
8
DEFAULT_255_2_778
10
11.4914822
20
145.4975427
40
1.3687639
50
192.6165694
51
193.3570279
0
ARC
8
DEFAULT_255_2_778
10
11.1915444
20
145.3917151
40
1.05363
50
182.6356817
51
190.5628607
0
ARC
8
DEFAULT_255_2_778
10
11.0380576
20
145.3821692
40
0.89987
50
180.0135228
51
182.4779265
0
ARC
8
DEFAULT_255_2_778
10
10.8122185
20
145.3980664
40
0.6742234
50
136.7456723
51
181.3691273
0
ARC
8
DEFAULT_255_2_778
10
10.662857
20
145.4868873
40
0.5059802
50
89.2314975
51
132.4774114
0
ARC
8
DEFAULT_255_2_778
10
10.6695571
20
145.3761601
40
0.6166618
50
87.8056342
51
89.9919799
0
ARC
8
DEFAULT_255_2_778
10
10.6807164
20
144.8344717
40
1.157965
50
70.3175508
51
89.3838437
0
ARC
8
DEFAULT_255_2_778
10
10.5893508
20
144.5269874
40
1.4783609
50
70.2024224
51
70.9971735
0
ARC
8
DEFAULT_255_2_778
10
9.3624819
20
145.3608426
40
0.1950108
50
91.6788031
51
181.813939
0
ARC
8
DEFAULT_255_2_778
10
9.350989
20
145.3607798
40
0.1950756
50
358.2051219
51
88.3021655
0
ARC
8
DEFAULT_255_2_778
10
9.3509891
20
145.3485596
40
0.1950754
50
271.6978133
51
1.7949071
0
ARC
8
DEFAULT_255_2_778
10
9.3624819
20
145.3484969
40
0.1950108
50
178.186061
51
268.3211969
0
ARC
8
DEFAULT_255_2_778
10
9.5084727
20
145.3614309
40
0.4668529
50
145.043768
51
180.8298084
0
ARC
8
DEFAULT_255_2_778
10
9.3653029
20
145.4691132
40
0.287883
50
91.6987406
51
146.2830079
0
ARC
8
DEFAULT_255_2_778
10
9.3415457
20
145.4521621
40
0.3050877
50
23.4934874
51
87.1398977
0
ARC
8
DEFAULT_255_2_778
10
9.1870732
20
145.3582629
40
0.484809
50
359.5753549
51
26.3944218
0
ARC
8
DEFAULT_255_2_778
10
9.2053375
20
145.34792
40
0.4665802
50
325.0256173
51
0.8288991
0
ARC
8
DEFAULT_255_2_778
10
9.3482106
20
145.2403699
40
0.2879274
50
271.7032906
51
326.2656695
0
ARC
8
DEFAULT_255_2_778
10
9.3720078
20
145.2574987
40
0.3053095
50
203.3271307
51
267.1389871
0
ARC
8
DEFAULT_255_2_778
10
9.5267258
20
145.351093
40
0.4850703
50
179.5775117
51
206.2433806
0
ARC
8
DEFAULT_255_2_778
10
9.3462242
20
145.3357025
40
0.6700752
50
95.9615992
51
178.9168048
0
ARC
8
DEFAULT_255_2_778
10
9.3692457
20
145.2676302
40
0.7403396
50
89.982733
51
97.186551
0
ARC
8
DEFAULT_255_2_778
10
9.3737015
20
145.2978279
40
0.7101545
50
48.1622127
51
90.3414937
0
ARC
8
DEFAULT_255_2_778
10
9.4198028
20
145.3468697
40
0.6428678
50
0.1336951
51
48.3079447
0
ARC
8
DEFAULT_255_2_778
10
9.3927134
20
145.361037
40
0.6700752
50
275.9615992
51
358.9168048
0
ARC
8
DEFAULT_255_2_778
10
9.3696919
20
145.4291094
40
0.7403396
50
269.982733
51
277.186551
0
ARC
8
DEFAULT_255_2_778
10
9.3652362
20
145.3989116
40
0.7101545
50
228.1622127
51
270.3414937
0
ARC
8
DEFAULT_255_2_778
10
9.3191349
20
145.3498698
40
0.6428678
50
180.1336951
51
228.3079447
0
ARC
8
DEFAULT_255_2_778
10
6.8107463
20
146.0453908
40
0.4410946
50
358.399361
51
20.0218069
0
ARC
8
DEFAULT_255_2_778
10
7.0252301
20
146.1214859
40
0.2135292
50
20.5419455
51
86.7410997
0
ARC
8
DEFAULT_255_2_778
10
6.9403671
20
146.0815134
40
0.3150485
50
287.9324001
51
351.1547913
0
ARC
8
DEFAULT_255_2_778
10
7.0381682
20
146.02975
40
0.6191268
50
4.9683528
51
29.9289322
0
ARC
8
DEFAULT_255_2_778
10
7.1427871
20
146.0708443
40
0.508227
50
31.7987523
51
73.6168205
0
ARC
8
DEFAULT_255_2_778
10
7.0076309
20
145.6897148
40
0.9122727
50
72.2244713
51
84.9667071
0
ARC
8
DEFAULT_255_2_778
10
6.9731565
20
146.4537673
40
0.9427779
50
276.9765222
51
292.3131775
0
ARC
8
DEFAULT_255_2_778
10
7.152457
20
146.0462302
40
0.4978062
50
291.0302401
51
353.4987619
0
ARC
8
DEFAULT_255_2_778
10
6.882936
20
146.1015679
40
0.7722473
50
351.6832812
51
358.6496898
0
LINE
8
DEFAULT_255_2_778
10
11.0900688
20
145.6943698
11
11.0900688
21
145.6943698
0
LINE
8
DEFAULT_255_2_778
10
11.0900688
20
145.9177698
11
11.0900688
21
146.6701698
0
LINE
8
DEFAULT_255_2_778
10
11.0900688
20
146.6701698
11
11.4538688
21
146.7114698
0
LINE
8
DEFAULT_255_2_778
10
11.4538688
20
146.7114698
11
11.4538688
21
144.7437698
0
LINE
8
DEFAULT_255_2_778
10
11.4538688
20
144.7437698
11
11.0982688
21
144.7437698
0
LINE
8
DEFAULT_255_2_778
10
11.0982688
20
144.7437698
11
11.0900688
21
144.8429698
0
LINE
8
DEFAULT_255_2_778
10
11.0900688
20
145.9179698
11
11.0900688
21
145.9177698
0
LINE
8
DEFAULT_255_2_778
10
9.1675688
20
145.3546698
11
9.1675688
21
145.3546698
0
LINE
8
DEFAULT_255_2_778
10
9.0416688
20
145.3546698
11
9.0416688
21
145.3546698
0
LINE
8
DEFAULT_255_2_778
10
8.6762688
20
145.3483698
11
8.6762688
21
145.3483698
0
LINE
8
DEFAULT_255_2_778
10
7.0373688
20
146.3346698
11
6.7728688
21
146.3346698
0
LINE
8
DEFAULT_255_2_778
10
6.7728688
20
146.3346698
11
6.7728688
21
145.7817698
0
LINE
8
DEFAULT_255_2_778
10
6.7728688
20
145.7817698
11
7.0373688
21
145.7817698
0
LINE
8
DEFAULT_255_2_778
10
7.2516688
20
146.0330698
11
7.2516688
21
146.0330698
0
LINE
8
DEFAULT_255_2_778
10
7.0876688
20
146.5984698
11
6.3817688
21
146.5984698
0
LINE
8
DEFAULT_255_2_778
10
6.3817688
20
146.5984698
11
6.3817688
21
144.7389698
0
LINE
8
DEFAULT_255_2_778
10
6.3817688
20
144.7389698
11
6.7725688
21
144.7389698
0
LINE
8
DEFAULT_255_2_778
10
6.7725688
20
144.7389698
11
6.7725688
21
145.5179698
0
LINE
8
DEFAULT_255_2_778
10
6.7725688
20
145.5179698
11
7.0876688
21
145.5179698
0
LINE
8
DEFAULT_255_2_778
10
7.6549688
20
146.0833698
11
7.6549688
21
146.0833698
0
ARC
8
DEFAULT_255_2_778
10
22.0341103
20
144.5771325
40
0.1933696
50
91.2195322
51
181.3554583
0
ARC
8
DEFAULT_255_2_778
10
22.0258793
20
144.5771325
40
0.1933696
50
358.6445319
51
88.7804717
0
ARC
8
DEFAULT_255_2_778
10
22.0258794
20
144.5679841
40
0.1933695
50
271.2194968
51
1.3554733
0
ARC
8
DEFAULT_255_2_778
10
22.0341102
20
144.5679841
40
0.1933696
50
178.6445267
51
268.7805032
0
ARC
8
DEFAULT_255_2_778
10
22.500592
20
144.5771522
40
0.1933518
50
91.2438577
51
181.3614136
0
ARC
8
DEFAULT_255_2_778
10
22.4922792
20
144.5771325
40
0.1933696
50
358.6445428
51
88.7804459
0
ARC
8
DEFAULT_255_2_778
10
22.4922795
20
144.5679841
40
0.1933694
50
271.219471
51
1.3554842
0
ARC
8
DEFAULT_255_2_778
10
22.5005921
20
144.5679647
40
0.1933519
50
178.638633
51
268.7561308
0
ARC
8
DEFAULT_255_2_778
10
22.966792
20
144.589852
40
0.1933518
50
91.2438477
51
181.3613675
0
ARC
8
DEFAULT_255_2_778
10
22.9584792
20
144.5898325
40
0.1933696
50
358.6445428
51
88.7804459
0
ARC
8
DEFAULT_255_2_778
10
22.9584795
20
144.5806841
40
0.1933694
50
271.219471
51
1.3554842
0
ARC
8
DEFAULT_255_2_778
10
22.9667921
20
144.5806645
40
0.1933517
50
178.6385825
51
268.7561312
0
LINE
8
DEFAULT_255_2_778
10
21.8407948
20
144.5725583
11
21.8407948
21
144.5725583
0
LINE
8
DEFAULT_255_2_778
10
22.3072948
20
144.5725583
11
22.3072948
21
144.5725583
0
LINE
8
DEFAULT_255_2_778
10
22.7734948
20
144.5852583
11
22.7734948
21
144.5852583
0
LINE
8
DEFAULT_255_2_778
10
21.8956365
20
144.328624
11
21.8665365
21
144.333424
0
LINE
8
DEFAULT_255_2_778
10
21.8665365
20
144.333424
11
21.8059365
21
144.343224
0
LINE
8
DEFAULT_255_2_778
10
21.8059365
20
144.343224
11
21.7299365
21
144.401424
0
LINE
8
DEFAULT_255_2_778
10
21.7299365
20
144.401424
11
21.6728365
21
144.477124
0
LINE
8
DEFAULT_255_2_778
10
21.6728365
20
144.477124
11
21.6476365
21
144.570524
0
LINE
8
DEFAULT_255_2_778
10
21.6476365
20
144.570524
11
21.6728365
21
144.664124
0
LINE
8
DEFAULT_255_2_778
10
21.6728365
20
144.664124
11
21.7294365
21
144.740924
0
LINE
8
DEFAULT_255_2_778
10
21.7294365
20
144.740924
11
21.8053365
21
144.800424
0
LINE
8
DEFAULT_255_2_778
10
21.8053365
20
144.800424
11
21.8665365
21
144.810424
0
LINE
8
DEFAULT_255_2_778
10
21.8665365
20
144.810424
11
21.8958365
21
144.815224
0
LINE
8
DEFAULT_255_2_778
10
21.8958365
20
144.245624
11
21.8546365
21
144.251124
0
LINE
8
DEFAULT_255_2_778
10
21.8546365
20
144.251124
11
21.7707365
21
144.262524
0
LINE
8
DEFAULT_255_2_778
10
21.7707365
20
144.262524
11
21.6683365
21
144.337124
0
LINE
8
DEFAULT_255_2_778
10
21.6683365
20
144.337124
11
21.5950365
21
144.435824
0
LINE
8
DEFAULT_255_2_778
10
21.5950365
20
144.435824
11
21.5733365
21
144.551424
0
ARC
8
DEFAULT_255_2_778
10
19.6071242
20
145.1696303
40
0.3581298
50
180.0162757
51
182.2699138
0
ARC
8
DEFAULT_255_2_778
10
19.4534829
20
145.1832764
40
0.2049502
50
100.1638691
51
183.8462269
0
ARC
8
DEFAULT_255_2_778
10
19.5515993
20
144.8546455
40
0.5471003
50
90.0234402
51
104.2080975
0
ARC
8
DEFAULT_255_2_778
10
19.5528834
20
145.2079699
40
0.1937818
50
5.5175223
51
90.4458723
0
ARC
8
DEFAULT_255_2_778
10
19.3612362
20
145.1675775
40
0.3890348
50
359.7014597
51
8.726641
0
ARC
8
DEFAULT_255_2_778
10
19.2420728
20
145.1657577
40
0.5081929
50
357.7544822
51
359.976639
0
ARC
8
DEFAULT_255_2_778
10
19.3437255
20
145.2105098
40
0.4112653
50
340.4695402
51
350.9537506
0
ARC
8
DEFAULT_255_2_778
10
19.6819855
20
145.0901134
40
0.0522194
50
319.1329344
51
340.8933383
0
ARC
8
DEFAULT_255_2_778
10
19.1300329
20
145.272669
40
0.4858933
50
337.8212904
51
346.2526281
0
ARC
8
DEFAULT_255_2_778
10
19.5379362
20
145.1715825
40
0.0656649
50
347.3486169
51
358.3972422
0
ARC
8
DEFAULT_255_2_778
10
19.3892367
20
145.1787112
40
0.2145262
50
357.6048162
51
359.9743471
0
ARC
8
DEFAULT_255_2_778
10
19.521739
20
145.1921395
40
0.0831313
50
350.6371276
51
96.844243
0
ARC
8
DEFAULT_255_2_778
10
19.5122091
20
145.0740521
40
0.2006266
50
90.1076454
51
94.8990763
0
ARC
8
DEFAULT_255_2_778
10
19.503355
20
145.1705673
40
0.1037096
50
94.579045
51
177.4355725
0
ARC
8
DEFAULT_255_2_778
10
19.6879275
20
145.1159788
40
0.2942018
50
168.3858307
51
173.2328678
0
LINE
8
DEFAULT_255_2_778
10
19.3955754
20
145.1506458
11
19.2492754
21
145.1554458
0
LINE
8
DEFAULT_255_2_778
10
19.7214754
20
145.0559458
11
19.4571754
21
144.7574458
0
LINE
8
DEFAULT_255_2_778
10
19.4571754
20
144.7574458
11
19.7784754
21
144.7574458
0
LINE
8
DEFAULT_255_2_778
10
19.7784754
20
144.7574458
11
19.7784754
21
144.6344458
0
LINE
8
DEFAULT_255_2_778
10
19.7784754
20
144.6344458
11
19.2682754
21
144.6344458
0
LINE
8
DEFAULT_255_2_778
10
19.2682754
20
144.6344458
11
19.2682754
21
144.7387458
0
LINE
8
DEFAULT_255_2_778
10
19.2682754
20
144.7387458
11
19.5799754
21
145.0892458
0
LINE
8
DEFAULT_255_2_778
10
19.3957754
20
145.1506458
11
19.3955754
21
145.1506458
0
ARC
8
DEFAULT_255_2_778
10
21.6491338
20
145.0354013
40
0.5330281
50
158.8297779
51
180.8126209
0
ARC
8
DEFAULT_255_2_778
10
21.3443043
20
145.1615829
40
0.2033429
50
124.0119958
51
160.9659866
0
ARC
8
DEFAULT_255_2_778
10
21.2743176
20
145.254962
40
0.0869831
50
90.4994457
51
120.2017555
0
ARC
8
DEFAULT_255_2_778
10
21.2600082
20
145.2165586
40
0.1261132
50
24.6798401
51
83.8315083
0
ARC
8
DEFAULT_255_2_778
10
21.0025231
20
145.061452
40
0.4261556
50
6.130385
51
29.1785479
0
ARC
8
DEFAULT_255_2_778
10
20.8148831
20
145.0284702
40
0.6163766
50
359.941576
51
7.3161118
0
ARC
8
DEFAULT_255_2_778
10
20.8991049
20
145.0202366
40
0.5322088
50
338.8055679
51
0.8187669
0
ARC
8
DEFAULT_255_2_778
10
21.2033747
20
144.8941684
40
0.203082
50
303.9150541
51
340.932466
0
ARC
8
DEFAULT_255_2_778
10
21.2728185
20
144.8012902
40
0.0874515
50
270.4854298
51
300.1080748
0
ARC
8
DEFAULT_255_2_778
10
21.2871918
20
144.8395041
40
0.1263997
50
204.3281643
51
263.8084993
0
ARC
8
DEFAULT_255_2_778
10
21.5498039
20
144.9955123
40
0.4313014
50
185.613152
51
208.8453558
0
ARC
8
DEFAULT_255_2_778
10
21.738281
20
145.0272819
40
0.6221217
50
179.9484445
51
186.8272745
0
ARC
8
DEFAULT_255_2_778
10
21.5396261
20
145.0319048
40
0.5243157
50
152.5254433
51
180.7827883
0
ARC
8
DEFAULT_255_2_778
10
21.3138339
20
145.1593837
40
0.2653266
50
108.4095367
51
154.4544086
0
ARC
8
DEFAULT_255_2_778
10
21.2768034
20
145.2381783
40
0.1791635
50
90.0140927
51
105.1293658
0
ARC
8
DEFAULT_255_2_778
10
21.2623719
20
145.1864205
40
0.231369
50
28.2822033
51
86.4348199
0
ARC
8
DEFAULT_255_2_778
10
21.0418618
20
145.0392258
40
0.4959362
50
2.837394
51
31.1881489
0
ARC
8
DEFAULT_255_2_778
10
20.9404116
20
145.0248304
40
0.5980477
50
359.9914968
51
3.7337628
0
ARC
8
DEFAULT_255_2_778
10
21.0137058
20
145.0176164
40
0.524802
50
332.6504535
51
0.7779361
0
ARC
8
DEFAULT_255_2_778
10
21.2395936
20
144.8906026
40
0.265965
50
288.44039
51
334.5981325
0
ARC
8
DEFAULT_255_2_778
10
21.2767199
20
144.8118438
40
0.1798021
50
270.0125899
51
285.1541198
0
ARC
8
DEFAULT_255_2_778
10
21.2909632
20
144.8626186
40
0.2310141
50
208.1688806
51
266.4749618
0
ARC
8
DEFAULT_255_2_778
10
21.513001
20
145.0100235
40
0.4969751
50
182.8019459
51
211.0671432
0
ARC
8
DEFAULT_255_2_778
10
21.6169279
20
145.0246537
40
0.6015684
50
179.9916184
51
183.7098813
0
LINE
8
DEFAULT_255_2_778
10
21.1161594
20
145.0278417
11
21.1161594
21
145.0278417
0
LINE
8
DEFAULT_255_2_778
10
21.0153594
20
145.0247417
11
21.0153594
21
145.0247417
0
ARC
8
DEFAULT_255_2_778
10
21.0567338
20
145.0354013
40
0.5330281
50
158.8297779
51
180.8126209
0
ARC
8
DEFAULT_255_2_778
10
20.7519043
20
145.1615829
40
0.2033429
50
124.0119958
51
160.9659866
0
ARC
8
DEFAULT_255_2_778
10
20.6819176
20
145.254962
40
0.0869831
50
90.4994457
51
120.2017555
0
ARC
8
DEFAULT_255_2_778
10
20.6676082
20
145.2165586
40
0.1261132
50
24.6798401
51
83.8315083
0
ARC
8
DEFAULT_255_2_778
10
20.4101231
20
145.061452
40
0.4261556
50
6.130385
51
29.1785479
0
ARC
8
DEFAULT_255_2_778
10
20.2224831
20
145.0284702
40
0.6163766
50
359.941576
51
7.3161118
0
ARC
8
DEFAULT_255_2_778
10
20.3067049
20
145.0202366
40
0.5322088
50
338.8055679
51
0.8187669
0
ARC
8
DEFAULT_255_2_778
10
20.6109747
20
144.8941684
40
0.203082
50
303.9150541
51
340.932466
0
ARC
8
DEFAULT_255_2_778
10
20.6804185
20
144.8012902
40
0.0874515
50
270.4854298
51
300.1080748
0
ARC
8
DEFAULT_255_2_778
10
20.6947918
20
144.8395041
40
0.1263997
50
204.3281643
51
263.8084993
0
ARC
8
DEFAULT_255_2_778
10
20.9574039
20
144.9955123
40
0.4313014
50
185.613152
51
208.8453558
0
ARC
8
DEFAULT_255_2_778
10
21.145881
20
145.0272819
40
0.6221217
50
179.9484445
51
186.8272745
0
ARC
8
DEFAULT_255_2_778
10
20.9472261
20
145.0319048
40
0.5243157
50
152.5254433
51
180.7827883
0
ARC
8
DEFAULT_255_2_778
10
20.7214339
20
145.1593837
40
0.2653266
50
108.4095367
51
154.4544086
0
ARC
8
DEFAULT_255_2_778
10
20.6844034
20
145.2381783
40
0.1791635
50
90.0140927
51
105.1293658
0
ARC
8
DEFAULT_255_2_778
10
20.6699719
20
145.1864205
40
0.231369
50
28.2822033
51
86.4348199
0
ARC
8
DEFAULT_255_2_778
10
20.4494618
20
145.0392258
40
0.4959362
50
2.837394
51
31.1881489
0
ARC
8
DEFAULT_255_2_778
10
20.3480116
20
145.0248304
40
0.5980477
50
359.9914968
51
3.7337628
0
ARC
8
DEFAULT_255_2_778
10
20.4213058
20
145.0176164
40
0.524802
50
332.6504535
51
0.7779361
0
ARC
8
DEFAULT_255_2_778
10
20.6471936
20
144.8906026
40
0.265965
50
288.44039
51
334.5981325
0
ARC
8
DEFAULT_255_2_778
10
20.6843199
20
144.8118438
40
0.1798021
50
270.0125899
51
285.1541198
0
ARC
8
DEFAULT_255_2_778
10
20.6985632
20
144.8626186
40
0.2310141
50
208.1688806
51
266.4749618
0
ARC
8
DEFAULT_255_2_778
10
20.920601
20
145.0100235
40
0.4969751
50
182.8019459
51
211.0671432
0
ARC
8
DEFAULT_255_2_778
10
21.0245279
20
145.0246537
40
0.6015684
50
179.9916184
51
183.7098813
0
LINE
8
DEFAULT_255_2_778
10
20.5237594
20
145.0278417
11
20.5237594
21
145.0278417
0
LINE
8
DEFAULT_255_2_778
10
20.4229594
20
145.0247417
11
20.4229594
21
145.0247417
0
ARC
8
DEFAULT_255_2_778
10
20.4643338
20
145.0354013
40
0.5330281
50
158.8297779
51
180.8126209
0
ARC
8
DEFAULT_255_2_778
10
20.1595043
20
145.1615829
40
0.2033429
50
124.0119958
51
160.9659866
0
ARC
8
DEFAULT_255_2_778
10
20.0895176
20
145.254962
40
0.0869831
50
90.4994457
51
120.2017555
0
ARC
8
DEFAULT_255_2_778
10
20.0752082
20
145.2165586
40
0.1261132
50
24.6798401
51
83.8315083
0
ARC
8
DEFAULT_255_2_778
10
19.8177231
20
145.061452
40
0.4261556
50
6.130385
51
29.1785479
0
ARC
8
DEFAULT_255_2_778
10
19.6300831
20
145.0284702
40
0.6163766
50
359.941576
51
7.3161118
0
ARC
8
DEFAULT_255_2_778
10
19.7143049
20
145.0202366
40
0.5322088
50
338.8055679
51
0.8187669
0
ARC
8
DEFAULT_255_2_778
10
20.0185747
20
144.8941684
40
0.203082
50
303.9150541
51
340.932466
0
ARC
8
DEFAULT_255_2_778
10
20.0880185
20
144.8012902
40
0.0874515
50
270.4854298
51
300.1080748
0
ARC
8
DEFAULT_255_2_778
10
20.1023918
20
144.8395041
40
0.1263997
50
204.3281643
51
263.8084993
0
ARC
8
DEFAULT_255_2_778
10
20.3650039
20
144.9955123
40
0.4313014
50
185.613152
51
208.8453558
0
ARC
8
DEFAULT_255_2_778
10
20.553481
20
145.0272819
40
0.6221217
50
179.9484445
51
186.8272745
0
ARC
8
DEFAULT_255_2_778
10
20.3548261
20
145.0319048
40
0.5243157
50
152.5254433
51
180.7827883
0
ARC
8
DEFAULT_255_2_778
10
20.1290339
20
145.1593837
40
0.2653266
50
108.4095367
51
154.4544086
0
ARC
8
DEFAULT_255_2_778
10
20.0920034
20
145.2381783
40
0.1791635
50
90.0140927
51
105.1293658
0
ARC
8
DEFAULT_255_2_778
10
20.0775719
20
145.1864205
40
0.231369
50
28.2822033
51
86.4348199
0
ARC
8
DEFAULT_255_2_778
10
19.8570618
20
145.0392258
40
0.4959362
50
2.837394
51
31.1881489
0
ARC
8
DEFAULT_255_2_778
10
19.7556116
20
145.0248304
40
0.5980477
50
359.9914968
51
3.7337628
0
ARC
8
DEFAULT_255_2_778
10
19.8289058
20
145.0176164
40
0.524802
50
332.6504535
51
0.7779361
0
ARC
8
DEFAULT_255_2_778
10
20.0547936
20
144.8906026
40
0.265965
50
288.44039
51
334.5981325
0
ARC
8
DEFAULT_255_2_778
10
20.0919199
20
144.8118438
40
0.1798021
50
270.0125899
51
285.1541198
0
ARC
8
DEFAULT_255_2_778
10
20.1061632
20
144.8626186
40
0.2310141
50
208.1688806
51
266.4749618
0
ARC
8
DEFAULT_255_2_778
10
20.328201
20
145.0100235
40
0.4969751
50
182.8019459
51
211.0671432
0
ARC
8
DEFAULT_255_2_778
10
20.4321279
20
145.0246537
40
0.6015684
50
179.9916184
51
183.7098813
0
LINE
8
DEFAULT_255_2_778
10
19.9313594
20
145.0278417
11
19.9313594
21
145.0278417
0
LINE
8
DEFAULT_255_2_778
10
19.8305594
20
145.0247417
11
19.8305594
21
145.0247417
0
LINE
8
DEFAULT_255_2_778
10
9.3932417
20
124.2219075
11
10.7161417
21
124.2219075
0
LINE
8
DEFAULT_255_2_778
10
10.7161417
20
124.2219075
11
10.7161417
21
67.3365075
0
LINE
8
DEFAULT_255_2_778
10
9.3932834
20
67.3364333
11
12.0390834
21
67.3364333
0
LINE
8
DEFAULT_255_2_778
10
12.0390834
20
67.3364333
11
12.0390834
21
62.0447333
0
LINE
8
DEFAULT_255_2_778
10
12.0390834
20
62.0447333
11
9.3932834
21
62.0447333
0
LINE
8
DEFAULT_255_2_778
10
9.3932834
20
62.0447333
11
9.3932834
21
67.3364333
0
ARC
8
DEFAULT_255_2_778_1
10
13.1928591
20
62.147177
40
4.816461
50
120.9442904
51
122.351755
0
ARC
8
DEFAULT_255_2_778_1
10
12.7462523
20
62.8508039
40
3.9830657
50
122.3407904
51
124.1946752
0
ARC
8
DEFAULT_255_2_778_1
10
12.3063464
20
63.4973306
40
3.2010724
50
124.1855758
51
126.4338849
0
ARC
8
DEFAULT_255_2_778_1
10
11.9204129
20
64.0200611
40
2.5513094
50
126.4326926
51
128.8877368
0
ARC
8
DEFAULT_255_2_778_1
10
11.5855968
20
64.4344658
40
2.0185498
50
128.8749205
51
131.8726567
0
ARC
8
DEFAULT_255_2_778_1
10
11.2884677
20
64.7654854
40
1.5737356
50
131.8616166
51
135.4168838
0
ARC
8
DEFAULT_255_2_778_1
10
11.025668
20
65.0236765
40
1.2053256
50
135.3893975
51
139.9687014
0
ARC
8
DEFAULT_255_2_778_1
10
10.7927889
20
65.2185102
40
0.9016937
50
139.9301659
51
145.9260426
0
ARC
8
DEFAULT_255_2_778_1
10
10.596654
20
65.3505104
40
0.6652776
50
145.8787362
51
153.8146208
0
ARC
8
DEFAULT_255_2_778_1
10
10.4445553
20
65.4248797
40
0.4959714
50
153.770634
51
164.3484794
0
ARC
8
DEFAULT_255_2_778_1
10
10.3432387
20
65.4530786
40
0.3908039
50
164.3220276
51
179.8083066
0
ARC
8
DEFAULT_255_2_778_1
10
10.3642789
20
65.461215
40
0.4118985
50
180.9499449
51
213.8111542
0
ARC
8
DEFAULT_255_2_778_1
10
10.6401828
20
65.6307896
40
0.73561
50
212.8271214
51
224.258472
0
ARC
8
DEFAULT_255_2_778_1
10
11.0230335
20
66.0001236
40
1.267567
50
224.1376218
51
231.4508261
0
ARC
8
DEFAULT_255_2_778_1
10
11.6657195
20
66.8031168
40
2.2960809
50
231.3955893
51
236.1256478
0
ARC
8
DEFAULT_255_2_778_1
10
13.4980223
20
69.5496293
40
5.5976905
50
236.2233172
51
239.1314682
0
ARC
8
DEFAULT_255_2_778_1
10
25.447927
20
89.2773568
40
28.6623793
50
238.8606853
51
239.0711101
0
ARC
8
DEFAULT_255_2_778_1
10
6.2757281
20
57.1802653
40
8.7248518
50
57.2420924
51
59.4062964
0
ARC
8
DEFAULT_255_2_778_1
10
9.5034241
20
62.2112102
40
2.747542
50
52.8289294
51
57.079028
0
ARC
8
DEFAULT_255_2_778_1
10
10.2780783
20
63.2315488
40
1.466457
50
46.3041868
51
52.8596521
0
ARC
8
DEFAULT_255_2_778_1
10
10.7103073
20
63.6816842
40
0.8424061
50
36.2174211
51
46.4090895
0
ARC
8
DEFAULT_255_2_778_1
10
10.9948088
20
63.8865128
40
0.4918609
50
17.400375
51
36.5489745
0
ARC
8
DEFAULT_255_2_778_1
10
11.1088994
20
63.9263754
40
0.3710912
50
0.0676858
51
16.7951297
0
ARC
8
DEFAULT_255_2_778_1
10
11.0878613
20
63.9282428
40
0.3921317
50
343.8035191
51
359.7912046
0
ARC
8
DEFAULT_255_2_778_1
10
10.9815912
20
63.9587167
40
0.5026844
50
333.2506233
51
343.8465691
0
ARC
8
DEFAULT_255_2_778_1
10
10.8277757
20
64.0354313
40
0.6745679
50
325.6600948
51
333.3122657
0
ARC
8
DEFAULT_255_2_778_1
10
10.6323344
20
64.1682296
40
0.9108568
50
319.7560915
51
325.6976089
0
ARC
8
DEFAULT_255_2_778_1
10
10.404199
20
64.3600002
40
1.2088854
50
315.4577584
51
319.8037947
0
ARC
8
DEFAULT_255_2_778_1
10
10.1408127
20
64.6188507
40
1.5781764
50
311.7298824
51
315.4670864
0
ARC
8
DEFAULT_255_2_778_1
10
9.8317879
20
64.9644074
40
2.0417554
50
308.723055
51
311.7470879
0
ARC
8
DEFAULT_255_2_778_1
10
9.477589
20
65.4056492
40
2.6075745
50
306.1165163
51
308.7300151
0
ARC
8
DEFAULT_255_2_778_1
10
9.0746091
20
65.9569523
40
3.2904564
50
303.9559446
51
306.1266333
0
ARC
8
DEFAULT_255_2_778_1
10
8.6630432
20
66.566215
40
4.0257023
50
302.3733397
51
303.9712246
0
ARC
8
DEFAULT_255_2_778_1
10
8.2434347
20
67.2277058
40
4.8090549
50
300.9434827
51
302.3758078
0
LINE
8
DEFAULT_255_2_778
10
10.7161417
20
62.0448075
11
10.7161417
21
5.1594075
0
LINE
8
DEFAULT_255_2_778
10
10.7161417
20
5.1594075
11
9.3932417
21
5.1594075
0
LINE
8
DEFAULT_255_1_234
10
4.2610522
20
140.7473211
11
4.5935662
21
139.7827093
0
LINE
8
DEFAULT_255_1_234
10
4.5935662
20
139.7827093
11
4.9276865
21
140.7473211
0
LINE
8
DEFAULT_255_1_234
10
4.9276865
20
140.7473211
11
5.096353
21
140.7473211
0
LINE
8
DEFAULT_255_1_234
10
5.096353
20
140.7473211
11
4.6626391
21
139.5779
0
LINE
8
DEFAULT_255_1_234
10
4.6626391
20
139.5779
11
4.5260996
21
139.5779
0
LINE
8
DEFAULT_255_1_234
10
4.5260996
20
139.5779
11
4.0931889
21
140.7473211
0
LINE
8
DEFAULT_255_1_234
10
4.0931889
20
140.7473211
11
4.2610522
21
140.7473211
0
LINE
8
DEFAULT_255_1_234
10
5.655362
20
140.5465276
11
5.655362
21
140.2051788
0
LINE
8
DEFAULT_255_1_234
10
5.655362
20
140.2051788
11
5.9814505
21
140.2051788
0
LINE
8
DEFAULT_255_1_234
10
5.9814505
20
140.2051788
11
5.9814505
21
140.0646233
0
LINE
8
DEFAULT_255_1_234
10
5.9814505
20
140.0646233
11
5.655362
21
140.0646233
0
LINE
8
DEFAULT_255_1_234
10
5.655362
20
140.0646233
11
5.655362
21
139.6951634
0
LINE
8
DEFAULT_255_1_234
10
5.655362
20
139.6951634
11
5.5059716
21
139.6951634
0
LINE
8
DEFAULT_255_1_234
10
5.5059716
20
139.6951634
11
5.5059716
21
140.0646233
0
LINE
8
DEFAULT_255_1_234
10
5.5059716
20
140.0646233
11
5.1798831
21
140.0646233
0
LINE
8
DEFAULT_255_1_234
10
5.1798831
20
140.0646233
11
5.1798831
21
140.2051788
0
LINE
8
DEFAULT_255_1_234
10
5.1798831
20
140.2051788
11
5.5059716
21
140.2051788
0
LINE
8
DEFAULT_255_1_234
10
5.5059716
20
140.2051788
11
5.5059716
21
140.5465276
0
LINE
8
DEFAULT_255_1_234
10
5.5059716
20
140.5465276
11
5.655362
21
140.5465276
0
LINE
8
DEFAULT_255_1_234
10
4.3777522
20
5.8098211
11
4.7102662
21
4.8452093
0
LINE
8
DEFAULT_255_1_234
10
4.7102662
20
4.8452093
11
5.0443865
21
5.8098211
0
LINE
8
DEFAULT_255_1_234
10
5.0443865
20
5.8098211
11
5.213053
21
5.8098211
0
LINE
8
DEFAULT_255_1_234
10
5.213053
20
5.8098211
11
4.7793391
21
4.6404
0
LINE
8
DEFAULT_255_1_234
10
4.7793391
20
4.6404
11
4.6427996
21
4.6404
0
LINE
8
DEFAULT_255_1_234
10
4.6427996
20
4.6404
11
4.2098889
21
5.8098211
0
LINE
8
DEFAULT_255_1_234
10
4.2098889
20
5.8098211
11
4.3777522
21
5.8098211
0
LINE
8
DEFAULT_255_1_234
10
5.8194492
20
5.8154433
11
5.8194492
21
4.6404
0
LINE
8
DEFAULT_255_1_234
10
5.8194492
20
4.6404
11
5.6700589
21
4.6404
0
LINE
8
DEFAULT_255_1_234
10
5.6700589
20
4.6404
11
5.6700589
21
5.6307133
0
LINE
8
DEFAULT_255_1_234
10
5.6700589
20
5.6307133
11
5.370475
21
5.5206785
0
LINE
8
DEFAULT_255_1_234
10
5.370475
20
5.5206785
11
5.370475
21
5.6556117
0
LINE
8
DEFAULT_255_1_234
10
5.370475
20
5.6556117
11
5.7961572
21
5.8154433
0
LINE
8
DEFAULT_255_1_234
10
5.7961572
20
5.8154433
11
5.8194492
21
5.8154433
0
LINE
8
DEFAULT_255_1_234
10
6.8113689
20
5.8106243
11
6.8378736
21
5.8106243
0
LINE
8
DEFAULT_255_1_234
10
6.8378736
20
5.8106243
11
6.8378736
21
5.684526
0
LINE
8
DEFAULT_255_1_234
10
6.8378736
20
5.684526
11
6.8105657
21
5.684526
0
LINE
8
DEFAULT_255_1_234
10
6.2636043
20
5.0853583
11
6.2636043
21
5.1423836
0
LINE
8
DEFAULT_255_1_234
10
6.4129947
20
5.1231075
11
6.4129947
21
5.0684917
0
ARC
8
DEFAULT_255_1_234
10
6.8158005
20
5.1847455
40
0.4998079
50
90.6001036
51
104.514704
0
ARC
8
DEFAULT_255_1_234
10
6.7769521
20
5.3292131
40
0.3502176
50
104.2855254
51
133.862935
0
ARC
8
DEFAULT_255_1_234
10
6.7933278
20
5.318383
40
0.3693984
50
134.5302688
51
161.6210873
0
ARC
8
DEFAULT_255_1_234
10
6.9586467
20
5.2600895
40
0.5446739
50
161.2849839
51
174.2076652
0
ARC
8
DEFAULT_255_1_234
10
7.0993404
20
5.2406787
40
0.6866274
50
173.7810589
51
174.9254635
0
ARC
8
DEFAULT_255_1_234
10
6.6443236
20
5.1023839
40
0.3033419
50
95.8330959
51
138.9954921
0
ARC
8
DEFAULT_255_1_234
10
6.6666592
20
4.9745375
40
0.4328947
50
89.8753725
51
97.0544009
0
ARC
8
DEFAULT_255_1_234
10
6.6714058
20
5.0580748
40
0.3493769
50
71.6407809
51
90.6240094
0
ARC
8
DEFAULT_255_1_234
10
6.6864631
20
5.1135082
40
0.2920396
50
39.6367836
51
71.019018
0
ARC
8
DEFAULT_255_1_234
10
6.6228104
20
5.0584998
40
0.3761538
50
10.658731
51
39.9043955
0
ARC
8
DEFAULT_255_1_234
10
6.4680187
20
5.0248686
40
0.5345136
50
359.682601
51
11.132623
0
ARC
8
DEFAULT_255_1_234
10
6.4640318
20
5.017801
40
0.5385081
50
347.2486944
51
0.4369317
0
ARC
8
DEFAULT_255_1_234
10
6.6307795
20
4.9776807
40
0.3670249
50
318.1409698
51
347.6118597
0
ARC
8
DEFAULT_255_1_234
10
6.6632788
20
4.9509702
40
0.3250007
50
275.6342139
51
317.8248465
0
ARC
8
DEFAULT_255_1_234
10
6.6411899
20
5.0809219
40
0.4565864
50
269.8874292
51
276.7917694
0
ARC
8
DEFAULT_255_1_234
10
6.635697
20
4.9783743
40
0.3540676
50
246.9140195
51
270.7437342
0
ARC
8
DEFAULT_255_1_234
10
6.636336
20
4.9641384
40
0.3412781
50
218.1665114
51
245.878116
0
ARC
8
DEFAULT_255_1_234
10
6.7242821
20
5.0377279
40
0.455911
50
191.4115814
51
218.6077802
0
ARC
8
DEFAULT_255_1_234
10
6.918091
20
5.0811833
40
0.6545001
50
179.6345085
51
191.7836486
0
ARC
8
DEFAULT_255_1_234
10
7.4763247
20
5.1490697
40
1.2127388
50
171.4525249
51
180.3158839
0
ARC
8
DEFAULT_255_1_234
10
7.0368123
20
5.2174608
40
0.7679464
50
157.9802646
51
171.6246686
0
ARC
8
DEFAULT_255_1_234
10
6.8154144
20
5.3057421
40
0.5296008
50
141.4298019
51
157.854097
0
ARC
8
DEFAULT_255_1_234
10
6.7512464
20
5.3511381
40
0.4511509
50
102.8715806
51
140.8564722
0
ARC
8
DEFAULT_255_1_234
10
6.816008
20
5.1071552
40
0.7034845
50
90.3778349
51
103.5869322
0
ARC
8
DEFAULT_255_1_234
10
6.6421856
20
5.046673
40
0.2370698
50
89.8751008
51
126.2071704
0
ARC
8
DEFAULT_255_1_234
10
6.6467646
20
5.0312303
40
0.2522934
50
124.9745049
51
144.895901
0
ARC
8
DEFAULT_255_1_234
10
6.6291836
20
5.045556
40
0.2296779
50
145.2974905
51
160.2660252
0
ARC
8
DEFAULT_255_1_234
10
6.9364375
20
5.0653071
40
0.5234525
50
179.6514266
51
190.2855912
0
ARC
8
DEFAULT_255_1_234
10
6.7670512
20
5.0333786
40
0.3510893
50
190.0945431
51
207.5098196
0
ARC
8
DEFAULT_255_1_234
10
6.7104782
20
5.0064623
40
0.288489
50
207.9583163
51
216.3251085
0
ARC
8
DEFAULT_255_1_234
10
6.676489
20
4.9785105
40
0.2445587
50
215.7661442
51
232.5456785
0
ARC
8
DEFAULT_255_1_234
10
6.6381873
20
4.9298482
40
0.1826382
50
232.8005391
51
270.6605633
0
ARC
8
DEFAULT_255_1_234
10
6.6427574
20
4.9662612
40
0.2190529
50
269.35537
51
288.4744281
0
ARC
8
DEFAULT_255_1_234
10
6.6520471
20
4.9313118
40
0.1829749
50
289.1833337
51
322.9683818
0
ARC
8
DEFAULT_255_1_234
10
6.5908993
20
4.9795391
40
0.2608399
50
322.6007884
51
346.5182367
0
ARC
8
DEFAULT_255_1_234
10
6.4751589
20
5.0090616
40
0.3802777
50
346.2582162
51
358.7741648
0
ARC
8
DEFAULT_255_1_234
10
6.3733258
20
5.0145965
40
0.4822176
50
358.3755224
51
0.0098023
0
ARC
8
DEFAULT_255_1_234
10
6.4489445
20
5.0173657
40
0.4066078
50
359.6214041
51
11.2839074
0
ARC
8
DEFAULT_255_1_234
10
6.5766592
20
5.0440066
40
0.2761514
50
11.0482309
51
31.8146458
0
ARC
8
DEFAULT_255_1_234
10
6.6075635
20
5.0607584
40
0.2410679
50
32.3035391
51
38.082671
0
ARC
8
DEFAULT_255_1_234
10
6.6496295
20
5.0988662
40
0.1844966
50
36.825067
51
85.7415724
0
ARC
8
DEFAULT_255_1_234
10
6.6429128
20
5.0488301
40
0.2349122
50
85.0140713
51
90.0513278
0
LINE
8
DEFAULT_255_1_234
10
7.6193618
20
5.6090276
11
7.6193618
21
5.2676788
0
LINE
8
DEFAULT_255_1_234
10
7.6193618
20
5.2676788
11
7.9454503
21
5.2676788
0
LINE
8
DEFAULT_255_1_234
10
7.9454503
20
5.2676788
11
7.9454503
21
5.1271233
0
LINE
8
DEFAULT_255_1_234
10
7.9454503
20
5.1271233
11
7.6193618
21
5.1271233
0
LINE
8
DEFAULT_255_1_234
10
7.6193618
20
5.1271233
11
7.6193618
21
4.7576634
0
LINE
8
DEFAULT_255_1_234
10
7.6193618
20
4.7576634
11
7.4699714
21
4.7576634
0
LINE
8
DEFAULT_255_1_234
10
7.4699714
20
4.7576634
11
7.4699714
21
5.1271233
0
LINE
8
DEFAULT_255_1_234
10
7.4699714
20
5.1271233
11
7.1438829
21
5.1271233
0
LINE
8
DEFAULT_255_1_234
10
7.1438829
20
5.1271233
11
7.1438829
21
5.2676788
0
LINE
8
DEFAULT_255_1_234
10
7.1438829
20
5.2676788
11
7.4699714
21
5.2676788
0
LINE
8
DEFAULT_255_1_234
10
7.4699714
20
5.2676788
11
7.4699714
21
5.6090276
0
LINE
8
DEFAULT_255_1_234
10
7.4699714
20
5.6090276
11
7.6193618
21
5.6090276
0
LINE
8
DEFAULT_255_1_234
10
4.3777522
20
13.7473211
11
4.7102662
21
12.7827093
0
LINE
8
DEFAULT_255_1_234
10
4.7102662
20
12.7827093
11
5.0443865
21
13.7473211
0
LINE
8
DEFAULT_255_1_234
10
5.0443865
20
13.7473211
11
5.213053
21
13.7473211
0
LINE
8
DEFAULT_255_1_234
10
5.213053
20
13.7473211
11
4.7793391
21
12.5779
0
LINE
8
DEFAULT_255_1_234
10
4.7793391
20
12.5779
11
4.6427996
21
12.5779
0
LINE
8
DEFAULT_255_1_234
10
4.6427996
20
12.5779
11
4.2098889
21
13.7473211
0
LINE
8
DEFAULT_255_1_234
10
4.2098889
20
13.7473211
11
4.3777522
21
13.7473211
0
LINE
8
DEFAULT_255_1_234
10
5.8194492
20
13.7529433
11
5.8194492
21
12.5779
0
LINE
8
DEFAULT_255_1_234
10
5.8194492
20
12.5779
11
5.6700589
21
12.5779
0
LINE
8
DEFAULT_255_1_234
10
5.6700589
20
12.5779
11
5.6700589
21
13.5682133
0
LINE
8
DEFAULT_255_1_234
10
5.6700589
20
13.5682133
11
5.370475
21
13.4581785
0
LINE
8
DEFAULT_255_1_234
10
5.370475
20
13.4581785
11
5.370475
21
13.5931117
0
LINE
8
DEFAULT_255_1_234
10
5.370475
20
13.5931117
11
5.7961572
21
13.7529433
0
LINE
8
DEFAULT_255_1_234
10
5.7961572
20
13.7529433
11
5.8194492
21
13.7529433
0
LINE
8
DEFAULT_255_1_234
10
6.4419089
20
13.1336963
11
6.3230392
21
13.1642169
0
LINE
8
DEFAULT_255_1_234
10
6.3230392
20
13.1642169
11
6.3824741
21
13.7473211
0
LINE
8
DEFAULT_255_1_234
10
6.3824741
20
13.7473211
11
6.9816417
21
13.7473211
0
LINE
8
DEFAULT_255_1_234
10
6.9816417
20
13.7473211
11
6.9816417
21
13.6099784
0
LINE
8
DEFAULT_255_1_234
10
6.9816417
20
13.6099784
11
6.5085724
21
13.6099784
0
LINE
8
DEFAULT_255_1_234
10
6.5085724
20
13.6099784
11
6.4732327
21
13.2911184
0
LINE
8
DEFAULT_255_1_234
10
6.2812742
20
12.8855156
11
6.4218296
21
12.8855156
0
LINE
8
DEFAULT_255_1_234
10
6.4812645
20
13.1658232
11
6.4419089
21
13.1336963
0
ARC
8
DEFAULT_255_1_234
10
6.6587111
20
12.973123
40
0.3681349
50
93.7182161
51
120.2538958
0
ARC
8
DEFAULT_255_1_234
10
6.6681374
20
12.8923394
40
0.449379
50
89.9660152
51
94.2496022
0
ARC
8
DEFAULT_255_1_234
10
6.6722108
20
12.9512549
40
0.390482
50
73.8043271
51
90.5585896
0
ARC
8
DEFAULT_255_1_234
10
6.6957005
20
13.0370602
40
0.3015334
50
41.3071453
51
73.5430202
0
ARC
8
DEFAULT_255_1_234
10
6.6540832
20
13.0012324
40
0.3564457
50
13.5075983
51
41.2174222
0
ARC
8
DEFAULT_255_1_234
10
6.4899036
20
12.9582486
40
0.5261351
50
1.1331335
51
13.8829381
0
ARC
8
DEFAULT_255_1_234
10
6.3487405
20
12.9506665
40
0.6674378
50
359.9919444
51
1.544251
0
ARC
8
DEFAULT_255_1_234
10
6.4764231
20
12.946528
40
0.5397702
50
347.8572367
51
0.4293338
0
ARC
8
DEFAULT_255_1_234
10
6.6514549
20
12.9068736
40
0.3603188
50
323.673004
51
348.1672506
0
ARC
8
DEFAULT_255_1_234
10
6.6809057
20
12.8889168
40
0.3259678
50
316.8171152
51
323.1492751
0
ARC
8
DEFAULT_255_1_234
10
6.6870246
20
12.885246
40
0.3189975
50
281.8396411
51
316.5457803
0
ARC
8
DEFAULT_255_1_234
10
6.649451
20
13.0407762
40
0.4789527
50
269.5770101
51
282.4214771
0
ARC
8
DEFAULT_255_1_234
10
6.6423321
20
13.0194125
40
0.45759
50
256.2427136
51
270.4486331
0
ARC
8
DEFAULT_255_1_234
10
6.6124224
20
12.8994229
40
0.3339303
50
228.9023911
51
256.3314342
0
ARC
8
DEFAULT_255_1_234
10
6.6050456
20
12.8877746
40
0.32031
50
193.753695
51
228.5271154
0
ARC
8
DEFAULT_255_1_234
10
6.728841
20
12.92408
40
0.4492253
50
184.924711
51
194.497588
0
ARC
8
DEFAULT_255_1_234
10
6.7480977
20
12.9276591
40
0.3289787
50
187.3600538
51
198.6732863
0
ARC
8
DEFAULT_255_1_234
10
6.6431271
20
12.8912674
40
0.217884
50
198.4451669
51
217.794479
0
ARC
8
DEFAULT_255_1_234
10
6.6135446
20
12.8703085
40
0.1816698
50
218.2887171
51
228.5612368
0
ARC
8
DEFAULT_255_1_234
10
6.6233233
20
12.8834963
40
0.1980329
50
228.9654866
51
258.1234728
0
ARC
8
DEFAULT_255_1_234
10
6.6438943
20
12.9715833
40
0.2884748
50
257.7258293
51
270.401361
0
ARC
8
DEFAULT_255_1_234
10
6.6483829
20
12.9270821
40
0.2439788
50
269.4204404
51
286.4209037
0
ARC
8
DEFAULT_255_1_234
10
6.6632317
20
12.8731657
40
0.1880666
50
286.7251356
51
320.600362
0
ARC
8
DEFAULT_255_1_234
10
6.6249142
20
12.9042595
40
0.2374121
50
320.6712579
51
344.5441685
0
ARC
8
DEFAULT_255_1_234
10
6.5092468
20
12.9382045
40
0.3579479
50
344.2412205
51
356.7357071
0
ARC
8
DEFAULT_255_1_234
10
6.3843617
20
12.9485444
40
0.4832297
50
356.3548756
51
0.0500261
0
ARC
8
DEFAULT_255_1_234
10
6.5180126
20
12.951665
40
0.3495889
50
359.5576869
51
12.953486
0
ARC
8
DEFAULT_255_1_234
10
6.6235023
20
12.9772434
40
0.2410532
50
12.6490276
51
41.6081334
0
ARC
8
DEFAULT_255_1_234
10
6.6465394
20
12.9968321
40
0.2108218
50
41.7850273
51
85.9892764
0
ARC
8
DEFAULT_255_1_234
10
6.6342131
20
12.9155462
40
0.2928454
50
84.6957577
51
90.0676183
0
ARC
8
DEFAULT_255_1_234
10
6.6318615
20
12.8486716
40
0.3597255
50
89.6804936
51
99.1614436
0
ARC
8
DEFAULT_255_1_234
10
6.6113246
20
12.9714131
40
0.235281
50
98.9830931
51
113.8908934
0
ARC
8
DEFAULT_255_1_234
10
6.5883656
20
13.0255587
40
0.176479
50
114.1950727
51
127.3641004
0
LINE
8
DEFAULT_255_1_234
10
7.6193618
20
13.5465276
11
7.6193618
21
13.2051788
0
LINE
8
DEFAULT_255_1_234
10
7.6193618
20
13.2051788
11
7.9454503
21
13.2051788
0
LINE
8
DEFAULT_255_1_234
10
7.9454503
20
13.2051788
11
7.9454503
21
13.0646233
0
LINE
8
DEFAULT_255_1_234
10
7.9454503
20
13.0646233
11
7.6193618
21
13.0646233
0
LINE
8
DEFAULT_255_1_234
10
7.6193618
20
13.0646233
11
7.6193618
21
12.6951634
0
LINE
8
DEFAULT_255_1_234
10
7.6193618
20
12.6951634
11
7.4699714
21
12.6951634
0
LINE
8
DEFAULT_255_1_234
10
7.4699714
20
12.6951634
11
7.4699714
21
13.0646233
0
LINE
8
DEFAULT_255_1_234
10
7.4699714
20
13.0646233
11
7.1438829
21
13.0646233
0
LINE
8
DEFAULT_255_1_234
10
7.1438829
20
13.0646233
11
7.1438829
21
13.2051788
0
LINE
8
DEFAULT_255_1_234
10
7.1438829
20
13.2051788
11
7.4699714
21
13.2051788
0
LINE
8
DEFAULT_255_1_234
10
7.4699714
20
13.2051788
11
7.4699714
21
13.5465276
0
LINE
8
DEFAULT_255_1_234
10
7.4699714
20
13.5465276
11
7.6193618
21
13.5465276
0
LINE
8
DEFAULT_255_1_234
10
4.3777522
20
21.6848211
11
4.7102662
21
20.7202093
0
LINE
8
DEFAULT_255_1_234
10
4.7102662
20
20.7202093
11
5.0443865
21
21.6848211
0
LINE
8
DEFAULT_255_1_234
10
5.0443865
20
21.6848211
11
5.213053
21
21.6848211
0
LINE
8
DEFAULT_255_1_234
10
5.213053
20
21.6848211
11
4.7793391
21
20.5154
0
LINE
8
DEFAULT_255_1_234
10
4.7793391
20
20.5154
11
4.6427996
21
20.5154
0
LINE
8
DEFAULT_255_1_234
10
4.6427996
20
20.5154
11
4.2098889
21
21.6848211
0
LINE
8
DEFAULT_255_1_234
10
4.2098889
20
21.6848211
11
4.3777522
21
21.6848211
0
LINE
8
DEFAULT_255_1_234
10
5.8194492
20
21.6904433
11
5.8194492
21
20.5154
0
LINE
8
DEFAULT_255_1_234
10
5.8194492
20
20.5154
11
5.6700589
21
20.5154
0
LINE
8
DEFAULT_255_1_234
10
5.6700589
20
20.5154
11
5.6700589
21
21.5057133
0
LINE
8
DEFAULT_255_1_234
10
5.6700589
20
21.5057133
11
5.370475
21
21.3956785
0
LINE
8
DEFAULT_255_1_234
10
5.370475
20
21.3956785
11
5.370475
21
21.5306117
0
LINE
8
DEFAULT_255_1_234
10
5.370475
20
21.5306117
11
5.7961572
21
21.6904433
0
LINE
8
DEFAULT_255_1_234
10
5.7961572
20
21.6904433
11
5.8194492
21
21.6904433
0
LINE
8
DEFAULT_255_1_234
10
6.8820482
20
21.6848211
11
6.8820482
21
20.908152
0
LINE
8
DEFAULT_255_1_234
10
6.8820482
20
20.908152
11
7.0442893
21
20.908152
0
LINE
8
DEFAULT_255_1_234
10
7.0442893
20
20.908152
11
7.0442893
21
20.7868728
0
LINE
8
DEFAULT_255_1_234
10
7.0442893
20
20.7868728
11
6.8820482
21
20.7868728
0
LINE
8
DEFAULT_255_1_234
10
6.8820482
20
20.7868728
11
6.8820482
21
20.5154
0
LINE
8
DEFAULT_255_1_234
10
6.8820482
20
20.5154
11
6.7326579
21
20.5154
0
LINE
8
DEFAULT_255_1_234
10
6.7326579
20
20.5154
11
6.7326579
21
20.7868728
0
LINE
8
DEFAULT_255_1_234
10
6.7326579
20
20.7868728
11
6.2001536
21
20.7868728
0
LINE
8
DEFAULT_255_1_234
10
6.2001536
20
20.7868728
11
6.2001536
21
20.8744187
0
LINE
8
DEFAULT_255_1_234
10
6.2001536
20
20.8744187
11
6.7238229
21
21.6848211
0
LINE
8
DEFAULT_255_1_234
10
6.7238229
20
21.6848211
11
6.8820482
21
21.6848211
0
LINE
8
DEFAULT_255_1_234
10
6.714988
20
21.4494912
11
6.3688201
21
20.908152
0
LINE
8
DEFAULT_255_1_234
10
6.3688201
20
20.908152
11
6.7326579
21
20.908152
0
LINE
8
DEFAULT_255_1_234
10
6.7326579
20
20.908152
11
6.7326579
21
21.4816181
0
LINE
8
DEFAULT_255_1_234
10
6.7326579
20
21.4816181
11
6.714988
21
21.4494912
0
LINE
8
DEFAULT_255_1_234
10
7.6193618
20
21.4840276
11
7.6193618
21
21.1426788
0
LINE
8
DEFAULT_255_1_234
10
7.6193618
20
21.1426788
11
7.9454503
21
21.1426788
0
LINE
8
DEFAULT_255_1_234
10
7.9454503
20
21.1426788
11
7.9454503
21
21.0021233
0
LINE
8
DEFAULT_255_1_234
10
7.9454503
20
21.0021233
11
7.6193618
21
21.0021233
0
LINE
8
DEFAULT_255_1_234
10
7.6193618
20
21.0021233
11
7.6193618
21
20.6326634
0
LINE
8
DEFAULT_255_1_234
10
7.6193618
20
20.6326634
11
7.4699714
21
20.6326634
0
LINE
8
DEFAULT_255_1_234
10
7.4699714
20
20.6326634
11
7.4699714
21
21.0021233
0
LINE
8
DEFAULT_255_1_234
10
7.4699714
20
21.0021233
11
7.1438829
21
21.0021233
0
LINE
8
DEFAULT_255_1_234
10
7.1438829
20
21.0021233
11
7.1438829
21
21.1426788
0
LINE
8
DEFAULT_255_1_234
10
7.1438829
20
21.1426788
11
7.4699714
21
21.1426788
0
LINE
8
DEFAULT_255_1_234
10
7.4699714
20
21.1426788
11
7.4699714
21
21.4840276
0
LINE
8
DEFAULT_255_1_234
10
7.4699714
20
21.4840276
11
7.6193618
21
21.4840276
0
LINE
8
DEFAULT_255_1_234
10
4.3777522
20
29.6223211
11
4.7102662
21
28.6577093
0
LINE
8
DEFAULT_255_1_234
10
4.7102662
20
28.6577093
11
5.0443865
21
29.6223211
0
LINE
8
DEFAULT_255_1_234
10
5.0443865
20
29.6223211
11
5.213053
21
29.6223211
0
LINE
8
DEFAULT_255_1_234
10
5.213053
20
29.6223211
11
4.7793391
21
28.4529
0
LINE
8
DEFAULT_255_1_234
10
4.7793391
20
28.4529
11
4.6427996
21
28.4529
0
LINE
8
DEFAULT_255_1_234
10
4.6427996
20
28.4529
11
4.2098889
21
29.6223211
0
LINE
8
DEFAULT_255_1_234
10
4.2098889
20
29.6223211
11
4.3777522
21
29.6223211
0
LINE
8
DEFAULT_255_1_234
10
5.8194492
20
29.6279433
11
5.8194492
21
28.4529
0
LINE
8
DEFAULT_255_1_234
10
5.8194492
20
28.4529
11
5.6700589
21
28.4529
0
LINE
8
DEFAULT_255_1_234
10
5.6700589
20
28.4529
11
5.6700589
21
29.4432133
0
LINE
8
DEFAULT_255_1_234
10
5.6700589
20
29.4432133
11
5.370475
21
29.3331785
0
LINE
8
DEFAULT_255_1_234
10
5.370475
20
29.3331785
11
5.370475
21
29.4681117
0
LINE
8
DEFAULT_255_1_234
10
5.370475
20
29.4681117
11
5.7961572
21
29.6279433
0
LINE
8
DEFAULT_255_1_234
10
5.7961572
20
29.6279433
11
5.8194492
21
29.6279433
0
LINE
8
DEFAULT_255_1_234
10
6.4708232
20
28.9886169
11
6.4708232
21
29.1098962
0
LINE
8
DEFAULT_255_1_234
10
6.4708232
20
29.1098962
11
6.5824644
21
29.1098962
0
LINE
8
DEFAULT_255_1_234
10
6.3921122
20
29.3155087
11
6.243525
21
29.3155087
0
LINE
8
DEFAULT_255_1_234
10
6.2330837
20
28.7613188
11
6.3824741
21
28.7613188
0
LINE
8
DEFAULT_255_1_234
10
6.5824644
20
28.9886169
11
6.4708232
21
28.9886169
0
ARC
8
DEFAULT_255_1_234
10
6.579551
20
29.4491713
40
0.3392876
50
270.4919872
51
281.8951556
0
ARC
8
DEFAULT_255_1_234
10
6.6036772
20
29.3389702
40
0.2264817
50
281.6691735
51
301.2943132
0
ARC
8
DEFAULT_255_1_234
10
6.6206982
20
29.3078304
40
0.1910381
50
301.7833094
51
311.7545298
0
ARC
8
DEFAULT_255_1_234
10
6.6298558
20
29.2976748
40
0.1773635
50
311.7323931
51
354.2802411
0
ARC
8
DEFAULT_255_1_234
10
6.5572183
20
29.3101722
40
0.2509385
50
353.0937916
51
0.1181479
0
ARC
8
DEFAULT_255_1_234
10
6.5110968
20
29.3149386
40
0.2970898
50
359.1805295
51
15.0453146
0
ARC
8
DEFAULT_255_1_234
10
6.6456805
20
29.3541992
40
0.1569564
50
13.9577229
51
77.6713066
0
ARC
8
DEFAULT_255_1_234
10
6.6070334
20
29.2156949
40
0.3006298
50
76.1116566
51
90.7026153
0
ARC
8
DEFAULT_255_1_234
10
6.6011172
20
29.2430545
40
0.2732568
50
89.5324876
51
103.531937
0
ARC
8
DEFAULT_255_1_234
10
6.5810616
20
29.3229884
40
0.1908508
50
103.2931773
51
133.5619022
0
ARC
8
DEFAULT_255_1_234
10
6.5766105
20
29.3289375
40
0.1834746
50
133.8349307
51
173.5344437
0
ARC
8
DEFAULT_255_1_234
10
6.6489148
20
29.3161213
40
0.2568033
50
172.5096846
51
180.1366907
0
ARC
8
DEFAULT_255_1_234
10
6.5538042
20
29.3195622
40
0.3103056
50
155.3484492
51
180.7484736
0
ARC
8
DEFAULT_255_1_234
10
6.5489131
20
29.3166846
40
0.3070957
50
131.5744599
51
154.4798489
0
ARC
8
DEFAULT_255_1_234
10
6.5802278
20
29.285031
40
0.3515643
50
96.9875458
51
131.9690667
0
ARC
8
DEFAULT_255_1_234
10
6.6021758
20
29.1604636
40
0.4779224
50
89.8596053
51
97.7825159
0
ARC
8
DEFAULT_255_1_234
10
6.6069821
20
29.1342616
40
0.5041361
50
78.3655447
51
90.4131539
0
ARC
8
DEFAULT_255_1_234
10
6.6427739
20
29.3001887
40
0.3344039
50
56.6229102
51
78.638727
0
ARC
8
DEFAULT_255_1_234
10
6.6642683
20
29.3377805
40
0.2912001
50
47.0253525
51
56.0854072
0
ARC
8
DEFAULT_255_1_234
10
6.6662463
20
29.3417223
40
0.2869704
50
10.9208013
51
46.7778124
0
ARC
8
DEFAULT_255_1_234
10
6.5298529
20
29.3101857
40
0.426899
50
359.6364486
51
11.6087304
0
ARC
8
DEFAULT_255_1_234
10
6.7133373
20
29.3086752
40
0.243409
50
332.3549906
51
359.7179418
0
ARC
8
DEFAULT_255_1_234
10
6.6482975
20
29.3395142
40
0.3153459
50
325.2333722
51
332.8745602
0
ARC
8
DEFAULT_255_1_234
10
6.6635598
20
29.3288828
40
0.2967456
50
292.9802137
51
325.2392345
0
ARC
8
DEFAULT_255_1_234
10
6.6360972
20
29.3822863
40
0.3566604
50
292.5402179
51
293.6924929
0
ARC
8
DEFAULT_255_1_234
10
6.6753568
20
28.7368091
40
0.3307468
50
57.6435486
51
72.8625112
0
ARC
8
DEFAULT_255_1_234
10
6.7108068
20
28.7942549
40
0.2632492
50
36.7248896
51
57.4697979
0
ARC
8
DEFAULT_255_1_234
10
6.7096701
20
28.795522
40
0.2634081
50
8.0545065
51
36.356114
0
ARC
8
DEFAULT_255_1_234
10
6.6233886
20
28.7800174
40
0.3510261
50
359.8320645
51
8.5869982
0
ARC
8
DEFAULT_255_1_234
10
6.5858662
20
28.7752101
40
0.3885653
50
343.9829931
51
0.5571613
0
ARC
8
DEFAULT_255_1_234
10
6.6744859
20
28.7509438
40
0.2966924
50
311.6359546
51
343.7651759
0
ARC
8
DEFAULT_255_1_234
10
6.6366428
20
28.7936102
40
0.3537231
50
279.7829875
51
311.6255694
0
ARC
8
DEFAULT_255_1_234
10
6.6065205
20
28.937328
40
0.5004971
50
269.7286406
51
280.3856417
0
ARC
8
DEFAULT_255_1_234
10
6.6003277
20
28.9331996
40
0.4963778
50
256.6828919
51
270.4412052
0
ARC
8
DEFAULT_255_1_234
10
6.5664573
20
28.7947394
40
0.3538406
50
229.4223008
51
256.8556159
0
ARC
8
DEFAULT_255_1_234
10
6.5249966
20
28.7480736
40
0.2914296
50
181.818294
51
229.6455059
0
ARC
8
DEFAULT_255_1_234
10
6.6289922
20
28.7611496
40
0.3959084
50
179.9755256
51
183.2323064
0
ARC
8
DEFAULT_255_1_234
10
6.6117668
20
28.7591037
40
0.2293034
50
179.4465117
51
196.2869258
0
ARC
8
DEFAULT_255_1_234
10
6.5630076
20
28.7457651
40
0.1787621
50
196.5661473
51
227.705904
0
ARC
8
DEFAULT_255_1_234
10
6.5794171
20
28.7641155
40
0.2033784
50
227.7652068
51
257.8762805
0
ARC
8
DEFAULT_255_1_234
10
6.6019141
20
28.8584156
40
0.3003081
50
257.4584385
51
270.426602
0
ARC
8
DEFAULT_255_1_234
10
6.6064707
20
28.8873996
40
0.329292
50
269.5962073
51
280.8789248
0
ARC
8
DEFAULT_255_1_234
10
6.6294236
20
28.7727685
40
0.2123908
50
280.6346389
51
299.8595945
0
ARC
8
DEFAULT_255_1_234
10
6.6485143
20
28.7365212
40
0.171457
50
300.3576302
51
314.5517981
0
ARC
8
DEFAULT_255_1_234
10
6.6402203
20
28.7425919
40
0.1816095
50
315.0728369
51
345.0431014
0
ARC
8
DEFAULT_255_1_234
10
6.5479017
20
28.7694841
40
0.2777492
50
344.5986631
51
357.9269593
0
ARC
8
DEFAULT_255_1_234
10
6.4583343
20
28.7756276
40
0.3674917
50
357.4748886
51
0.0231117
0
ARC
8
DEFAULT_255_1_234
10
6.5606453
20
28.7780679
40
0.2651907
50
359.5047933
51
13.4239635
0
ARC
8
DEFAULT_255_1_234
10
6.6473096
20
28.8002478
40
0.1757509
50
12.9498199
51
48.7551375
0
ARC
8
DEFAULT_255_1_234
10
6.629083
20
28.77534
40
0.2065134
50
49.5088623
51
72.1836453
0
ARC
8
DEFAULT_255_1_234
10
6.5932983
20
28.6691291
40
0.3185836
50
71.9010081
51
84.3554254
0
ARC
8
DEFAULT_255_1_234
10
6.5771615
20
28.5330326
40
0.4556151
50
84.0193428
51
89.333121
0
LINE
8
DEFAULT_255_1_234
10
7.6193618
20
29.4215276
11
7.6193618
21
29.0801788
0
LINE
8
DEFAULT_255_1_234
10
7.6193618
20
29.0801788
11
7.9454503
21
29.0801788
0
LINE
8
DEFAULT_255_1_234
10
7.9454503
20
29.0801788
11
7.9454503
21
28.9396233
0
LINE
8
DEFAULT_255_1_234
10
7.9454503
20
28.9396233
11
7.6193618
21
28.9396233
0
LINE
8
DEFAULT_255_1_234
10
7.6193618
20
28.9396233
11
7.6193618
21
28.5701634
0
LINE
8
DEFAULT_255_1_234
10
7.6193618
20
28.5701634
11
7.4699714
21
28.5701634
0
LINE
8
DEFAULT_255_1_234
10
7.4699714
20
28.5701634
11
7.4699714
21
28.9396233
0
LINE
8
DEFAULT_255_1_234
10
7.4699714
20
28.9396233
11
7.1438829
21
28.9396233
0
LINE
8
DEFAULT_255_1_234
10
7.1438829
20
28.9396233
11
7.1438829
21
29.0801788
0
LINE
8
DEFAULT_255_1_234
10
7.1438829
20
29.0801788
11
7.4699714
21
29.0801788
0
LINE
8
DEFAULT_255_1_234
10
7.4699714
20
29.0801788
11
7.4699714
21
29.4215276
0
LINE
8
DEFAULT_255_1_234
10
7.4699714
20
29.4215276
11
7.6193618
21
29.4215276
0
LINE
8
DEFAULT_255_1_234
10
4.3777522
20
37.5598211
11
4.7102662
21
36.5952093
0
LINE
8
DEFAULT_255_1_234
10
4.7102662
20
36.5952093
11
5.0443865
21
37.5598211
0
LINE
8
DEFAULT_255_1_234
10
5.0443865
20
37.5598211
11
5.213053
21
37.5598211
0
LINE
8
DEFAULT_255_1_234
10
5.213053
20
37.5598211
11
4.7793391
21
36.3904
0
LINE
8
DEFAULT_255_1_234
10
4.7793391
20
36.3904
11
4.6427996
21
36.3904
0
LINE
8
DEFAULT_255_1_234
10
4.6427996
20
36.3904
11
4.2098889
21
37.5598211
0
LINE
8
DEFAULT_255_1_234
10
4.2098889
20
37.5598211
11
4.3777522
21
37.5598211
0
LINE
8
DEFAULT_255_1_234
10
5.8194492
20
37.5654433
11
5.8194492
21
36.3904
0
LINE
8
DEFAULT_255_1_234
10
5.8194492
20
36.3904
11
5.6700589
21
36.3904
0
LINE
8
DEFAULT_255_1_234
10
5.6700589
20
36.3904
11
5.6700589
21
37.3807133
0
LINE
8
DEFAULT_255_1_234
10
5.6700589
20
37.3807133
11
5.370475
21
37.2706785
0
LINE
8
DEFAULT_255_1_234
10
5.370475
20
37.2706785
11
5.370475
21
37.4056117
0
LINE
8
DEFAULT_255_1_234
10
5.370475
20
37.4056117
11
5.7961572
21
37.5654433
0
LINE
8
DEFAULT_255_1_234
10
5.7961572
20
37.5654433
11
5.8194492
21
37.5654433
0
LINE
8
DEFAULT_255_1_234
10
7.0209973
20
36.5116792
11
7.0209973
21
36.3904
0
LINE
8
DEFAULT_255_1_234
10
7.0209973
20
36.3904
11
6.2547694
21
36.3904
0
LINE
8
DEFAULT_255_1_234
10
6.2547694
20
36.3904
11
6.2547694
21
36.4972221
0
LINE
8
DEFAULT_255_1_234
10
6.2547694
20
36.4972221
11
6.659569
21
36.9469995
0
LINE
8
DEFAULT_255_1_234
10
6.3808677
20
37.2152595
11
6.2322806
21
37.2152595
0
LINE
8
DEFAULT_255_1_234
10
6.747115
20
36.8514218
11
6.4338772
21
36.5116792
0
LINE
8
DEFAULT_255_1_234
10
6.4338772
20
36.5116792
11
7.0209973
21
36.5116792
0
ARC
8
DEFAULT_255_1_234
10
5.3105524
20
38.1399527
40
1.8008286
50
318.5132453
51
320.7828378
0
ARC
8
DEFAULT_255_1_234
10
5.8392498
20
37.7096426
40
1.1191493
50
320.7372736
51
323.9737074
0
ARC
8
DEFAULT_255_1_234
10
6.2312355
20
37.4256361
40
0.6350923
50
323.8961724
51
328.6421089
0
ARC
8
DEFAULT_255_1_234
10
6.435895
20
37.2994031
40
0.3946393
50
328.8299013
51
331.789948
0
ARC
8
DEFAULT_255_1_234
10
6.5356128
20
37.2479509
40
0.2824501
50
331.4255242
51
352.9364833
0
ARC
8
DEFAULT_255_1_234
10
6.5492629
20
37.2448976
40
0.2685315
50
353.2248685
51
0.0169286
0
ARC
8
DEFAULT_255_1_234
10
6.5702506
20
37.247195
40
0.2475536
50
359.4866256
51
15.9339782
0
ARC
8
DEFAULT_255_1_234
10
6.6209491
20
37.2608286
40
0.1950618
50
16.1714718
51
43.5284424
0
ARC
8
DEFAULT_255_1_234
10
6.62868
20
37.2685573
40
0.184134
50
43.4415429
51
83.1661404
0
ARC
8
DEFAULT_255_1_234
10
6.6152718
20
37.1948771
40
0.258926
50
82.160215
51
90.1505798
0
ARC
8
DEFAULT_255_1_234
10
6.6121145
20
37.1411865
40
0.3126255
50
89.5460705
51
102.5418777
0
ARC
8
DEFAULT_255_1_234
10
6.5878231
20
37.2442665
40
0.2067346
50
102.1739365
51
129.2061916
0
ARC
8
DEFAULT_255_1_234
10
6.5799303
20
37.2567094
40
0.1921118
50
129.7279328
51
135.7542026
0
ARC
8
DEFAULT_255_1_234
10
6.5920831
20
37.2470045
40
0.2075944
50
136.175737
51
166.3674722
0
ARC
8
DEFAULT_255_1_234
10
6.692775
20
37.2200182
40
0.3118201
50
165.9092917
51
178.8683903
0
ARC
8
DEFAULT_255_1_234
10
6.7792611
20
37.2153179
40
0.3983935
50
178.438168
51
180.0083905
0
ARC
8
DEFAULT_255_1_234
10
6.6391213
20
37.2192231
40
0.4068601
50
163.2878735
51
180.5581814
0
ARC
8
DEFAULT_255_1_234
10
6.5589475
20
37.241284
40
0.3237344
50
133.454115
51
162.9470031
0
ARC
8
DEFAULT_255_1_234
10
6.5768016
20
37.2223
40
0.349795
50
100.7869394
51
133.4384016
0
ARC
8
DEFAULT_255_1_234
10
6.6115788
20
37.0674319
40
0.5084616
50
89.6605301
51
101.3704185
0
ARC
8
DEFAULT_255_1_234
10
6.6182127
20
37.0735496
40
0.502348
50
78.2171172
51
90.4130393
0
ARC
8
DEFAULT_255_1_234
10
6.6537205
20
37.2359637
40
0.3361092
50
55.9268222
51
78.4888551
0
ARC
8
DEFAULT_255_1_234
10
6.6733645
20
37.2698324
40
0.2970617
50
47.9292255
51
55.4054003
0
ARC
8
DEFAULT_255_1_234
10
6.6835206
20
37.2801502
40
0.2825983
50
4.3347696
51
48.0560701
0
ARC
8
DEFAULT_255_1_234
10
6.5739599
20
37.2631601
40
0.393225
50
359.925209
51
5.5967654
0
ARC
8
DEFAULT_255_1_234
10
6.6168491
20
37.2687816
40
0.3503892
50
337.8914096
51
358.9967724
0
ARC
8
DEFAULT_255_1_234
10
6.3454903
20
37.3734706
40
0.6412172
50
326.9135351
51
338.3505194
0
ARC
8
DEFAULT_255_1_234
10
5.9469207
20
37.6289284
40
1.1146189
50
319.6472867
51
327.095818
0
ARC
8
DEFAULT_255_1_234
10
5.563621
20
37.9451
40
1.6114559
50
317.2586784
51
319.9046139
0
LINE
8
DEFAULT_255_1_234
10
7.6193618
20
37.3590276
11
7.6193618
21
37.0176788
0
LINE
8
DEFAULT_255_1_234
10
7.6193618
20
37.0176788
11
7.9454503
21
37.0176788
0
LINE
8
DEFAULT_255_1_234
10
7.9454503
20
37.0176788
11
7.9454503
21
36.8771233
0
LINE
8
DEFAULT_255_1_234
10
7.9454503
20
36.8771233
11
7.6193618
21
36.8771233
0
LINE
8
DEFAULT_255_1_234
10
7.6193618
20
36.8771233
11
7.6193618
21
36.5076634
0
LINE
8
DEFAULT_255_1_234
10
7.6193618
20
36.5076634
11
7.4699714
21
36.5076634
0
LINE
8
DEFAULT_255_1_234
10
7.4699714
20
36.5076634
11
7.4699714
21
36.8771233
0
LINE
8
DEFAULT_255_1_234
10
7.4699714
20
36.8771233
11
7.1438829
21
36.8771233
0
LINE
8
DEFAULT_255_1_234
10
7.1438829
20
36.8771233
11
7.1438829
21
37.0176788
0
LINE
8
DEFAULT_255_1_234
10
7.1438829
20
37.0176788
11
7.4699714
21
37.0176788
0
LINE
8
DEFAULT_255_1_234
10
7.4699714
20
37.0176788
11
7.4699714
21
37.3590276
0
LINE
8
DEFAULT_255_1_234
10
7.4699714
20
37.3590276
11
7.6193618
21
37.3590276
0
LINE
8
DEFAULT_255_1_234
10
4.3777522
20
45.4973211
11
4.7102662
21
44.5327093
0
LINE
8
DEFAULT_255_1_234
10
4.7102662
20
44.5327093
11
5.0443865
21
45.4973211
0
LINE
8
DEFAULT_255_1_234
10
5.0443865
20
45.4973211
11
5.213053
21
45.4973211
0
LINE
8
DEFAULT_255_1_234
10
5.213053
20
45.4973211
11
4.7793391
21
44.3279
0
LINE
8
DEFAULT_255_1_234
10
4.7793391
20
44.3279
11
4.6427996
21
44.3279
0
LINE
8
DEFAULT_255_1_234
10
4.6427996
20
44.3279
11
4.2098889
21
45.4973211
0
LINE
8
DEFAULT_255_1_234
10
4.2098889
20
45.4973211
11
4.3777522
21
45.4973211
0
LINE
8
DEFAULT_255_1_234
10
5.8194492
20
45.5029433
11
5.8194492
21
44.3279
0
LINE
8
DEFAULT_255_1_234
10
5.8194492
20
44.3279
11
5.6700589
21
44.3279
0
LINE
8
DEFAULT_255_1_234
10
5.6700589
20
44.3279
11
5.6700589
21
45.3182133
0
LINE
8
DEFAULT_255_1_234
10
5.6700589
20
45.3182133
11
5.370475
21
45.2081785
0
LINE
8
DEFAULT_255_1_234
10
5.370475
20
45.2081785
11
5.370475
21
45.3431117
0
LINE
8
DEFAULT_255_1_234
10
5.370475
20
45.3431117
11
5.7961572
21
45.5029433
0
LINE
8
DEFAULT_255_1_234
10
5.7961572
20
45.5029433
11
5.8194492
21
45.5029433
0
LINE
8
DEFAULT_255_1_234
10
6.7430991
20
45.5029433
11
6.7430991
21
44.3279
0
LINE
8
DEFAULT_255_1_234
10
6.7430991
20
44.3279
11
6.5937088
21
44.3279
0
LINE
8
DEFAULT_255_1_234
10
6.5937088
20
44.3279
11
6.5937088
21
45.3182133
0
LINE
8
DEFAULT_255_1_234
10
6.5937088
20
45.3182133
11
6.294125
21
45.2081785
0
LINE
8
DEFAULT_255_1_234
10
6.294125
20
45.2081785
11
6.294125
21
45.3431117
0
LINE
8
DEFAULT_255_1_234
10
6.294125
20
45.3431117
11
6.7198071
21
45.5029433
0
LINE
8
DEFAULT_255_1_234
10
6.7198071
20
45.5029433
11
6.7430991
21
45.5029433
0
LINE
8
DEFAULT_255_1_234
10
7.6193618
20
45.2965276
11
7.6193618
21
44.9551788
0
LINE
8
DEFAULT_255_1_234
10
7.6193618
20
44.9551788
11
7.9454503
21
44.9551788
0
LINE
8
DEFAULT_255_1_234
10
7.9454503
20
44.9551788
11
7.9454503
21
44.8146233
0
LINE
8
DEFAULT_255_1_234
10
7.9454503
20
44.8146233
11
7.6193618
21
44.8146233
0
LINE
8
DEFAULT_255_1_234
10
7.6193618
20
44.8146233
11
7.6193618
21
44.4451634
0
LINE
8
DEFAULT_255_1_234
10
7.6193618
20
44.4451634
11
7.4699714
21
44.4451634
0
LINE
8
DEFAULT_255_1_234
10
7.4699714
20
44.4451634
11
7.4699714
21
44.8146233
0
LINE
8
DEFAULT_255_1_234
10
7.4699714
20
44.8146233
11
7.1438829
21
44.8146233
0
LINE
8
DEFAULT_255_1_234
10
7.1438829
20
44.8146233
11
7.1438829
21
44.9551788
0
LINE
8
DEFAULT_255_1_234
10
7.1438829
20
44.9551788
11
7.4699714
21
44.9551788
0
LINE
8
DEFAULT_255_1_234
10
7.4699714
20
44.9551788
11
7.4699714
21
45.2965276
0
LINE
8
DEFAULT_255_1_234
10
7.4699714
20
45.2965276
11
7.6193618
21
45.2965276
0
LINE
8
DEFAULT_255_1_234
10
4.3777522
20
53.4348211
11
4.7102662
21
52.4702093
0
LINE
8
DEFAULT_255_1_234
10
4.7102662
20
52.4702093
11
5.0443865
21
53.4348211
0
LINE
8
DEFAULT_255_1_234
10
5.0443865
20
53.4348211
11
5.213053
21
53.4348211
0
LINE
8
DEFAULT_255_1_234
10
5.213053
20
53.4348211
11
4.7793391
21
52.2654
0
LINE
8
DEFAULT_255_1_234
10
4.7793391
20
52.2654
11
4.6427996
21
52.2654
0
LINE
8
DEFAULT_255_1_234
10
4.6427996
20
52.2654
11
4.2098889
21
53.4348211
0
LINE
8
DEFAULT_255_1_234
10
4.2098889
20
53.4348211
11
4.3777522
21
53.4348211
0
LINE
8
DEFAULT_255_1_234
10
5.8194492
20
53.4404433
11
5.8194492
21
52.2654
0
LINE
8
DEFAULT_255_1_234
10
5.8194492
20
52.2654
11
5.6700589
21
52.2654
0
LINE
8
DEFAULT_255_1_234
10
5.6700589
20
52.2654
11
5.6700589
21
53.2557133
0
LINE
8
DEFAULT_255_1_234
10
5.6700589
20
53.2557133
11
5.370475
21
53.1456785
0
LINE
8
DEFAULT_255_1_234
10
5.370475
20
53.1456785
11
5.370475
21
53.2806117
0
LINE
8
DEFAULT_255_1_234
10
5.370475
20
53.2806117
11
5.7961572
21
53.4404433
0
LINE
8
DEFAULT_255_1_234
10
5.7961572
20
53.4404433
11
5.8194492
21
53.4404433
0
LINE
8
DEFAULT_255_1_234
10
6.9880671
20
52.9569327
11
6.9880671
21
52.7641709
0
LINE
8
DEFAULT_255_1_234
10
6.2499504
20
52.7440916
11
6.2499504
21
52.9424755
0
LINE
8
DEFAULT_255_1_234
10
6.83948
20
52.7240123
11
6.83948
21
52.9673739
0
LINE
8
DEFAULT_255_1_234
10
6.3985375
20
52.9786184
11
6.3985375
21
52.7408789
0
ARC
8
DEFAULT_255_1_234
10
5.7633561
20
52.7592805
40
1.2247208
50
353.8441951
51
0.2287902
0
ARC
8
DEFAULT_255_1_234
10
6.2273065
20
52.7074806
40
0.7578929
50
344.4934747
51
353.9765454
0
ARC
8
DEFAULT_255_1_234
10
6.5265655
20
52.6223981
40
0.4467846
50
329.2803592
51
344.7472793
0
ARC
8
DEFAULT_255_1_234
10
6.625848
20
52.5679018
40
0.3336173
50
324.9352394
51
328.6160465
0
ARC
8
DEFAULT_255_1_234
10
6.6635588
20
52.5415427
40
0.2876076
50
280.580143
51
324.9173126
0
ARC
8
DEFAULT_255_1_234
10
6.6234381
20
52.7086099
40
0.4592847
50
269.5977311
51
281.6734359
0
ARC
8
DEFAULT_255_1_234
10
6.6162287
20
52.6966173
40
0.4472986
50
256.6228859
51
270.51044
0
ARC
8
DEFAULT_255_1_234
10
6.5760264
20
52.5417877
40
0.2873874
50
215.8618325
51
257.2788573
0
ARC
8
DEFAULT_255_1_234
10
6.6781296
20
52.6102977
40
0.4102928
50
197.9693508
51
215.2623606
0
ARC
8
DEFAULT_255_1_234
10
6.9266412
20
52.6941709
40
0.6725652
50
187.8816417
51
198.2346507
0
ARC
8
DEFAULT_255_1_234
10
7.322462
20
52.7513079
40
1.0724845
50
180.8976217
51
188.0055519
0
ARC
8
DEFAULT_255_1_234
10
7.6024808
20
52.7616777
40
1.3526448
50
180.7449369
51
181.1510016
0
ARC
8
DEFAULT_255_1_234
10
7.4447537
20
52.9473042
40
1.1948131
50
173.7675579
51
180.231553
0
ARC
8
DEFAULT_255_1_234
10
6.9929684
20
52.9983666
40
0.7401564
50
164.3058563
51
173.9002247
0
ARC
8
DEFAULT_255_1_234
10
6.7017753
20
53.0822656
40
0.4371288
50
148.7922025
51
164.568378
0
ARC
8
DEFAULT_255_1_234
10
6.6066205
20
53.1353929
40
0.3282386
50
144.5883898
51
148.1176286
0
ARC
8
DEFAULT_255_1_234
10
6.5723103
20
53.1593315
40
0.2864044
50
101.6440918
51
144.514236
0
ARC
8
DEFAULT_255_1_234
10
6.6148169
20
52.9904069
40
0.4604934
50
89.5284041
51
102.5819763
0
ARC
8
DEFAULT_255_1_234
10
6.6227257
20
52.9865018
40
0.464401
50
77.0437873
51
90.5081339
0
ARC
8
DEFAULT_255_1_234
10
6.6629259
20
53.1507615
40
0.2953195
50
48.2778575
51
77.4994676
0
ARC
8
DEFAULT_255_1_234
10
6.670189
20
53.1636746
40
0.2808655
50
36.3142134
51
47.6305865
0
ARC
8
DEFAULT_255_1_234
10
6.5833197
20
53.1051515
40
0.3855453
50
18.2931786
51
35.6769206
0
ARC
8
DEFAULT_255_1_234
10
6.3289956
20
53.0178593
40
0.654423
50
8.024666
51
18.5605216
0
ARC
8
DEFAULT_255_1_234
10
5.9126876
20
52.9563792
40
1.0752407
50
1.1274072
51
8.1718305
0
ARC
8
DEFAULT_255_1_234
10
5.5891067
20
52.9436885
40
1.3990231
50
0.5424119
51
1.3863029
0
ARC
8
DEFAULT_255_1_234
10
5.7712444
20
52.9709342
40
1.0682415
50
359.8090433
51
4.9407866
0
ARC
8
DEFAULT_255_1_234
10
6.1922458
20
53.0085113
40
0.6455691
50
4.8362157
51
12.2904523
0
ARC
8
DEFAULT_255_1_234
10
6.4677573
20
53.0698965
40
0.3633074
50
12.0805627
51
23.8173984
0
ARC
8
DEFAULT_255_1_234
10
6.5851279
20
53.1195919
40
0.2358723
50
24.2871213
51
31.3935614
0
ARC
8
DEFAULT_255_1_234
10
6.6375976
20
53.1539233
40
0.1732111
50
30.7407893
51
82.4657128
0
ARC
8
DEFAULT_255_1_234
10
6.619611
20
53.0655691
40
0.263235
50
81.1060089
51
90.2184952
0
ARC
8
DEFAULT_255_1_234
10
6.6160409
20
53.0913924
40
0.2374236
50
89.3806855
51
105.6762551
0
ARC
8
DEFAULT_255_1_234
10
6.597704
20
53.1580567
40
0.1682847
50
105.7981136
51
149.7388061
0
ARC
8
DEFAULT_255_1_234
10
6.7041118
20
53.094095
40
0.2924306
50
149.4208916
51
163.6286378
0
ARC
8
DEFAULT_255_1_234
10
6.9132006
20
53.030325
40
0.5110213
50
163.3763315
51
172.1410975
0
ARC
8
DEFAULT_255_1_234
10
7.2432725
20
52.9830518
40
0.8444586
50
172.0259487
51
178.0703232
0
ARC
8
DEFAULT_255_1_234
10
7.5462814
20
52.9686906
40
1.1477868
50
177.8631668
51
179.5044149
0
ARC
8
DEFAULT_255_1_234
10
7.4390219
20
52.7372389
40
1.0404907
50
179.7995573
51
185.2460446
0
ARC
8
DEFAULT_255_1_234
10
7.0347258
20
52.6989513
40
0.6343885
50
185.1411642
51
193.0079639
0
ARC
8
DEFAULT_255_1_234
10
6.7703731
20
52.6364641
40
0.3627568
50
192.7897626
51
205.2507664
0
ARC
8
DEFAULT_255_1_234
10
6.6657278
20
52.5897415
40
0.2481908
50
205.8005384
51
211.2537509
0
ARC
8
DEFAULT_255_1_234
10
6.6133718
20
52.554658
40
0.1852521
50
210.3789793
51
238.4008143
0
ARC
8
DEFAULT_255_1_234
10
6.611424
20
52.5593376
40
0.1882621
50
239.6520629
51
265.9793761
0
ARC
8
DEFAULT_255_1_234
10
6.619944
20
52.6265427
40
0.2559272
50
265.1315437
51
270.060332
0
ARC
8
DEFAULT_255_1_234
10
6.6228219
20
52.5941534
40
0.2235528
50
269.3314664
51
287.2178029
0
ARC
8
DEFAULT_255_1_234
10
6.6366071
20
52.5438279
40
0.1714108
50
287.7958004
51
329.080874
0
ARC
8
DEFAULT_255_1_234
10
6.5408528
20
52.603593
40
0.2842745
50
328.6634704
51
343.3325132
0
ARC
8
DEFAULT_255_1_234
10
6.3235548
20
52.6712863
40
0.5118644
50
343.0499468
51
351.9393422
0
ARC
8
DEFAULT_255_1_234
10
5.9768848
20
52.7223949
40
0.8622784
50
351.8069023
51
357.7959224
0
ARC
8
DEFAULT_255_1_234
10
5.6533404
20
52.7391721
40
1.1862365
50
357.5871873
51
359.2677531
0
LINE
8
DEFAULT_255_1_234
10
7.6193618
20
53.2340276
11
7.6193618
21
52.8926788
0
LINE
8
DEFAULT_255_1_234
10
7.6193618
20
52.8926788
11
7.9454503
21
52.8926788
0
LINE
8
DEFAULT_255_1_234
10
7.9454503
20
52.8926788
11
7.9454503
21
52.7521233
0
LINE
8
DEFAULT_255_1_234
10
7.9454503
20
52.7521233
11
7.6193618
21
52.7521233
0
LINE
8
DEFAULT_255_1_234
10
7.6193618
20
52.7521233
11
7.6193618
21
52.3826634
0
LINE
8
DEFAULT_255_1_234
10
7.6193618
20
52.3826634
11
7.4699714
21
52.3826634
0
LINE
8
DEFAULT_255_1_234
10
7.4699714
20
52.3826634
11
7.4699714
21
52.7521233
0
LINE
8
DEFAULT_255_1_234
10
7.4699714
20
52.7521233
11
7.1438829
21
52.7521233
0
LINE
8
DEFAULT_255_1_234
10
7.1438829
20
52.7521233
11
7.1438829
21
52.8926788
0
LINE
8
DEFAULT_255_1_234
10
7.1438829
20
52.8926788
11
7.4699714
21
52.8926788
0
LINE
8
DEFAULT_255_1_234
10
7.4699714
20
52.8926788
11
7.4699714
21
53.2340276
0
LINE
8
DEFAULT_255_1_234
10
7.4699714
20
53.2340276
11
7.6193618
21
53.2340276
0
LINE
8
DEFAULT_255_1_234
10
4.3179522
20
61.3723211
11
4.6504662
21
60.4077093
0
LINE
8
DEFAULT_255_1_234
10
4.6504662
20
60.4077093
11
4.9845865
21
61.3723211
0
LINE
8
DEFAULT_255_1_234
10
4.9845865
20
61.3723211
11
5.153253
21
61.3723211
0
LINE
8
DEFAULT_255_1_234
10
5.153253
20
61.3723211
11
4.7195391
21
60.2029
0
LINE
8
DEFAULT_255_1_234
10
4.7195391
20
60.2029
11
4.5829996
21
60.2029
0
LINE
8
DEFAULT_255_1_234
10
4.5829996
20
60.2029
11
4.1500889
21
61.3723211
0
LINE
8
DEFAULT_255_1_234
10
4.1500889
20
61.3723211
11
4.3179522
21
61.3723211
0
LINE
8
DEFAULT_255_1_234
10
5.9901601
20
60.9048739
11
5.9901601
21
60.8615025
0
LINE
8
DEFAULT_255_1_234
10
5.4480178
20
60.2020968
11
5.4191035
21
60.2020968
0
LINE
8
DEFAULT_255_1_234
10
5.4191035
20
60.2020968
11
5.4191035
21
60.3273919
0
LINE
8
DEFAULT_255_1_234
10
5.4191035
20
60.3273919
11
5.4504273
21
60.3273919
0
LINE
8
DEFAULT_255_1_234
10
5.8415729
20
60.8759597
11
5.8415729
21
60.9353945
0
ARC
8
DEFAULT_255_1_234
10
5.5621999
20
60.9505403
40
0.3635579
50
297.4037347
51
320.016758
0
ARC
8
DEFAULT_255_1_234
10
5.5911948
20
60.894824
40
0.3007486
50
270.2633101
51
297.3851877
0
ARC
8
DEFAULT_255_1_234
10
5.5877904
20
60.9411904
40
0.3471448
50
269.9966443
51
270.7900392
0
ARC
8
DEFAULT_255_1_234
10
5.5852385
20
60.9410143
40
0.3469779
50
254.5999133
51
270.4180344
0
ARC
8
DEFAULT_255_1_234
10
5.5709744
20
60.8845647
40
0.2887697
50
236.4717942
51
254.3541279
0
ARC
8
DEFAULT_255_1_234
10
5.5865962
20
60.9055711
40
0.3149125
50
208.4727207
51
236.2134933
0
ARC
8
DEFAULT_255_1_234
10
5.6504737
20
60.9446455
40
0.3897115
50
204.3447514
51
209.0453999
0
ARC
8
DEFAULT_255_1_234
10
5.7184313
20
60.9734656
40
0.4635101
50
183.9375985
51
204.1276318
0
ARC
8
DEFAULT_255_1_234
10
5.8092564
20
60.9832482
40
0.5548037
50
179.9652252
51
184.3013875
0
ARC
8
DEFAULT_255_1_234
10
5.785261
20
60.9865507
40
0.5308164
50
166.7585989
51
180.3201225
0
ARC
8
DEFAULT_255_1_234
10
5.7006224
20
61.0049488
40
0.4442163
50
154.6955053
51
166.5679793
0
ARC
8
DEFAULT_255_1_234
10
5.6153094
20
61.047921
40
0.3487299
50
136.3324195
51
155.0871442
0
ARC
8
DEFAULT_255_1_234
10
5.5872167
20
61.0719954
40
0.3117924
50
121.236733
51
135.9680508
0
ARC
8
DEFAULT_255_1_234
10
5.6012665
20
61.0459743
40
0.3413302
50
96.845628
51
120.9881519
0
ARC
8
DEFAULT_255_1_234
10
5.6158247
20
60.9524515
40
0.4359341
50
89.8870174
51
97.2802754
0
ARC
8
DEFAULT_255_1_234
10
5.6210685
20
61.0162095
40
0.3722009
50
70.6505584
51
90.6749113
0
ARC
8
DEFAULT_255_1_234
10
5.6341964
20
61.0675361
40
0.3194571
50
36.7492984
51
69.8219918
0
ARC
8
DEFAULT_255_1_234
10
5.5343129
20
60.9896993
40
0.4460685
50
15.39587
51
37.0840084
0
ARC
8
DEFAULT_255_1_234
10
5.3213562
20
60.9276242
40
0.6678714
50
3.9488873
51
15.6798563
0
ARC
8
DEFAULT_255_1_234
10
5.081219
20
60.9059964
40
0.9089418
50
359.929245
51
4.2665314
0
ARC
8
DEFAULT_255_1_234
10
4.6206627
20
60.8548513
40
1.3695135
50
352.8366322
51
0.2782669
0
ARC
8
DEFAULT_255_1_234
10
5.1494306
20
60.7861629
40
0.8363105
50
341.8359505
51
352.9884176
0
ARC
8
DEFAULT_255_1_234
10
5.4713025
20
60.67767
40
0.4966642
50
322.8578092
51
342.1527901
0
ARC
8
DEFAULT_255_1_234
10
5.5576981
20
60.6187384
40
0.3922466
50
319.334325
51
322.0998941
0
ARC
8
DEFAULT_255_1_234
10
5.5267318
20
60.6498209
40
0.4360033
50
285.9541367
51
318.8878087
0
ARC
8
DEFAULT_255_1_234
10
5.4540579
20
60.88086
40
0.678149
50
272.9281676
51
286.4922826
0
ARC
8
DEFAULT_255_1_234
10
5.4350697
20
61.1059587
40
0.9039547
50
270.8207226
51
273.4012994
0
ARC
8
DEFAULT_255_1_234
10
5.4439548
20
60.9240666
40
0.5967098
50
270.6214993
51
281.4062806
0
ARC
8
DEFAULT_255_1_234
10
5.4869529
20
60.7184833
40
0.3866861
50
281.1852553
51
299.0621114
0
ARC
8
DEFAULT_255_1_234
10
5.52431
20
60.6463798
40
0.3055236
50
299.5067782
51
313.1200873
0
ARC
8
DEFAULT_255_1_234
10
5.5265067
20
60.6384554
40
0.2982623
50
313.8526205
51
338.5989322
0
ARC
8
DEFAULT_255_1_234
10
5.3641141
20
60.7051781
40
0.4738131
50
338.2523585
51
351.2430902
0
ARC
8
DEFAULT_255_1_234
10
5.1230437
20
60.7461447
40
0.7183203
50
350.9409515
51
357.6691871
0
ARC
8
DEFAULT_255_1_234
10
5.6120867
20
60.9463764
40
0.2294452
50
269.9447023
51
306.8248917
0
ARC
8
DEFAULT_255_1_234
10
5.5883782
20
60.9886898
40
0.2775994
50
305.5072438
51
327.0773448
0
ARC
8
DEFAULT_255_1_234
10
5.6002223
20
60.9792025
40
0.2625056
50
327.4104943
51
336.840169
0
ARC
8
DEFAULT_255_1_234
10
5.2908288
20
60.9386302
40
0.5507537
50
359.6633817
51
10.117533
0
ARC
8
DEFAULT_255_1_234
10
5.4662086
20
60.9710777
40
0.372403
50
9.9430141
51
26.7700076
0
ARC
8
DEFAULT_255_1_234
10
5.5259298
20
60.9986187
40
0.3066865
50
27.2015464
51
34.6829435
0
ARC
8
DEFAULT_255_1_234
10
5.5748778
20
61.0353977
40
0.245519
50
34.1250343
51
50.3070065
0
ARC
8
DEFAULT_255_1_234
10
5.6195458
20
61.0888385
40
0.1758693
50
50.3851167
51
90.6705993
0
ARC
8
DEFAULT_255_1_234
10
5.6148691
20
61.0583799
40
0.2063326
50
89.272901
51
111.9140407
0
ARC
8
DEFAULT_255_1_234
10
5.6129219
20
61.072444
40
0.1925887
50
112.9382311
51
142.5320782
0
ARC
8
DEFAULT_255_1_234
10
5.6675399
20
61.0280969
40
0.2629232
50
142.1021256
51
166.3835592
0
ARC
8
DEFAULT_255_1_234
10
5.7856704
20
60.9975915
40
0.3849193
50
166.1100289
51
178.665427
0
ARC
8
DEFAULT_255_1_234
10
5.8904293
20
60.9917117
40
0.4897989
50
178.2632126
51
180.0111093
0
ARC
8
DEFAULT_255_1_234
10
5.8102414
20
60.9888728
40
0.40962
50
179.6161962
51
191.8787166
0
ARC
8
DEFAULT_255_1_234
10
5.6882253
20
60.9618896
40
0.2846655
50
191.6191692
51
215.2972286
0
ARC
8
DEFAULT_255_1_234
10
5.6685444
20
60.9503918
40
0.2619665
50
215.7320102
51
216.5355409
0
ARC
8
DEFAULT_255_1_234
10
5.614653
20
60.9071647
40
0.1929497
50
215.7486685
51
239.9727502
0
ARC
8
DEFAULT_255_1_234
10
5.6076446
20
60.9020894
40
0.1850822
50
241.0650169
51
269.2810483
0
ARC
8
DEFAULT_255_1_234
10
5.6118361
20
60.9511371
40
0.2342059
50
268.4062526
51
270.0071348
0
LINE
8
DEFAULT_255_1_234
10
6.6359119
20
61.1715276
11
6.6359119
21
60.8301788
0
LINE
8
DEFAULT_255_1_234
10
6.6359119
20
60.8301788
11
6.9620004
21
60.8301788
0
LINE
8
DEFAULT_255_1_234
10
6.9620004
20
60.8301788
11
6.9620004
21
60.6896233
0
LINE
8
DEFAULT_255_1_234
10
6.9620004
20
60.6896233
11
6.6359119
21
60.6896233
0
LINE
8
DEFAULT_255_1_234
10
6.6359119
20
60.6896233
11
6.6359119
21
60.3201634
0
LINE
8
DEFAULT_255_1_234
10
6.6359119
20
60.3201634
11
6.4865215
21
60.3201634
0
LINE
8
DEFAULT_255_1_234
10
6.4865215
20
60.3201634
11
6.4865215
21
60.6896233
0
LINE
8
DEFAULT_255_1_234
10
6.4865215
20
60.6896233
11
6.160433
21
60.6896233
0
LINE
8
DEFAULT_255_1_234
10
6.160433
20
60.6896233
11
6.160433
21
60.8301788
0
LINE
8
DEFAULT_255_1_234
10
6.160433
20
60.8301788
11
6.4865215
21
60.8301788
0
LINE
8
DEFAULT_255_1_234
10
6.4865215
20
60.8301788
11
6.4865215
21
61.1715276
0
LINE
8
DEFAULT_255_1_234
10
6.4865215
20
61.1715276
11
6.6359119
21
61.1715276
0
LINE
8
DEFAULT_255_1_234
10
4.3179522
20
69.3098211
11
4.6504662
21
68.3452093
0
LINE
8
DEFAULT_255_1_234
10
4.6504662
20
68.3452093
11
4.9845865
21
69.3098211
0
LINE
8
DEFAULT_255_1_234
10
4.9845865
20
69.3098211
11
5.153253
21
69.3098211
0
LINE
8
DEFAULT_255_1_234
10
5.153253
20
69.3098211
11
4.7195391
21
68.1404
0
LINE
8
DEFAULT_255_1_234
10
4.7195391
20
68.1404
11
4.5829996
21
68.1404
0
LINE
8
DEFAULT_255_1_234
10
4.5829996
20
68.1404
11
4.1500889
21
69.3098211
0
LINE
8
DEFAULT_255_1_234
10
4.1500889
20
69.3098211
11
4.3179522
21
69.3098211
0
ARC
8
DEFAULT_255_1_234
10
5.6982979
20
69.0020703
40
0.2822356
50
338.8763615
51
0.5166041
0
ARC
8
DEFAULT_255_1_234
10
5.7151633
20
68.9975208
40
0.2648703
50
325.8412414
51
338.4795939
0
ARC
8
DEFAULT_255_1_234
10
5.6761001
20
69.0246042
40
0.3124019
50
296.7586019
51
325.753654
0
ARC
8
DEFAULT_255_1_234
10
5.6473109
20
69.0730789
40
0.368668
50
296.0902311
51
297.3618122
0
ARC
8
DEFAULT_255_1_234
10
5.6730567
20
68.4176041
40
0.3518806
50
47.9009248
51
67.1946869
0
ARC
8
DEFAULT_255_1_234
10
5.6926809
20
68.4422395
40
0.320451
50
35.236241
51
47.551371
0
ARC
8
DEFAULT_255_1_234
10
5.7188427
20
68.4596993
40
0.2890103
50
359.2759738
51
35.4014081
0
ARC
8
DEFAULT_255_1_234
10
5.6443458
20
68.4523826
40
0.3635026
50
343.1294516
51
0.5776525
0
ARC
8
DEFAULT_255_1_234
10
5.7168003
20
68.432433
40
0.2883832
50
310.8497458
51
342.744803
0
ARC
8
DEFAULT_255_1_234
10
5.6750116
20
68.4801294
40
0.3517954
50
281.5473923
51
310.9169905
0
ARC
8
DEFAULT_255_1_234
10
5.6393565
20
68.6354084
40
0.5110832
50
269.6192722
51
281.9789957
0
ARC
8
DEFAULT_255_1_234
10
5.6321355
20
68.6354828
40
0.5111606
50
257.4584469
51
270.4287458
0
ARC
8
DEFAULT_255_1_234
10
5.5940498
20
68.4751344
40
0.3463762
50
228.7553743
51
257.8484423
0
ARC
8
DEFAULT_255_1_234
10
5.5630696
20
68.4378442
40
0.297916
50
184.0104442
51
228.5071787
0
ARC
8
DEFAULT_255_1_234
10
5.679364
20
68.4555512
40
0.4152734
50
179.9315461
51
185.3254504
0
ARC
8
DEFAULT_255_1_234
10
5.5617286
20
68.4592992
40
0.2976554
50
145.6795913
51
180.6259649
0
ARC
8
DEFAULT_255_1_234
10
5.5780635
20
68.4478929
40
0.3175776
50
115.5537925
51
145.6416199
0
ARC
8
DEFAULT_255_1_234
10
5.6121565
20
68.3868028
40
0.3874232
50
113.2437915
51
116.2054627
0
ARC
8
DEFAULT_255_1_234
10
5.5968778
20
69.026658
40
0.3154751
50
222.9548379
51
244.1372485
0
ARC
8
DEFAULT_255_1_234
10
5.5846853
20
69.0129834
40
0.2972382
50
213.3439227
51
222.6271327
0
ARC
8
DEFAULT_255_1_234
10
5.5654788
20
68.9999308
40
0.274019
50
180.4316517
51
213.2713999
0
ARC
8
DEFAULT_255_1_234
10
5.6229789
20
69.004611
40
0.33158
50
179.9992944
51
181.1655061
0
ARC
8
DEFAULT_255_1_234
10
5.6639206
20
69.0080561
40
0.3725376
50
164.6186108
51
180.5292368
0
ARC
8
DEFAULT_255_1_234
10
5.5741069
20
69.0322101
40
0.2795349
50
132.2454369
51
164.5092287
0
ARC
8
DEFAULT_255_1_234
10
5.6028173
20
68.9997028
40
0.3229019
50
100.7052766
51
132.1387266
0
ARC
8
DEFAULT_255_1_234
10
5.6333145
20
68.8619086
40
0.4639835
50
89.6732617
51
101.2449487
0
ARC
8
DEFAULT_255_1_234
10
5.6395343
20
68.879399
40
0.4464999
50
76.2876631
51
90.4586123
0
ARC
8
DEFAULT_255_1_234
10
5.6701575
20
69.001622
40
0.3205023
50
47.8240157
51
76.4266918
0
ARC
8
DEFAULT_255_1_234
10
5.6924125
20
69.027659
40
0.2862661
50
6.9168658
51
47.6261438
0
ARC
8
DEFAULT_255_1_234
10
5.5737528
20
69.005737
40
0.4067708
50
359.8419705
51
7.9694496
0
ARC
8
DEFAULT_255_1_234
10
5.6079425
20
68.4616925
40
0.2513121
50
359.4454068
51
16.9256425
0
ARC
8
DEFAULT_255_1_234
10
5.6548236
20
68.4746033
40
0.2027071
50
17.292259
51
45.462717
0
ARC
8
DEFAULT_255_1_234
10
5.6494172
20
68.4699434
40
0.2098212
50
45.3028762
51
83.1921472
0
ARC
8
DEFAULT_255_1_234
10
5.6350856
20
68.3897895
40
0.2911472
50
82.2614531
51
90.143954
0
ARC
8
DEFAULT_255_1_234
10
5.6319976
20
68.413095
40
0.2678513
50
89.4959189
51
104.8579811
0
ARC
8
DEFAULT_255_1_234
10
5.6143235
20
68.480089
40
0.1985654
50
104.8855873
51
135.2448349
0
ARC
8
DEFAULT_255_1_234
10
5.6193008
20
68.4756336
40
0.2052373
50
135.3398955
51
172.104394
0
ARC
8
DEFAULT_255_1_234
10
5.7000066
20
68.4601925
40
0.2873299
50
171.2651929
51
180.1859362
0
ARC
8
DEFAULT_255_1_234
10
5.6830767
20
68.4569733
40
0.2704083
50
179.515471
51
193.6466734
0
ARC
8
DEFAULT_255_1_234
10
5.6014536
20
68.4361777
40
0.1861855
50
193.3540587
51
225.8256931
0
ARC
8
DEFAULT_255_1_234
10
5.6055293
20
68.4432524
40
0.1941102
50
226.418029
51
255.8553723
0
ARC
8
DEFAULT_255_1_234
10
5.6311726
20
68.5368998
40
0.2911917
50
255.4655572
51
268.7985967
0
ARC
8
DEFAULT_255_1_234
10
5.6358918
20
68.6207491
40
0.3751331
50
268.3464808
51
270.0104874
0
ARC
8
DEFAULT_255_1_234
10
5.6382306
20
68.5523138
40
0.3067064
50
269.575914
51
282.0823146
0
ARC
8
DEFAULT_255_1_234
10
5.6607215
20
68.4528803
40
0.2047712
50
281.7522535
51
306.6056425
0
ARC
8
DEFAULT_255_1_234
10
5.6705641
20
68.4367487
40
0.1859604
50
307.1350025
51
314.0277951
0
ARC
8
DEFAULT_255_1_234
10
5.6669725
20
68.4393766
40
0.1903475
50
314.2553419
51
350.169324
0
ARC
8
DEFAULT_255_1_234
10
5.5818194
20
68.4578409
40
0.2774269
50
349.4145679
51
0.2930737
0
ARC
8
DEFAULT_255_1_234
10
5.6338627
20
68.9737353
40
0.2300764
50
89.477591
51
105.729794
0
ARC
8
DEFAULT_255_1_234
10
5.620254
20
69.0242637
40
0.1777519
50
105.922966
51
135.1662921
0
ARC
8
DEFAULT_255_1_234
10
5.6223043
20
69.0228419
40
0.1802087
50
135.3053131
51
168.9882338
0
ARC
8
DEFAULT_255_1_234
10
5.7050615
20
69.0038721
40
0.2650806
50
168.3802067
51
180.3602358
0
ARC
8
DEFAULT_255_1_234
10
5.6822195
20
69.0001041
40
0.2422425
50
179.5029707
51
194.9126783
0
ARC
8
DEFAULT_255_1_234
10
5.6236856
20
68.984711
40
0.1817188
50
194.9722181
51
224.1943972
0
ARC
8
DEFAULT_255_1_234
10
5.6208723
20
68.9824169
40
0.1781027
50
224.2961434
51
262.0157375
0
ARC
8
DEFAULT_255_1_234
10
5.6350966
20
69.0555661
40
0.2525492
50
261.1250369
51
270.1959853
0
ARC
8
DEFAULT_255_1_234
10
5.6380721
20
69.0368339
40
0.233825
50
269.4825617
51
285.0988277
0
ARC
8
DEFAULT_255_1_234
10
5.653488
20
68.978999
40
0.1739712
50
285.1585659
51
315.9484648
0
ARC
8
DEFAULT_255_1_234
10
5.6445892
20
68.9871886
40
0.1860616
50
316.0412958
51
351.9162715
0
ARC
8
DEFAULT_255_1_234
10
5.5712847
20
69.0013245
40
0.2606517
50
351.1056823
51
0.1936567
0
ARC
8
DEFAULT_255_1_234
10
5.5975676
20
69.0043369
40
0.234377
50
359.4789506
51
16.0679113
0
ARC
8
DEFAULT_255_1_234
10
5.6451635
20
69.017181
40
0.1850875
50
16.3251951
51
44.791304
0
ARC
8
DEFAULT_255_1_234
10
5.6433916
20
69.0172339
40
0.186312
50
44.3958661
51
88.2498933
0
ARC
8
DEFAULT_255_1_234
10
5.636047
20
68.9561154
40
0.2476868
50
86.9833827
51
90.0200148
0
LINE
8
DEFAULT_255_1_234
10
6.6359119
20
69.1090276
11
6.6359119
21
68.7676788
0
LINE
8
DEFAULT_255_1_234
10
6.6359119
20
68.7676788
11
6.9620004
21
68.7676788
0
LINE
8
DEFAULT_255_1_234
10
6.9620004
20
68.7676788
11
6.9620004
21
68.6271233
0
LINE
8
DEFAULT_255_1_234
10
6.9620004
20
68.6271233
11
6.6359119
21
68.6271233
0
LINE
8
DEFAULT_255_1_234
10
6.6359119
20
68.6271233
11
6.6359119
21
68.2576634
0
LINE
8
DEFAULT_255_1_234
10
6.6359119
20
68.2576634
11
6.4865215
21
68.2576634
0
LINE
8
DEFAULT_255_1_234
10
6.4865215
20
68.2576634
11
6.4865215
21
68.6271233
0
LINE
8
DEFAULT_255_1_234
10
6.4865215
20
68.6271233
11
6.160433
21
68.6271233
0
LINE
8
DEFAULT_255_1_234
10
6.160433
20
68.6271233
11
6.160433
21
68.7676788
0
LINE
8
DEFAULT_255_1_234
10
6.160433
20
68.7676788
11
6.4865215
21
68.7676788
0
LINE
8
DEFAULT_255_1_234
10
6.4865215
20
68.7676788
11
6.4865215
21
69.1090276
0
LINE
8
DEFAULT_255_1_234
10
6.4865215
20
69.1090276
11
6.6359119
21
69.1090276
0
LINE
8
DEFAULT_255_1_234
10
4.3179522
20
77.2473211
11
4.6504662
21
76.2827093
0
LINE
8
DEFAULT_255_1_234
10
4.6504662
20
76.2827093
11
4.9845865
21
77.2473211
0
LINE
8
DEFAULT_255_1_234
10
4.9845865
20
77.2473211
11
5.153253
21
77.2473211
0
LINE
8
DEFAULT_255_1_234
10
5.153253
20
77.2473211
11
4.7195391
21
76.0779
0
LINE
8
DEFAULT_255_1_234
10
4.7195391
20
76.0779
11
4.5829996
21
76.0779
0
LINE
8
DEFAULT_255_1_234
10
4.5829996
20
76.0779
11
4.1500889
21
77.2473211
0
LINE
8
DEFAULT_255_1_234
10
4.1500889
20
77.2473211
11
4.3179522
21
77.2473211
0
LINE
8
DEFAULT_255_1_234
10
6.0263029
20
77.2473211
11
6.0263029
21
77.163791
0
LINE
8
DEFAULT_255_1_234
10
6.0263029
20
77.163791
11
5.5419891
21
76.0779
0
LINE
8
DEFAULT_255_1_234
10
5.5419891
20
76.0779
11
5.3861734
21
76.0779
0
LINE
8
DEFAULT_255_1_234
10
5.3861734
20
76.0779
11
5.8688809
21
77.1252387
0
LINE
8
DEFAULT_255_1_234
10
5.8688809
20
77.1252387
11
5.2359799
21
77.1252387
0
LINE
8
DEFAULT_255_1_234
10
5.2359799
20
77.1252387
11
5.2359799
21
77.2473211
0
LINE
8
DEFAULT_255_1_234
10
5.2359799
20
77.2473211
11
6.0263029
21
77.2473211
0
LINE
8
DEFAULT_255_1_234
10
6.6359119
20
77.0465276
11
6.6359119
21
76.7051788
0
LINE
8
DEFAULT_255_1_234
10
6.6359119
20
76.7051788
11
6.9620004
21
76.7051788
0
LINE
8
DEFAULT_255_1_234
10
6.9620004
20
76.7051788
11
6.9620004
21
76.5646233
0
LINE
8
DEFAULT_255_1_234
10
6.9620004
20
76.5646233
11
6.6359119
21
76.5646233
0
LINE
8
DEFAULT_255_1_234
10
6.6359119
20
76.5646233
11
6.6359119
21
76.1951634
0
LINE
8
DEFAULT_255_1_234
10
6.6359119
20
76.1951634
11
6.4865215
21
76.1951634
0
LINE
8
DEFAULT_255_1_234
10
6.4865215
20
76.1951634
11
6.4865215
21
76.5646233
0
LINE
8
DEFAULT_255_1_234
10
6.4865215
20
76.5646233
11
6.160433
21
76.5646233
0
LINE
8
DEFAULT_255_1_234
10
6.160433
20
76.5646233
11
6.160433
21
76.7051788
0
LINE
8
DEFAULT_255_1_234
10
6.160433
20
76.7051788
11
6.4865215
21
76.7051788
0
LINE
8
DEFAULT_255_1_234
10
6.4865215
20
76.7051788
11
6.4865215
21
77.0465276
0
LINE
8
DEFAULT_255_1_234
10
6.4865215
20
77.0465276
11
6.6359119
21
77.0465276
0
LINE
8
DEFAULT_255_1_234
10
4.3179522
20
85.1848211
11
4.6504662
21
84.2202093
0
LINE
8
DEFAULT_255_1_234
10
4.6504662
20
84.2202093
11
4.9845865
21
85.1848211
0
LINE
8
DEFAULT_255_1_234
10
4.9845865
20
85.1848211
11
5.153253
21
85.1848211
0
LINE
8
DEFAULT_255_1_234
10
5.153253
20
85.1848211
11
4.7195391
21
84.0154
0
LINE
8
DEFAULT_255_1_234
10
4.7195391
20
84.0154
11
4.5829996
21
84.0154
0
LINE
8
DEFAULT_255_1_234
10
4.5829996
20
84.0154
11
4.1500889
21
85.1848211
0
LINE
8
DEFAULT_255_1_234
10
4.1500889
20
85.1848211
11
4.3179522
21
85.1848211
0
LINE
8
DEFAULT_255_1_234
10
5.827919
20
85.1856243
11
5.8544237
21
85.1856243
0
LINE
8
DEFAULT_255_1_234
10
5.8544237
20
85.1856243
11
5.8544237
21
85.059526
0
LINE
8
DEFAULT_255_1_234
10
5.8544237
20
85.059526
11
5.8271158
21
85.059526
0
LINE
8
DEFAULT_255_1_234
10
5.2801544
20
84.4603583
11
5.2801544
21
84.5173836
0
LINE
8
DEFAULT_255_1_234
10
5.4295448
20
84.4981075
11
5.4295448
21
84.4434917
0
ARC
8
DEFAULT_255_1_234
10
5.8323506
20
84.5597455
40
0.4998079
50
90.6001036
51
104.514704
0
ARC
8
DEFAULT_255_1_234
10
5.7935022
20
84.7042131
40
0.3502176
50
104.2855254
51
133.862935
0
ARC
8
DEFAULT_255_1_234
10
5.8098779
20
84.693383
40
0.3693984
50
134.5302688
51
161.6210873
0
ARC
8
DEFAULT_255_1_234
10
5.9751968
20
84.6350895
40
0.5446739
50
161.2849839
51
174.2076652
0
ARC
8
DEFAULT_255_1_234
10
6.1158905
20
84.6156787
40
0.6866274
50
173.7810589
51
174.9254635
0
ARC
8
DEFAULT_255_1_234
10
5.6608737
20
84.4773839
40
0.3033419
50
95.8330959
51
138.9954921
0
ARC
8
DEFAULT_255_1_234
10
5.6832093
20
84.3495375
40
0.4328947
50
89.8753725
51
97.0544009
0
ARC
8
DEFAULT_255_1_234
10
5.6879559
20
84.4330748
40
0.3493769
50
71.6407809
51
90.6240094
0
ARC
8
DEFAULT_255_1_234
10
5.7030132
20
84.4885082
40
0.2920396
50
39.6367836
51
71.019018
0
ARC
8
DEFAULT_255_1_234
10
5.6393605
20
84.4334998
40
0.3761538
50
10.658731
51
39.9043955
0
ARC
8
DEFAULT_255_1_234
10
5.4845688
20
84.3998686
40
0.5345136
50
359.682601
51
11.132623
0
ARC
8
DEFAULT_255_1_234
10
5.4805819
20
84.392801
40
0.5385081
50
347.2486944
51
0.4369317
0
ARC
8
DEFAULT_255_1_234
10
5.6473296
20
84.3526807
40
0.3670249
50
318.1409698
51
347.6118597
0
ARC
8
DEFAULT_255_1_234
10
5.6798289
20
84.3259702
40
0.3250007
50
275.6342139
51
317.8248465
0
ARC
8
DEFAULT_255_1_234
10
5.65774
20
84.4559219
40
0.4565864
50
269.8874292
51
276.7917694
0
ARC
8
DEFAULT_255_1_234
10
5.6522471
20
84.3533743
40
0.3540676
50
246.9140195
51
270.7437342
0
ARC
8
DEFAULT_255_1_234
10
5.6528861
20
84.3391384
40
0.3412781
50
218.1665114
51
245.878116
0
ARC
8
DEFAULT_255_1_234
10
5.7408322
20
84.4127279
40
0.455911
50
191.4115814
51
218.6077802
0
ARC
8
DEFAULT_255_1_234
10
5.9346411
20
84.4561833
40
0.6545001
50
179.6345085
51
191.7836486
0
ARC
8
DEFAULT_255_1_234
10
6.4928748
20
84.5240697
40
1.2127388
50
171.4525249
51
180.3158839
0
ARC
8
DEFAULT_255_1_234
10
6.0533624
20
84.5924608
40
0.7679464
50
157.9802646
51
171.6246686
0
ARC
8
DEFAULT_255_1_234
10
5.8319645
20
84.6807421
40
0.5296008
50
141.4298019
51
157.854097
0
ARC
8
DEFAULT_255_1_234
10
5.7677965
20
84.7261381
40
0.4511509
50
102.8715806
51
140.8564722
0
ARC
8
DEFAULT_255_1_234
10
5.8325581
20
84.4821552
40
0.7034845
50
90.3778349
51
103.5869322
0
ARC
8
DEFAULT_255_1_234
10
5.6587357
20
84.421673
40
0.2370698
50
89.8751008
51
126.2071704
0
ARC
8
DEFAULT_255_1_234
10
5.6633147
20
84.4062303
40
0.2522934
50
124.9745049
51
144.895901
0
ARC
8
DEFAULT_255_1_234
10
5.6457337
20
84.420556
40
0.2296779
50
145.2974905
51
160.2660252
0
ARC
8
DEFAULT_255_1_234
10
5.9529876
20
84.4403071
40
0.5234525
50
179.6514266
51
190.2855912
0
ARC
8
DEFAULT_255_1_234
10
5.7836013
20
84.4083786
40
0.3510893
50
190.0945431
51
207.5098196
0
ARC
8
DEFAULT_255_1_234
10
5.7270283
20
84.3814623
40
0.288489
50
207.9583163
51
216.3251085
0
ARC
8
DEFAULT_255_1_234
10
5.6930391
20
84.3535105
40
0.2445587
50
215.7661442
51
232.5456785
0
ARC
8
DEFAULT_255_1_234
10
5.6547374
20
84.3048482
40
0.1826382
50
232.8005391
51
270.6605633
0
ARC
8
DEFAULT_255_1_234
10
5.6593075
20
84.3412612
40
0.2190529
50
269.35537
51
288.4744281
0
ARC
8
DEFAULT_255_1_234
10
5.6685972
20
84.3063118
40
0.1829749
50
289.1833337
51
322.9683818
0
ARC
8
DEFAULT_255_1_234
10
5.6074494
20
84.3545391
40
0.2608399
50
322.6007884
51
346.5182367
0
ARC
8
DEFAULT_255_1_234
10
5.491709
20
84.3840616
40
0.3802777
50
346.2582162
51
358.7741648
0
ARC
8
DEFAULT_255_1_234
10
5.3898759
20
84.3895965
40
0.4822176
50
358.3755224
51
0.0098023
0
ARC
8
DEFAULT_255_1_234
10
5.4654946
20
84.3923657
40
0.4066078
50
359.6214041
51
11.2839074
0
ARC
8
DEFAULT_255_1_234
10
5.5932093
20
84.4190066
40
0.2761514
50
11.0482309
51
31.8146458
0
ARC
8
DEFAULT_255_1_234
10
5.6241136
20
84.4357584
40
0.2410679
50
32.3035391
51
38.082671
0
ARC
8
DEFAULT_255_1_234
10
5.6661796
20
84.4738662
40
0.1844966
50
36.825067
51
85.7415724
0
ARC
8
DEFAULT_255_1_234
10
5.6594629
20
84.4238301
40
0.2349122
50
85.0140713
51
90.0513278
0
LINE
8
DEFAULT_255_1_234
10
6.6359119
20
84.9840276
11
6.6359119
21
84.6426788
0
LINE
8
DEFAULT_255_1_234
10
6.6359119
20
84.6426788
11
6.9620004
21
84.6426788
0
LINE
8
DEFAULT_255_1_234
10
6.9620004
20
84.6426788
11
6.9620004
21
84.5021233
0
LINE
8
DEFAULT_255_1_234
10
6.9620004
20
84.5021233
11
6.6359119
21
84.5021233
0
LINE
8
DEFAULT_255_1_234
10
6.6359119
20
84.5021233
11
6.6359119
21
84.1326634
0
LINE
8
DEFAULT_255_1_234
10
6.6359119
20
84.1326634
11
6.4865215
21
84.1326634
0
LINE
8
DEFAULT_255_1_234
10
6.4865215
20
84.1326634
11
6.4865215
21
84.5021233
0
LINE
8
DEFAULT_255_1_234
10
6.4865215
20
84.5021233
11
6.160433
21
84.5021233
0
LINE
8
DEFAULT_255_1_234
10
6.160433
20
84.5021233
11
6.160433
21
84.6426788
0
LINE
8
DEFAULT_255_1_234
10
6.160433
20
84.6426788
11
6.4865215
21
84.6426788
0
LINE
8
DEFAULT_255_1_234
10
6.4865215
20
84.6426788
11
6.4865215
21
84.9840276
0
LINE
8
DEFAULT_255_1_234
10
6.4865215
20
84.9840276
11
6.6359119
21
84.9840276
0
LINE
8
DEFAULT_255_1_234
10
4.3179522
20
93.1223211
11
4.6504662
21
92.1577093
0
LINE
8
DEFAULT_255_1_234
10
4.6504662
20
92.1577093
11
4.9845865
21
93.1223211
0
LINE
8
DEFAULT_255_1_234
10
4.9845865
20
93.1223211
11
5.153253
21
93.1223211
0
LINE
8
DEFAULT_255_1_234
10
5.153253
20
93.1223211
11
4.7195391
21
91.9529
0
LINE
8
DEFAULT_255_1_234
10
4.7195391
20
91.9529
11
4.5829996
21
91.9529
0
LINE
8
DEFAULT_255_1_234
10
4.5829996
20
91.9529
11
4.1500889
21
93.1223211
0
LINE
8
DEFAULT_255_1_234
10
4.1500889
20
93.1223211
11
4.3179522
21
93.1223211
0
LINE
8
DEFAULT_255_1_234
10
5.458459
20
92.5086963
11
5.3395893
21
92.5392169
0
LINE
8
DEFAULT_255_1_234
10
5.3395893
20
92.5392169
11
5.3990242
21
93.1223211
0
LINE
8
DEFAULT_255_1_234
10
5.3990242
20
93.1223211
11
5.9981918
21
93.1223211
0
LINE
8
DEFAULT_255_1_234
10
5.9981918
20
93.1223211
11
5.9981918
21
92.9849784
0
LINE
8
DEFAULT_255_1_234
10
5.9981918
20
92.9849784
11
5.5251225
21
92.9849784
0
LINE
8
DEFAULT_255_1_234
10
5.5251225
20
92.9849784
11
5.4897828
21
92.6661184
0
LINE
8
DEFAULT_255_1_234
10
5.2978243
20
92.2605156
11
5.4383797
21
92.2605156
0
LINE
8
DEFAULT_255_1_234
10
5.4978146
20
92.5408232
11
5.458459
21
92.5086963
0
ARC
8
DEFAULT_255_1_234
10
5.6752612
20
92.348123
40
0.3681349
50
93.7182161
51
120.2538958
0
ARC
8
DEFAULT_255_1_234
10
5.6846875
20
92.2673394
40
0.449379
50
89.9660152
51
94.2496022
0
ARC
8
DEFAULT_255_1_234
10
5.6887609
20
92.3262549
40
0.390482
50
73.8043271
51
90.5585896
0
ARC
8
DEFAULT_255_1_234
10
5.7122506
20
92.4120602
40
0.3015334
50
41.3071453
51
73.5430202
0
ARC
8
DEFAULT_255_1_234
10
5.6706333
20
92.3762324
40
0.3564457
50
13.5075983
51
41.2174222
0
ARC
8
DEFAULT_255_1_234
10
5.5064537
20
92.3332486
40
0.5261351
50
1.1331335
51
13.8829381
0
ARC
8
DEFAULT_255_1_234
10
5.3652906
20
92.3256665
40
0.6674378
50
359.9919444
51
1.544251
0
ARC
8
DEFAULT_255_1_234
10
5.4929732
20
92.321528
40
0.5397702
50
347.8572367
51
0.4293338
0
ARC
8
DEFAULT_255_1_234
10
5.668005
20
92.2818736
40
0.3603188
50
323.673004
51
348.1672506
0
ARC
8
DEFAULT_255_1_234
10
5.6974558
20
92.2639168
40
0.3259678
50
316.8171152
51
323.1492751
0
ARC
8
DEFAULT_255_1_234
10
5.7035747
20
92.260246
40
0.3189975
50
281.8396411
51
316.5457803
0
ARC
8
DEFAULT_255_1_234
10
5.6660011
20
92.4157762
40
0.4789527
50
269.5770101
51
282.4214771
0
ARC
8
DEFAULT_255_1_234
10
5.6588822
20
92.3944125
40
0.45759
50
256.2427136
51
270.4486331
0
ARC
8
DEFAULT_255_1_234
10
5.6289724
20
92.2744229
40
0.3339303
50
228.9023911
51
256.3314342
0
ARC
8
DEFAULT_255_1_234
10
5.6215957
20
92.2627746
40
0.32031
50
193.753695
51
228.5271154
0
ARC
8
DEFAULT_255_1_234
10
5.7453911
20
92.29908
40
0.4492253
50
184.924711
51
194.497588
0
ARC
8
DEFAULT_255_1_234
10
5.7646478
20
92.3026591
40
0.3289787
50
187.3600538
51
198.6732863
0
ARC
8
DEFAULT_255_1_234
10
5.6596772
20
92.2662674
40
0.217884
50
198.4451669
51
217.794479
0
ARC
8
DEFAULT_255_1_234
10
5.6300947
20
92.2453085
40
0.1816698
50
218.2887171
51
228.5612368
0
ARC
8
DEFAULT_255_1_234
10
5.6398734
20
92.2584963
40
0.1980329
50
228.9654866
51
258.1234728
0
ARC
8
DEFAULT_255_1_234
10
5.6604444
20
92.3465833
40
0.2884748
50
257.7258293
51
270.401361
0
ARC
8
DEFAULT_255_1_234
10
5.664933
20
92.3020821
40
0.2439788
50
269.4204404
51
286.4209037
0
ARC
8
DEFAULT_255_1_234
10
5.6797818
20
92.2481657
40
0.1880666
50
286.7251356
51
320.600362
0
ARC
8
DEFAULT_255_1_234
10
5.6414643
20
92.2792595
40
0.2374121
50
320.6712579
51
344.5441685
0
ARC
8
DEFAULT_255_1_234
10
5.5257969
20
92.3132045
40
0.3579479
50
344.2412205
51
356.7357071
0
ARC
8
DEFAULT_255_1_234
10
5.4009118
20
92.3235444
40
0.4832297
50
356.3548756
51
0.0500261
0
ARC
8
DEFAULT_255_1_234
10
5.5345627
20
92.326665
40
0.3495889
50
359.5576869
51
12.953486
0
ARC
8
DEFAULT_255_1_234
10
5.6400524
20
92.3522434
40
0.2410532
50
12.6490276
51
41.6081334
0
ARC
8
DEFAULT_255_1_234
10
5.6630895
20
92.3718321
40
0.2108218
50
41.7850273
51
85.9892764
0
ARC
8
DEFAULT_255_1_234
10
5.6507632
20
92.2905462
40
0.2928454
50
84.6957577
51
90.0676183
0
ARC
8
DEFAULT_255_1_234
10
5.6484116
20
92.2236716
40
0.3597255
50
89.6804936
51
99.1614436
0
ARC
8
DEFAULT_255_1_234
10
5.6278747
20
92.3464131
40
0.235281
50
98.9830931
51
113.8908934
0
ARC
8
DEFAULT_255_1_234
10
5.6049157
20
92.4005587
40
0.176479
50
114.1950727
51
127.3641004
0
LINE
8
DEFAULT_255_1_234
10
6.6359119
20
92.9215276
11
6.6359119
21
92.5801788
0
LINE
8
DEFAULT_255_1_234
10
6.6359119
20
92.5801788
11
6.9620004
21
92.5801788
0
LINE
8
DEFAULT_255_1_234
10
6.9620004
20
92.5801788
11
6.9620004
21
92.4396233
0
LINE
8
DEFAULT_255_1_234
10
6.9620004
20
92.4396233
11
6.6359119
21
92.4396233
0
LINE
8
DEFAULT_255_1_234
10
6.6359119
20
92.4396233
11
6.6359119
21
92.0701634
0
LINE
8
DEFAULT_255_1_234
10
6.6359119
20
92.0701634
11
6.4865215
21
92.0701634
0
LINE
8
DEFAULT_255_1_234
10
6.4865215
20
92.0701634
11
6.4865215
21
92.4396233
0
LINE
8
DEFAULT_255_1_234
10
6.4865215
20
92.4396233
11
6.160433
21
92.4396233
0
LINE
8
DEFAULT_255_1_234
10
6.160433
20
92.4396233
11
6.160433
21
92.5801788
0
LINE
8
DEFAULT_255_1_234
10
6.160433
20
92.5801788
11
6.4865215
21
92.5801788
0
LINE
8
DEFAULT_255_1_234
10
6.4865215
20
92.5801788
11
6.4865215
21
92.9215276
0
LINE
8
DEFAULT_255_1_234
10
6.4865215
20
92.9215276
11
6.6359119
21
92.9215276
0
LINE
8
DEFAULT_255_1_234
10
4.3179522
20
101.0598211
11
4.6504662
21
100.0952093
0
LINE
8
DEFAULT_255_1_234
10
4.6504662
20
100.0952093
11
4.9845865
21
101.0598211
0
LINE
8
DEFAULT_255_1_234
10
4.9845865
20
101.0598211
11
5.153253
21
101.0598211
0
LINE
8
DEFAULT_255_1_234
10
5.153253
20
101.0598211
11
4.7195391
21
99.8904
0
LINE
8
DEFAULT_255_1_234
10
4.7195391
20
99.8904
11
4.5829996
21
99.8904
0
LINE
8
DEFAULT_255_1_234
10
4.5829996
20
99.8904
11
4.1500889
21
101.0598211
0
LINE
8
DEFAULT_255_1_234
10
4.1500889
20
101.0598211
11
4.3179522
21
101.0598211
0
LINE
8
DEFAULT_255_1_234
10
5.8985983
20
101.0598211
11
5.8985983
21
100.283152
0
LINE
8
DEFAULT_255_1_234
10
5.8985983
20
100.283152
11
6.0608394
21
100.283152
0
LINE
8
DEFAULT_255_1_234
10
6.0608394
20
100.283152
11
6.0608394
21
100.1618728
0
LINE
8
DEFAULT_255_1_234
10
6.0608394
20
100.1618728
11
5.8985983
21
100.1618728
0
LINE
8
DEFAULT_255_1_234
10
5.8985983
20
100.1618728
11
5.8985983
21
99.8904
0
LINE
8
DEFAULT_255_1_234
10
5.8985983
20
99.8904
11
5.749208
21
99.8904
0
LINE
8
DEFAULT_255_1_234
10
5.749208
20
99.8904
11
5.749208
21
100.1618728
0
LINE
8
DEFAULT_255_1_234
10
5.749208
20
100.1618728
11
5.2167037
21
100.1618728
0
LINE
8
DEFAULT_255_1_234
10
5.2167037
20
100.1618728
11
5.2167037
21
100.2494187
0
LINE
8
DEFAULT_255_1_234
10
5.2167037
20
100.2494187
11
5.740373
21
101.0598211
0
LINE
8
DEFAULT_255_1_234
10
5.740373
20
101.0598211
11
5.8985983
21
101.0598211
0
LINE
8
DEFAULT_255_1_234
10
5.7315381
20
100.8244912
11
5.3853702
21
100.283152
0
LINE
8
DEFAULT_255_1_234
10
5.3853702
20
100.283152
11
5.749208
21
100.283152
0
LINE
8
DEFAULT_255_1_234
10
5.749208
20
100.283152
11
5.749208
21
100.8566181
0
LINE
8
DEFAULT_255_1_234
10
5.749208
20
100.8566181
11
5.7315381
21
100.8244912
0
LINE
8
DEFAULT_255_1_234
10
6.6359119
20
100.8590276
11
6.6359119
21
100.5176788
0
LINE
8
DEFAULT_255_1_234
10
6.6359119
20
100.5176788
11
6.9620004
21
100.5176788
0
LINE
8
DEFAULT_255_1_234
10
6.9620004
20
100.5176788
11
6.9620004
21
100.3771233
0
LINE
8
DEFAULT_255_1_234
10
6.9620004
20
100.3771233
11
6.6359119
21
100.3771233
0
LINE
8
DEFAULT_255_1_234
10
6.6359119
20
100.3771233
11
6.6359119
21
100.0076634
0
LINE
8
DEFAULT_255_1_234
10
6.6359119
20
100.0076634
11
6.4865215
21
100.0076634
0
LINE
8
DEFAULT_255_1_234
10
6.4865215
20
100.0076634
11
6.4865215
21
100.3771233
0
LINE
8
DEFAULT_255_1_234
10
6.4865215
20
100.3771233
11
6.160433
21
100.3771233
0
LINE
8
DEFAULT_255_1_234
10
6.160433
20
100.3771233
11
6.160433
21
100.5176788
0
LINE
8
DEFAULT_255_1_234
10
6.160433
20
100.5176788
11
6.4865215
21
100.5176788
0
LINE
8
DEFAULT_255_1_234
10
6.4865215
20
100.5176788
11
6.4865215
21
100.8590276
0
LINE
8
DEFAULT_255_1_234
10
6.4865215
20
100.8590276
11
6.6359119
21
100.8590276
0
LINE
8
DEFAULT_255_1_234
10
4.3179522
20
108.9973211
11
4.6504662
21
108.0327093
0
LINE
8
DEFAULT_255_1_234
10
4.6504662
20
108.0327093
11
4.9845865
21
108.9973211
0
LINE
8
DEFAULT_255_1_234
10
4.9845865
20
108.9973211
11
5.153253
21
108.9973211
0
LINE
8
DEFAULT_255_1_234
10
5.153253
20
108.9973211
11
4.7195391
21
107.8279
0
LINE
8
DEFAULT_255_1_234
10
4.7195391
20
107.8279
11
4.5829996
21
107.8279
0
LINE
8
DEFAULT_255_1_234
10
4.5829996
20
107.8279
11
4.1500889
21
108.9973211
0
LINE
8
DEFAULT_255_1_234
10
4.1500889
20
108.9973211
11
4.3179522
21
108.9973211
0
LINE
8
DEFAULT_255_1_234
10
5.4873733
20
108.3636169
11
5.4873733
21
108.4848962
0
LINE
8
DEFAULT_255_1_234
10
5.4873733
20
108.4848962
11
5.5990145
21
108.4848962
0
LINE
8
DEFAULT_255_1_234
10
5.4086623
20
108.6905087
11
5.2600751
21
108.6905087
0
LINE
8
DEFAULT_255_1_234
10
5.2496338
20
108.1363188
11
5.3990242
21
108.1363188
0
LINE
8
DEFAULT_255_1_234
10
5.5990145
20
108.3636169
11
5.4873733
21
108.3636169
0
ARC
8
DEFAULT_255_1_234
10
5.5961011
20
108.8241713
40
0.3392876
50
270.4919872
51
281.8951556
0
ARC
8
DEFAULT_255_1_234
10
5.6202273
20
108.7139702
40
0.2264817
50
281.6691735
51
301.2943132
0
ARC
8
DEFAULT_255_1_234
10
5.6372483
20
108.6828304
40
0.1910381
50
301.7833094
51
311.7545298
0
ARC
8
DEFAULT_255_1_234
10
5.6464059
20
108.6726748
40
0.1773635
50
311.7323931
51
354.2802411
0
ARC
8
DEFAULT_255_1_234
10
5.5737684
20
108.6851722
40
0.2509385
50
353.0937916
51
0.1181479
0
ARC
8
DEFAULT_255_1_234
10
5.5276469
20
108.6899386
40
0.2970898
50
359.1805295
51
15.0453146
0
ARC
8
DEFAULT_255_1_234
10
5.6622306
20
108.7291992
40
0.1569564
50
13.9577229
51
77.6713066
0
ARC
8
DEFAULT_255_1_234
10
5.6235835
20
108.5906949
40
0.3006298
50
76.1116566
51
90.7026153
0
ARC
8
DEFAULT_255_1_234
10
5.6176673
20
108.6180545
40
0.2732568
50
89.5324876
51
103.531937
0
ARC
8
DEFAULT_255_1_234
10
5.5976117
20
108.6979884
40
0.1908508
50
103.2931773
51
133.5619022
0
ARC
8
DEFAULT_255_1_234
10
5.5931606
20
108.7039375
40
0.1834746
50
133.8349307
51
173.5344437
0
ARC
8
DEFAULT_255_1_234
10
5.6654649
20
108.6911213
40
0.2568033
50
172.5096846
51
180.1366907
0
ARC
8
DEFAULT_255_1_234
10
5.5703543
20
108.6945622
40
0.3103056
50
155.3484492
51
180.7484736
0
ARC
8
DEFAULT_255_1_234
10
5.5654632
20
108.6916846
40
0.3070957
50
131.5744599
51
154.4798489
0
ARC
8
DEFAULT_255_1_234
10
5.5967779
20
108.660031
40
0.3515643
50
96.9875458
51
131.9690667
0
ARC
8
DEFAULT_255_1_234
10
5.6187259
20
108.5354636
40
0.4779224
50
89.8596053
51
97.7825159
0
ARC
8
DEFAULT_255_1_234
10
5.6235322
20
108.5092616
40
0.5041361
50
78.3655447
51
90.4131539
0
ARC
8
DEFAULT_255_1_234
10
5.659324
20
108.6751887
40
0.3344039
50
56.6229102
51
78.638727
0
ARC
8
DEFAULT_255_1_234
10
5.6808184
20
108.7127805
40
0.2912001
50
47.0253525
51
56.0854072
0
ARC
8
DEFAULT_255_1_234
10
5.6827964
20
108.7167223
40
0.2869704
50
10.9208013
51
46.7778124
0
ARC
8
DEFAULT_255_1_234
10
5.546403
20
108.6851857
40
0.426899
50
359.6364486
51
11.6087304
0
ARC
8
DEFAULT_255_1_234
10
5.7298874
20
108.6836752
40
0.243409
50
332.3549906
51
359.7179418
0
ARC
8
DEFAULT_255_1_234
10
5.6648476
20
108.7145142
40
0.3153459
50
325.2333722
51
332.8745602
0
ARC
8
DEFAULT_255_1_234
10
5.6801099
20
108.7038828
40
0.2967456
50
292.9802137
51
325.2392345
0
ARC
8
DEFAULT_255_1_234
10
5.6526473
20
108.7572863
40
0.3566604
50
292.5402179
51
293.6924929
0
ARC
8
DEFAULT_255_1_234
10
5.6919069
20
108.1118091
40
0.3307468
50
57.6435486
51
72.8625112
0
ARC
8
DEFAULT_255_1_234
10
5.7273569
20
108.1692549
40
0.2632492
50
36.7248896
51
57.4697979
0
ARC
8
DEFAULT_255_1_234
10
5.7262202
20
108.170522
40
0.2634081
50
8.0545065
51
36.356114
0
ARC
8
DEFAULT_255_1_234
10
5.6399387
20
108.1550174
40
0.3510261
50
359.8320645
51
8.5869982
0
ARC
8
DEFAULT_255_1_234
10
5.6024163
20
108.1502101
40
0.3885653
50
343.9829931
51
0.5571613
0
ARC
8
DEFAULT_255_1_234
10
5.691036
20
108.1259438
40
0.2966924
50
311.6359546
51
343.7651759
0
ARC
8
DEFAULT_255_1_234
10
5.6531929
20
108.1686102
40
0.3537231
50
279.7829875
51
311.6255694
0
ARC
8
DEFAULT_255_1_234
10
5.6230705
20
108.312328
40
0.5004971
50
269.7286406
51
280.3856417
0
ARC
8
DEFAULT_255_1_234
10
5.6168778
20
108.3081996
40
0.4963778
50
256.6828919
51
270.4412052
0
ARC
8
DEFAULT_255_1_234
10
5.5830074
20
108.1697394
40
0.3538406
50
229.4223008
51
256.8556159
0
ARC
8
DEFAULT_255_1_234
10
5.5415467
20
108.1230736
40
0.2914296
50
181.818294
51
229.6455059
0
ARC
8
DEFAULT_255_1_234
10
5.6455423
20
108.1361496
40
0.3959084
50
179.9755256
51
183.2323064
0
ARC
8
DEFAULT_255_1_234
10
5.6283169
20
108.1341037
40
0.2293034
50
179.4465117
51
196.2869258
0
ARC
8
DEFAULT_255_1_234
10
5.5795577
20
108.1207651
40
0.1787621
50
196.5661473
51
227.705904
0
ARC
8
DEFAULT_255_1_234
10
5.5959672
20
108.1391155
40
0.2033784
50
227.7652068
51
257.8762805
0
ARC
8
DEFAULT_255_1_234
10
5.6184642
20
108.2334156
40
0.3003081
50
257.4584385
51
270.426602
0
ARC
8
DEFAULT_255_1_234
10
5.6230208
20
108.2623996
40
0.329292
50
269.5962073
51
280.8789248
0
ARC
8
DEFAULT_255_1_234
10
5.6459737
20
108.1477685
40
0.2123908
50
280.6346389
51
299.8595945
0
ARC
8
DEFAULT_255_1_234
10
5.6650644
20
108.1115212
40
0.171457
50
300.3576302
51
314.5517981
0
ARC
8
DEFAULT_255_1_234
10
5.6567704
20
108.1175919
40
0.1816095
50
315.0728369
51
345.0431014
0
ARC
8
DEFAULT_255_1_234
10
5.5644518
20
108.1444841
40
0.2777492
50
344.5986631
51
357.9269593
0
ARC
8
DEFAULT_255_1_234
10
5.4748844
20
108.1506276
40
0.3674917
50
357.4748886
51
0.0231117
0
ARC
8
DEFAULT_255_1_234
10
5.5771954
20
108.1530679
40
0.2651907
50
359.5047933
51
13.4239635
0
ARC
8
DEFAULT_255_1_234
10
5.6638597
20
108.1752478
40
0.1757509
50
12.9498199
51
48.7551375
0
ARC
8
DEFAULT_255_1_234
10
5.6456331
20
108.15034
40
0.2065134
50
49.5088623
51
72.1836453
0
ARC
8
DEFAULT_255_1_234
10
5.6098484
20
108.0441291
40
0.3185836
50
71.9010081
51
84.3554254
0
ARC
8
DEFAULT_255_1_234
10
5.5937116
20
107.9080326
40
0.4556151
50
84.0193428
51
89.333121
0
LINE
8
DEFAULT_255_1_234
10
6.6359119
20
108.7965276
11
6.6359119
21
108.4551788
0
LINE
8
DEFAULT_255_1_234
10
6.6359119
20
108.4551788
11
6.9620004
21
108.4551788
0
LINE
8
DEFAULT_255_1_234
10
6.9620004
20
108.4551788
11
6.9620004
21
108.3146233
0
LINE
8
DEFAULT_255_1_234
10
6.9620004
20
108.3146233
11
6.6359119
21
108.3146233
0
LINE
8
DEFAULT_255_1_234
10
6.6359119
20
108.3146233
11
6.6359119
21
107.9451634
0
LINE
8
DEFAULT_255_1_234
10
6.6359119
20
107.9451634
11
6.4865215
21
107.9451634
0
LINE
8
DEFAULT_255_1_234
10
6.4865215
20
107.9451634
11
6.4865215
21
108.3146233
0
LINE
8
DEFAULT_255_1_234
10
6.4865215
20
108.3146233
11
6.160433
21
108.3146233
0
LINE
8
DEFAULT_255_1_234
10
6.160433
20
108.3146233
11
6.160433
21
108.4551788
0
LINE
8
DEFAULT_255_1_234
10
6.160433
20
108.4551788
11
6.4865215
21
108.4551788
0
LINE
8
DEFAULT_255_1_234
10
6.4865215
20
108.4551788
11
6.4865215
21
108.7965276
0
LINE
8
DEFAULT_255_1_234
10
6.4865215
20
108.7965276
11
6.6359119
21
108.7965276
0
LINE
8
DEFAULT_255_1_234
10
4.3179522
20
116.9348211
11
4.6504662
21
115.9702093
0
LINE
8
DEFAULT_255_1_234
10
4.6504662
20
115.9702093
11
4.9845865
21
116.9348211
0
LINE
8
DEFAULT_255_1_234
10
4.9845865
20
116.9348211
11
5.153253
21
116.9348211
0
LINE
8
DEFAULT_255_1_234
10
5.153253
20
116.9348211
11
4.7195391
21
115.7654
0
LINE
8
DEFAULT_255_1_234
10
4.7195391
20
115.7654
11
4.5829996
21
115.7654
0
LINE
8
DEFAULT_255_1_234
10
4.5829996
20
115.7654
11
4.1500889
21
116.9348211
0
LINE
8
DEFAULT_255_1_234
10
4.1500889
20
116.9348211
11
4.3179522
21
116.9348211
0
LINE
8
DEFAULT_255_1_234
10
6.0375474
20
115.8866792
11
6.0375474
21
115.7654
0
LINE
8
DEFAULT_255_1_234
10
6.0375474
20
115.7654
11
5.2713195
21
115.7654
0
LINE
8
DEFAULT_255_1_234
10
5.2713195
20
115.7654
11
5.2713195
21
115.8722221
0
LINE
8
DEFAULT_255_1_234
10
5.2713195
20
115.8722221
11
5.6761191
21
116.3219995
0
LINE
8
DEFAULT_255_1_234
10
5.3974178
20
116.5902595
11
5.2488307
21
116.5902595
0
LINE
8
DEFAULT_255_1_234
10
5.7636651
20
116.2264218
11
5.4504273
21
115.8866792
0
LINE
8
DEFAULT_255_1_234
10
5.4504273
20
115.8866792
11
6.0375474
21
115.8866792
0
ARC
8
DEFAULT_255_1_234
10
4.3271025
20
117.5149527
40
1.8008286
50
318.5132453
51
320.7828378
0
ARC
8
DEFAULT_255_1_234
10
4.8557999
20
117.0846426
40
1.1191493
50
320.7372736
51
323.9737074
0
ARC
8
DEFAULT_255_1_234
10
5.2477855
20
116.8006361
40
0.6350923
50
323.8961724
51
328.6421089
0
ARC
8
DEFAULT_255_1_234
10
5.4524451
20
116.6744031
40
0.3946393
50
328.8299013
51
331.789948
0
ARC
8
DEFAULT_255_1_234
10
5.5521629
20
116.6229509
40
0.2824501
50
331.4255242
51
352.9364833
0
ARC
8
DEFAULT_255_1_234
10
5.565813
20
116.6198976
40
0.2685315
50
353.2248685
51
0.0169286
0
ARC
8
DEFAULT_255_1_234
10
5.5868007
20
116.622195
40
0.2475536
50
359.4866256
51
15.9339782
0
ARC
8
DEFAULT_255_1_234
10
5.6374992
20
116.6358286
40
0.1950618
50
16.1714718
51
43.5284424
0
ARC
8
DEFAULT_255_1_234
10
5.6452301
20
116.6435573
40
0.184134
50
43.4415429
51
83.1661404
0
ARC
8
DEFAULT_255_1_234
10
5.6318219
20
116.5698771
40
0.258926
50
82.160215
51
90.1505798
0
ARC
8
DEFAULT_255_1_234
10
5.6286646
20
116.5161865
40
0.3126255
50
89.5460705
51
102.5418777
0
ARC
8
DEFAULT_255_1_234
10
5.6043732
20
116.6192665
40
0.2067346
50
102.1739365
51
129.2061916
0
ARC
8
DEFAULT_255_1_234
10
5.5964804
20
116.6317094
40
0.1921118
50
129.7279328
51
135.7542026
0
ARC
8
DEFAULT_255_1_234
10
5.6086332
20
116.6220045
40
0.2075944
50
136.175737
51
166.3674722
0
ARC
8
DEFAULT_255_1_234
10
5.7093251
20
116.5950182
40
0.3118201
50
165.9092917
51
178.8683903
0
ARC
8
DEFAULT_255_1_234
10
5.7958112
20
116.5903179
40
0.3983935
50
178.438168
51
180.0083905
0
ARC
8
DEFAULT_255_1_234
10
5.6556714
20
116.5942231
40
0.4068601
50
163.2878735
51
180.5581814
0
ARC
8
DEFAULT_255_1_234
10
5.5754976
20
116.616284
40
0.3237344
50
133.454115
51
162.9470031
0
ARC
8
DEFAULT_255_1_234
10
5.5933517
20
116.5973
40
0.349795
50
100.7869394
51
133.4384016
0
ARC
8
DEFAULT_255_1_234
10
5.6281289
20
116.4424319
40
0.5084616
50
89.6605301
51
101.3704185
0
ARC
8
DEFAULT_255_1_234
10
5.6347627
20
116.4485496
40
0.502348
50
78.2171172
51
90.4130393
0
ARC
8
DEFAULT_255_1_234
10
5.6702706
20
116.6109637
40
0.3361092
50
55.9268222
51
78.4888551
0
ARC
8
DEFAULT_255_1_234
10
5.6899146
20
116.6448324
40
0.2970617
50
47.9292255
51
55.4054003
0
ARC
8
DEFAULT_255_1_234
10
5.7000707
20
116.6551502
40
0.2825983
50
4.3347696
51
48.0560701
0
ARC
8
DEFAULT_255_1_234
10
5.59051
20
116.6381601
40
0.393225
50
359.925209
51
5.5967654
0
ARC
8
DEFAULT_255_1_234
10
5.6333992
20
116.6437816
40
0.3503892
50
337.8914096
51
358.9967724
0
ARC
8
DEFAULT_255_1_234
10
5.3620404
20
116.7484706
40
0.6412172
50
326.9135351
51
338.3505194
0
ARC
8
DEFAULT_255_1_234
10
4.9634708
20
117.0039284
40
1.1146189
50
319.6472867
51
327.095818
0
ARC
8
DEFAULT_255_1_234
10
4.5801711
20
117.3201
40
1.6114559
50
317.2586784
51
319.9046139
0
LINE
8
DEFAULT_255_1_234
10
6.6359119
20
116.7340276
11
6.6359119
21
116.3926788
0
LINE
8
DEFAULT_255_1_234
10
6.6359119
20
116.3926788
11
6.9620004
21
116.3926788
0
LINE
8
DEFAULT_255_1_234
10
6.9620004
20
116.3926788
11
6.9620004
21
116.2521233
0
LINE
8
DEFAULT_255_1_234
10
6.9620004
20
116.2521233
11
6.6359119
21
116.2521233
0
LINE
8
DEFAULT_255_1_234
10
6.6359119
20
116.2521233
11
6.6359119
21
115.8826634
0
LINE
8
DEFAULT_255_1_234
10
6.6359119
20
115.8826634
11
6.4865215
21
115.8826634
0
LINE
8
DEFAULT_255_1_234
10
6.4865215
20
115.8826634
11
6.4865215
21
116.2521233
0
LINE
8
DEFAULT_255_1_234
10
6.4865215
20
116.2521233
11
6.160433
21
116.2521233
0
LINE
8
DEFAULT_255_1_234
10
6.160433
20
116.2521233
11
6.160433
21
116.3926788
0
LINE
8
DEFAULT_255_1_234
10
6.160433
20
116.3926788
11
6.4865215
21
116.3926788
0
LINE
8
DEFAULT_255_1_234
10
6.4865215
20
116.3926788
11
6.4865215
21
116.7340276
0
LINE
8
DEFAULT_255_1_234
10
6.4865215
20
116.7340276
11
6.6359119
21
116.7340276
0
LINE
8
DEFAULT_255_1_234
10
4.3179522
20
124.8723211
11
4.6504662
21
123.9077093
0
LINE
8
DEFAULT_255_1_234
10
4.6504662
20
123.9077093
11
4.9845865
21
124.8723211
0
LINE
8
DEFAULT_255_1_234
10
4.9845865
20
124.8723211
11
5.153253
21
124.8723211
0
LINE
8
DEFAULT_255_1_234
10
5.153253
20
124.8723211
11
4.7195391
21
123.7029
0
LINE
8
DEFAULT_255_1_234
10
4.7195391
20
123.7029
11
4.5829996
21
123.7029
0
LINE
8
DEFAULT_255_1_234
10
4.5829996
20
123.7029
11
4.1500889
21
124.8723211
0
LINE
8
DEFAULT_255_1_234
10
4.1500889
20
124.8723211
11
4.3179522
21
124.8723211
0
LINE
8
DEFAULT_255_1_234
10
5.7596492
20
124.8779433
11
5.7596492
21
123.7029
0
LINE
8
DEFAULT_255_1_234
10
5.7596492
20
123.7029
11
5.6102589
21
123.7029
0
LINE
8
DEFAULT_255_1_234
10
5.6102589
20
123.7029
11
5.6102589
21
124.6932133
0
LINE
8
DEFAULT_255_1_234
10
5.6102589
20
124.6932133
11
5.310675
21
124.5831785
0
LINE
8
DEFAULT_255_1_234
10
5.310675
20
124.5831785
11
5.310675
21
124.7181117
0
LINE
8
DEFAULT_255_1_234
10
5.310675
20
124.7181117
11
5.7363572
21
124.8779433
0
LINE
8
DEFAULT_255_1_234
10
5.7363572
20
124.8779433
11
5.7596492
21
124.8779433
0
LINE
8
DEFAULT_255_1_234
10
6.6359119
20
124.6715276
11
6.6359119
21
124.3301788
0
LINE
8
DEFAULT_255_1_234
10
6.6359119
20
124.3301788
11
6.9620004
21
124.3301788
0
LINE
8
DEFAULT_255_1_234
10
6.9620004
20
124.3301788
11
6.9620004
21
124.1896233
0
LINE
8
DEFAULT_255_1_234
10
6.9620004
20
124.1896233
11
6.6359119
21
124.1896233
0
LINE
8
DEFAULT_255_1_234
10
6.6359119
20
124.1896233
11
6.6359119
21
123.8201634
0
LINE
8
DEFAULT_255_1_234
10
6.6359119
20
123.8201634
11
6.4865215
21
123.8201634
0
LINE
8
DEFAULT_255_1_234
10
6.4865215
20
123.8201634
11
6.4865215
21
124.1896233
0
LINE
8
DEFAULT_255_1_234
10
6.4865215
20
124.1896233
11
6.160433
21
124.1896233
0
LINE
8
DEFAULT_255_1_234
10
6.160433
20
124.1896233
11
6.160433
21
124.3301788
0
LINE
8
DEFAULT_255_1_234
10
6.160433
20
124.3301788
11
6.4865215
21
124.3301788
0
LINE
8
DEFAULT_255_1_234
10
6.4865215
20
124.3301788
11
6.4865215
21
124.6715276
0
LINE
8
DEFAULT_255_1_234
10
6.4865215
20
124.6715276
11
6.6359119
21
124.6715276
0
LINE
8
DEFAULT_255_1_234
10
4.2610522
20
132.8098211
11
4.5935662
21
131.8452093
0
LINE
8
DEFAULT_255_1_234
10
4.5935662
20
131.8452093
11
4.9276865
21
132.8098211
0
LINE
8
DEFAULT_255_1_234
10
4.9276865
20
132.8098211
11
5.096353
21
132.8098211
0
LINE
8
DEFAULT_255_1_234
10
5.096353
20
132.8098211
11
4.6626391
21
131.6404
0
LINE
8
DEFAULT_255_1_234
10
4.6626391
20
131.6404
11
4.5260996
21
131.6404
0
LINE
8
DEFAULT_255_1_234
10
4.5260996
20
131.6404
11
4.0931889
21
132.8098211
0
LINE
8
DEFAULT_255_1_234
10
4.0931889
20
132.8098211
11
4.2610522
21
132.8098211
0
LINE
8
DEFAULT_255_1_234
10
5.655362
20
132.6090276
11
5.655362
21
132.2676788
0
LINE
8
DEFAULT_255_1_234
10
5.655362
20
132.2676788
11
5.9814505
21
132.2676788
0
LINE
8
DEFAULT_255_1_234
10
5.9814505
20
132.2676788
11
5.9814505
21
132.1271233
0
LINE
8
DEFAULT_255_1_234
10
5.9814505
20
132.1271233
11
5.655362
21
132.1271233
0
LINE
8
DEFAULT_255_1_234
10
5.655362
20
132.1271233
11
5.655362
21
131.7576634
0
LINE
8
DEFAULT_255_1_234
10
5.655362
20
131.7576634
11
5.5059716
21
131.7576634
0
LINE
8
DEFAULT_255_1_234
10
5.5059716
20
131.7576634
11
5.5059716
21
132.1271233
0
LINE
8
DEFAULT_255_1_234
10
5.5059716
20
132.1271233
11
5.1798831
21
132.1271233
0
LINE
8
DEFAULT_255_1_234
10
5.1798831
20
132.1271233
11
5.1798831
21
132.2676788
0
LINE
8
DEFAULT_255_1_234
10
5.1798831
20
132.2676788
11
5.5059716
21
132.2676788
0
LINE
8
DEFAULT_255_1_234
10
5.5059716
20
132.2676788
11
5.5059716
21
132.6090276
0
LINE
8
DEFAULT_255_1_234
10
5.5059716
20
132.6090276
11
5.655362
21
132.6090276
0
LINE
8
DEFAULT_255_1_234
10
22.9342522
20
140.7473211
11
23.2667662
21
139.7827093
0
LINE
8
DEFAULT_255_1_234
10
23.2667662
20
139.7827093
11
23.6008865
21
140.7473211
0
LINE
8
DEFAULT_255_1_234
10
23.6008865
20
140.7473211
11
23.769553
21
140.7473211
0
LINE
8
DEFAULT_255_1_234
10
23.769553
20
140.7473211
11
23.3358391
21
139.5779
0
LINE
8
DEFAULT_255_1_234
10
23.3358391
20
139.5779
11
23.1992996
21
139.5779
0
LINE
8
DEFAULT_255_1_234
10
23.1992996
20
139.5779
11
22.7663889
21
140.7473211
0
LINE
8
DEFAULT_255_1_234
10
22.7663889
20
140.7473211
11
22.9342522
21
140.7473211
0
LINE
8
DEFAULT_255_1_234
10
24.1823843
20
140.1353026
11
24.1823843
21
140.0140234
0
LINE
8
DEFAULT_255_1_234
10
24.1823843
20
140.0140234
11
23.7904355
21
140.0140234
0
LINE
8
DEFAULT_255_1_234
10
23.7904355
20
140.0140234
11
23.7904355
21
140.1353026
0
LINE
8
DEFAULT_255_1_234
10
23.7904355
20
140.1353026
11
24.1823843
21
140.1353026
0
LINE
8
DEFAULT_255_1_234
10
22.9342522
20
132.8098211
11
23.2667662
21
131.8452093
0
LINE
8
DEFAULT_255_1_234
10
23.2667662
20
131.8452093
11
23.6008865
21
132.8098211
0
LINE
8
DEFAULT_255_1_234
10
23.6008865
20
132.8098211
11
23.769553
21
132.8098211
0
LINE
8
DEFAULT_255_1_234
10
23.769553
20
132.8098211
11
23.3358391
21
131.6404
0
LINE
8
DEFAULT_255_1_234
10
23.3358391
20
131.6404
11
23.1992996
21
131.6404
0
LINE
8
DEFAULT_255_1_234
10
23.1992996
20
131.6404
11
22.7663889
21
132.8098211
0
LINE
8
DEFAULT_255_1_234
10
22.7663889
20
132.8098211
11
22.9342522
21
132.8098211
0
LINE
8
DEFAULT_255_1_234
10
24.1823843
20
132.1978026
11
24.1823843
21
132.0765234
0
LINE
8
DEFAULT_255_1_234
10
24.1823843
20
132.0765234
11
23.7904355
21
132.0765234
0
LINE
8
DEFAULT_255_1_234
10
23.7904355
20
132.0765234
11
23.7904355
21
132.1978026
0
LINE
8
DEFAULT_255_1_234
10
23.7904355
20
132.1978026
11
24.1823843
21
132.1978026
0
ENDSEC
0
EOF