0
SECTION
2
HEADER
9
$MEASUREMENT
70
1
0
ENDSEC
0
SECTION
2
TABLES
0
TABLE
2
LTYPE
0
LTYPE
72
65
70
64
2
CONTINUOUS
3
______
73
0
40
0
0
ENDTAB
0
TABLE
2
LAYER
0
LAYER
2
DEFAULT_255_2_778
70
0
62
255
6
CONTINUOUS
0
ENDTAB
0
ENDSEC
0
SECTION
2
ENTITIES
0
ARC
8
DEFAULT_255_2_778
10
8.0106603
20
0.9997719
40
0.4798753
50
123.4237433
51
127.2971803
0
ARC
8
DEFAULT_255_2_778
10
7.5837267
20
1.5772875
40
0.2384637
50
301.7846577
51
304.8172996
0
ARC
8
DEFAULT_255_2_778
10
4.7027443
20
0.6843117
40
0.9070502
50
298.3633734
51
299.924377
0
ARC
8
DEFAULT_255_2_778
10
4.7680284
20
0.552391
40
0.7599703
50
282.4388913
51
298.7571974
0
ARC
8
DEFAULT_255_2_778
10
4.7935028
20
0.4519614
40
0.6564191
50
270.0235575
51
282.1557274
0
ARC
8
DEFAULT_255_2_778
10
4.8009076
20
0.5252336
40
0.7297262
50
245.1482843
51
269.4397781
0
ARC
8
DEFAULT_255_2_778
10
4.896442
20
0.7589944
40
0.9820586
50
239.8395118
51
245.8224641
0
ARC
8
DEFAULT_255_2_778
10
0.8738561
20
2.8076458
40
0.7407417
50
180.0124603
51
242.5359719
0
ARC
8
DEFAULT_255_2_778
10
0.8769624
20
2.8074798
40
0.7438479
50
177.6650392
51
179.9996255
0
ARC
8
DEFAULT_255_2_778
10
0.8319451
20
4.6074879
40
0.6983635
50
180.0004743
51
181.1899213
0
ARC
8
DEFAULT_255_2_778
10
0.8216317
20
4.60726
40
0.6880502
50
97.3312878
51
179.9815045
0
ARC
8
DEFAULT_255_2_778
10
0.8278956
20
4.6306773
40
0.6656872
50
90.046761
51
98.1232339
0
ARC
8
DEFAULT_255_2_778
10
0.823384
20
4.6319243
40
0.6644519
50
58.7854628
51
89.657812
0
ARC
8
DEFAULT_255_2_778
10
1.8591548
20
4.945886
40
0.1285375
50
236.1904628
51
263.0451981
0
ARC
8
DEFAULT_255_2_778
10
1.849245
20
4.8960164
40
0.0779275
50
265.8390401
51
269.9892644
0
ARC
8
DEFAULT_255_2_778
10
1.8451461
20
4.9199847
40
0.1019776
50
272.2953873
51
307.504375
0
ARC
8
DEFAULT_255_2_778
10
1.5066933
20
5.0183036
40
0.6754504
50
90.4805918
51
123.5870224
0
ARC
8
DEFAULT_255_2_778
10
1.4995244
20
5.0238104
40
0.6699216
50
75.1929917
51
89.8714182
0
ARC
8
DEFAULT_255_2_778
10
1.4101595
20
4.7588745
40
0.949082
50
59.8652507
51
74.0646603
0
ARC
8
DEFAULT_255_2_778
10
2.5428483
20
5.3122237
40
0.0970302
50
236.3145859
51
267.5262779
0
ARC
8
DEFAULT_255_2_778
10
2.5386601
20
5.2833386
40
0.0680547
50
270.000282
51
274.2142743
0
ARC
8
DEFAULT_255_2_778
10
2.5325418
20
5.3147018
40
0.0998548
50
276.3934763
51
303.5529347
0
ARC
8
DEFAULT_255_2_778
10
4.8294479
20
6.7475707
40
0.8470393
50
104.6381889
51
120.5558141
0
ARC
8
DEFAULT_255_2_778
10
4.7853968
20
6.9023551
40
0.6861558
50
90.080545
51
104.3455109
0
ARC
8
DEFAULT_255_2_778
10
4.7793307
20
6.864255
40
0.7242732
50
66.1008975
51
89.5964291
0
ARC
8
DEFAULT_255_2_778
10
4.698841
20
6.6617707
40
0.942043
50
59.9248406
51
66.6144318
0
ARC
8
DEFAULT_255_2_778
10
8.739206
20
4.607302
40
0.698527
50
0.0144505
51
61.8989173
0
ARC
8
DEFAULT_255_2_778
10
8.7369606
20
4.6074829
40
0.7007723
50
358.0620918
51
359.9996169
0
ARC
8
DEFAULT_255_2_778
10
8.68199
20
2.7986731
40
0.7555077
50
332.5604817
51
1.1992438
0
ARC
8
DEFAULT_255_2_778
10
8.7559144
20
2.7808808
40
0.6819459
50
298.1298307
51
331.0248978
0
ARC
8
DEFAULT_255_2_778
10
8.7212571
20
2.7937514
40
0.7100589
50
282.9412724
51
300.1068097
0
ARC
8
DEFAULT_255_2_778
10
8.7450396
20
2.7051957
40
0.6184354
50
270.006876
51
282.6312589
0
ARC
8
DEFAULT_255_2_778
10
8.745114
20
2.7069362
40
0.6201759
50
269.1172718
51
269.9999802
0
ARC
8
DEFAULT_255_2_778
10
8.7543875
20
2.7998124
40
0.7132271
50
245.1455545
51
268.4873202
0
ARC
8
DEFAULT_255_2_778
10
8.8569993
20
3.0495505
40
0.9830347
50
239.7135694
51
245.8368707
0
ARC
8
DEFAULT_255_2_778
10
4.4844885
20
4.329402
40
0.0978877
50
56.1371036
51
87.3541328
0
ARC
8
DEFAULT_255_2_778
10
4.4890044
20
4.3605128
40
0.0666725
50
89.9975882
51
93.7794664
0
ARC
8
DEFAULT_255_2_778
10
4.4945259
20
4.3320812
40
0.0954754
50
95.9616082
51
124.5843735
0
ARC
8
DEFAULT_255_2_778
10
8.0753445
20
2.296472
40
0.6086479
50
269.954997
51
305.3087494
0
ARC
8
DEFAULT_255_2_778
10
8.0748942
20
2.3041384
40
0.616314
50
264.7021371
51
269.9974221
0
ARC
8
DEFAULT_255_2_778
10
8.0751667
20
2.3073264
40
0.6195137
50
261.9052095
51
264.7042681
0
ARC
8
DEFAULT_255_2_778
10
8.1320285
20
2.6123047
40
0.929556
50
240.6725801
51
261.0822605
0
ARC
8
DEFAULT_255_2_778
10
3.7912893
20
3.8968401
40
0.1349166
50
56.9178925
51
86.623138
0
ARC
8
DEFAULT_255_2_778
10
3.7992541
20
3.9499138
40
0.0816089
50
90.0124457
51
90.6592695
0
ARC
8
DEFAULT_255_2_778
10
3.8033354
20
3.927191
40
0.1044472
50
92.755012
51
127.6521278
0
ARC
8
DEFAULT_255_2_778
10
2.6097977
20
5.7442611
40
2.0698695
50
299.6725607
51
303.079343
0
ARC
8
DEFAULT_255_2_778
10
-8.4813285
20
25.3253392
40
24.5739009
50
299.1437798
51
299.540277
0
ARC
8
DEFAULT_255_2_778
10
5.0748878
20
2.3734788
40
0.1854707
50
55.9140652
51
83.9673942
0
ARC
8
DEFAULT_255_2_778
10
5.0875412
20
2.4420357
40
0.1160885
50
86.6228579
51
89.9897938
0
ARC
8
DEFAULT_255_2_778
10
5.0875389
20
2.4451329
40
0.1129911
50
89.9883781
51
96.3232386
0
ARC
8
DEFAULT_255_2_778
10
5.0953393
20
2.4129917
40
0.1458569
50
97.9783907
51
128.3569978
0
ARC
8
DEFAULT_255_2_778
10
5.1510621
20
2.3278504
40
0.2473693
50
126.2395991
51
127.6581285
0
ARC
8
DEFAULT_255_2_778
10
4.4474801
20
3.2843657
40
0.9401266
50
294.2783744
51
305.9894241
0
ARC
8
DEFAULT_255_2_778
10
4.77981
20
2.5570355
40
0.140532
50
274.8528465
51
292.6956263
0
ARC
8
DEFAULT_255_2_778
10
4.778933
20
2.5558302
40
0.1394085
50
270.0699692
51
275.2539065
0
ARC
8
DEFAULT_255_2_778
10
4.7761209
20
2.4955344
40
0.0791688
50
244.6557914
51
272.1588755
0
ARC
8
DEFAULT_255_2_778
10
4.7872493
20
4.8649837
40
0.0965647
50
91.5744877
51
121.1958507
0
ARC
8
DEFAULT_255_2_778
10
4.7843276
20
4.881003
40
0.0805093
50
75.4102968
51
89.808953
0
ARC
8
DEFAULT_255_2_778
10
4.7606392
20
4.8065609
40
0.1585728
50
57.7601398
51
73.9023456
0
ARC
8
DEFAULT_255_2_778
10
7.7153413
20
2.9815683
40
0.0475726
50
243.2544116
51
272.4318909
0
ARC
8
DEFAULT_255_2_778
10
7.717159
20
3.0233497
40
0.0893114
50
270.1288571
51
277.1516185
0
ARC
8
DEFAULT_255_2_778
10
7.7191558
20
3.0184058
40
0.0841685
50
276.2218825
51
299.1329622
0
ARC
8
DEFAULT_255_2_778
10
7.9834981
20
3.1782227
40
0.089422
50
305.3478549
51
353.4261059
0
ARC
8
DEFAULT_255_2_778
10
7.6275729
20
4.1257935
40
0.4457909
50
359.3177438
51
359.9925314
0
ARC
8
DEFAULT_255_2_778
10
7.8896417
20
4.1414853
40
0.1843959
50
355.1001803
51
65.7310183
0
ARC
8
DEFAULT_255_2_778
10
4.7562763
20
5.8735857
40
0.2544501
50
58.0483362
51
77.1550794
0
ARC
8
DEFAULT_255_2_778
10
4.7846001
20
5.9789144
40
0.145521
50
78.8085974
51
89.9086036
0
ARC
8
DEFAULT_255_2_778
10
4.7848133
20
5.9882293
40
0.136206
50
89.9920401
51
90.5973157
0
ARC
8
DEFAULT_255_2_778
10
4.7917288
20
5.9340195
40
0.1905907
50
92.5066107
51
120.343985
0
ARC
8
DEFAULT_255_2_778
10
4.8910974
20
5.7299393
40
0.4172742
50
117.9618767
51
120.4972093
0
ARC
8
DEFAULT_255_2_778
10
1.5945671
20
4.1901378
40
0.1022116
50
114.037842
51
182.31101
0
ARC
8
DEFAULT_255_2_778
10
1.6813014
20
4.1861353
40
0.1888629
50
180.0361336
51
182.59474
0
ARC
8
DEFAULT_255_2_778
10
1.5886452
20
3.1846185
40
0.0964124
50
174.7828945
51
243.8355157
0
ARC
8
DEFAULT_255_2_778
10
4.790611
20
1.3475563
40
0.1067486
50
236.8466954
51
266.2348456
0
ARC
8
DEFAULT_255_2_778
10
4.7898446
20
1.3420327
40
0.1011874
50
266.4624896
51
269.9974904
0
ARC
8
DEFAULT_255_2_778
10
4.7901807
20
1.337701
40
0.0968562
50
269.7985466
51
305.9421466
0
ARC
8
DEFAULT_255_2_778
10
14.475589
20
2.4967136
40
0.6481609
50
270.5883744
51
298.3861507
0
ARC
8
DEFAULT_255_2_778
10
14.4754798
20
2.4986839
40
0.6501322
50
270.0000076
51
270.5962213
0
ARC
8
DEFAULT_255_2_778
10
14.4753169
20
2.49657
40
0.6480184
50
237.5414334
51
270.0144065
0
ARC
8
DEFAULT_255_2_778
10
13.4845034
20
2.0663572
40
0.2200149
50
59.6320425
51
84.4851772
0
ARC
8
DEFAULT_255_2_778
10
13.4845599
20
2.0703375
40
0.2160478
50
84.3986377
51
89.9808135
0
ARC
8
DEFAULT_255_2_778
10
12.2049188
20
3.1523873
40
0.8710904
50
269.9996232
51
271.4744018
0
ARC
8
DEFAULT_255_2_778
10
12.2048785
20
3.151618
40
0.8703213
50
237.9575863
51
270.0022749
0
ARC
8
DEFAULT_255_2_778
10
11.3884192
20
2.9438593
40
0.2805989
50
177.2983694
51
243.6175844
0
ARC
8
DEFAULT_255_2_778
10
11.4027539
20
4.856561
40
0.2949073
50
180.0004256
51
182.521786
0
ARC
8
DEFAULT_255_2_778
10
11.4015711
20
4.8564829
40
0.2937244
50
117.7668559
51
179.9852019
0
ARC
8
DEFAULT_255_2_778
10
12.1508781
20
4.8104181
40
0.7087181
50
89.8709632
51
120.2417725
0
ARC
8
DEFAULT_255_2_778
10
12.1524553
20
4.7918016
40
0.7273329
50
89.3322138
51
89.9985126
0
ARC
8
DEFAULT_255_2_778
10
13.6403272
20
4.7922617
40
0.72685
50
90.0000667
51
90.4883418
0
ARC
8
DEFAULT_255_2_778
10
13.6404898
20
4.7964831
40
0.7226287
50
60.0614961
51
90.0129577
0
ARC
8
DEFAULT_255_2_778
10
14.4007661
20
4.8615746
40
0.2858146
50
0.0044741
51
63.0654366
0
ARC
8
DEFAULT_255_2_778
10
14.3993898
20
4.8616077
40
0.2871908
50
355.8621959
51
359.997851
0
ARC
8
DEFAULT_255_2_778
10
14.7899663
20
2.7733079
40
0.1057544
50
174.3142208
51
243.9426325
0
ARC
8
DEFAULT_255_2_778
10
14.8987629
20
2.9322006
40
0.297602
50
238.5553678
51
238.6728022
0
LINE
8
DEFAULT_255_2_778
10
3.4865322
20
3.8590853
11
7.7463322
21
1.4002853
0
LINE
8
DEFAULT_255_2_778
10
7.7093322
20
1.3745853
11
5.1552322
21
-0.1018147
0
LINE
8
DEFAULT_255_2_778
10
4.4030322
20
-0.0901147
11
0.5322322
21
2.1503853
0
LINE
8
DEFAULT_255_2_778
10
0.1337322
20
2.8377853
11
0.1337322
21
4.5929853
0
LINE
8
DEFAULT_255_2_778
10
1.1677322
20
5.2001853
11
1.7876322
21
4.8390853
0
LINE
8
DEFAULT_255_2_778
10
1.9072322
20
4.8390853
11
2.1639322
21
4.9887853
0
LINE
8
DEFAULT_255_2_778
10
2.1639322
20
4.9887853
11
1.1330322
21
5.5809853
0
LINE
8
DEFAULT_255_2_778
10
1.8866322
20
5.5796853
11
2.4890322
21
5.2314853
0
LINE
8
DEFAULT_255_2_778
10
2.5877322
20
5.2314853
11
2.8523322
21
5.3869853
0
LINE
8
DEFAULT_255_2_778
10
2.8523322
20
5.3869853
11
1.8098322
21
5.9814853
0
LINE
8
DEFAULT_255_2_778
10
1.8098322
20
5.9814853
11
2.2615322
21
6.2439853
0
LINE
8
DEFAULT_255_2_778
10
2.2615322
20
6.2439853
11
4.3988322
21
7.4769853
0
LINE
8
DEFAULT_255_2_778
10
5.1709322
20
7.4769853
11
9.0682322
21
5.2234853
0
LINE
8
DEFAULT_255_2_778
10
9.4373322
20
4.5837853
11
9.4373322
21
2.8144853
0
LINE
8
DEFAULT_255_2_778
10
8.3612322
20
2.2006853
11
4.5390322
21
4.4106853
0
LINE
8
DEFAULT_255_2_778
10
4.4403322
20
4.4106853
11
4.1758322
21
4.2561853
0
LINE
8
DEFAULT_255_2_778
10
4.1758322
20
4.2561853
11
8.4271322
21
1.7997853
0
LINE
8
DEFAULT_255_2_778
10
7.6767322
20
1.8018853
11
3.8649322
21
4.0098853
0
LINE
8
DEFAULT_255_2_778
10
3.4862322
20
3.8624853
11
3.4865322
21
3.8590853
0
LINE
8
DEFAULT_255_2_778
10
6.1043322
20
1.9884853
11
6.0255322
21
2.0370853
0
LINE
8
DEFAULT_255_2_778
10
6.0255322
20
2.0370853
11
5.1788322
21
2.5270853
0
LINE
8
DEFAULT_255_2_778
10
4.7422322
20
2.4239853
11
2.6084322
21
3.6555853
0
LINE
8
DEFAULT_255_2_778
10
2.6084322
20
3.6555853
11
2.5687322
21
3.6880853
0
LINE
8
DEFAULT_255_2_778
10
2.5687322
20
3.6880853
11
2.6115322
21
3.7158853
0
LINE
8
DEFAULT_255_2_778
10
2.6115322
20
3.7158853
11
4.7372322
21
4.9475853
0
LINE
8
DEFAULT_255_2_778
10
4.8452322
20
4.9406853
11
7.0147322
21
3.6857853
0
LINE
8
DEFAULT_255_2_778
10
7.0147322
20
3.6857853
11
6.7200322
21
3.5137853
0
LINE
8
DEFAULT_255_2_778
10
6.7200322
20
3.5137853
11
6.7327322
21
3.4938853
0
LINE
8
DEFAULT_255_2_778
10
6.7327322
20
3.4938853
11
7.6939322
21
2.9390853
0
LINE
8
DEFAULT_255_2_778
10
7.7601322
20
2.9448853
11
8.0352322
21
3.1052853
0
LINE
8
DEFAULT_255_2_778
10
8.0723322
20
3.1679853
11
8.0733322
21
4.1204853
0
LINE
8
DEFAULT_255_2_778
10
7.9654322
20
4.3095853
11
4.8909322
21
6.0894853
0
LINE
8
DEFAULT_255_2_778
10
4.6793322
20
6.0894853
11
3.4881322
21
5.3999853
0
LINE
8
DEFAULT_255_2_778
10
3.4881322
20
5.3999853
11
1.5529322
21
4.2834853
0
LINE
8
DEFAULT_255_2_778
10
1.4926322
20
4.1775853
11
1.4926322
21
3.1933853
0
LINE
8
DEFAULT_255_2_778
10
1.5461322
20
3.0980853
11
4.7322322
21
1.2581853
0
LINE
8
DEFAULT_255_2_778
10
4.8470322
20
1.2592853
11
5.2000322
21
1.4634853
0
LINE
8
DEFAULT_255_2_778
10
5.2000322
20
1.4634853
11
6.1043322
21
1.9884853
0
LINE
8
DEFAULT_255_2_778
10
15.4266322
20
2.2921853
11
14.7837322
21
1.9264853
0
LINE
8
DEFAULT_255_2_778
10
14.1275322
20
1.9497853
11
13.5957322
21
2.2561853
0
LINE
8
DEFAULT_255_2_778
10
13.4846322
20
2.2863853
11
12.2273322
21
2.2815853
0
LINE
8
DEFAULT_255_2_778
10
11.7431322
20
2.4138853
11
11.2637322
21
2.6924853
0
LINE
8
DEFAULT_255_2_778
10
11.1081322
20
2.9570853
11
11.1081322
21
4.8435853
0
LINE
8
DEFAULT_255_2_778
10
11.2647322
20
5.1163853
11
11.7939322
21
5.4226853
0
LINE
8
DEFAULT_255_2_778
10
12.1609322
20
5.5190853
11
13.6341322
21
5.5190853
0
LINE
8
DEFAULT_255_2_778
10
14.0011322
20
5.4226853
11
14.5302322
21
5.1163853
0
LINE
8
DEFAULT_255_2_778
10
14.6858322
20
4.8408853
11
14.6847322
21
2.7837853
0
LINE
8
DEFAULT_255_2_778
10
14.7440322
20
2.6779853
11
15.4219322
21
2.2889853
0
LINE
8
DEFAULT_255_2_778
10
15.4219322
20
2.2889853
11
15.4266322
21
2.2921853
0
LINE
8
DEFAULT_255_2_778
10
12.0241322
20
3.1282853
11
13.7748322
21
3.1282853
0
LINE
8
DEFAULT_255_2_778
10
13.7748322
20
3.1282853
11
13.7748322
21
4.6826853
0
LINE
8
DEFAULT_255_2_778
10
13.7748322
20
4.6826853
11
12.0241322
21
4.6826853
0
LINE
8
DEFAULT_255_2_778
10
12.0241322
20
4.6826853
11
12.0241322
21
3.1282853
0
ARC
8
DEFAULT_255_2_778
10
19.3414994
20
2.944711
40
0.2863252
50
359.9992705
51
2.6698452
0
ARC
8
DEFAULT_255_2_778
10
19.3420824
20
2.9448278
40
0.2857422
50
297.2719859
51
359.9758556
0
ARC
8
DEFAULT_255_2_778
10
18.5826706
20
2.9991103
40
0.7124065
50
271.1536335
51
302.1352592
0
ARC
8
DEFAULT_255_2_778
10
19.0026903
20
-135.6322398
40
137.9196847
50
90.1685299
51
90.2626778
0
ARC
8
DEFAULT_255_2_778
10
15.9562654
20
560.1873728
40
557.9066004
50
270.2426094
51
270.2479257
0
ARC
8
DEFAULT_255_2_778
10
17.9637291
20
76.9425919
40
74.6576615
50
270.0303967
51
270.272361
0
ARC
8
DEFAULT_255_2_778
10
17.9527797
20
24.8098564
40
22.5249724
50
268.4955956
51
270.1285994
0
ARC
8
DEFAULT_255_2_778
10
17.3794581
20
2.8177606
40
0.5254223
50
259.2469657
51
268.0319309
0
ARC
8
DEFAULT_255_2_778
10
17.4867613
20
3.2675575
40
0.9875751
50
242.6283784
51
257.9996472
0
ARC
8
DEFAULT_255_2_778
10
19.3545322
20
6.931572
40
5.1001704
50
238.4088148
51
242.9194095
0
ARC
8
DEFAULT_255_2_778
10
164.5563029
20
250.0874245
40
288.3104832
50
239.140862
51
239.1430235
0
ARC
8
DEFAULT_255_2_778
10
11.7871723
20
-5.5247485
40
9.4747063
50
58.9545598
51
60.1717087
0
ARC
8
DEFAULT_255_2_778
10
16.6214719
20
2.9386584
40
0.2725225
50
180.0194107
51
243.5095998
0
ARC
8
DEFAULT_255_2_778
10
16.6225172
20
2.9385655
40
0.2735678
50
178.0135473
51
179.9998879
0
ARC
8
DEFAULT_255_2_778
10
16.5901018
20
5.4754488
40
0.2410319
50
170.3028681
51
178.9066028
0
LINE
8
DEFAULT_255_2_778
10
18.7142138
20
3.1279482
11
18.7142138
21
5.5157482
0
LINE
8
DEFAULT_255_2_778
10
18.7142138
20
5.5157482
11
19.6323138
21
5.5157482
0
LINE
8
DEFAULT_255_2_778
10
19.6323138
20
5.5157482
11
19.6323138
21
3.7650482
0
LINE
8
DEFAULT_255_2_778
10
19.6323138
20
3.7650482
11
19.6275138
21
2.9580482
0
LINE
8
DEFAULT_255_2_778
10
19.4730138
20
2.6908482
11
18.9616138
21
2.3958482
0
LINE
8
DEFAULT_255_2_778
10
16.3491138
20
2.9480482
11
16.3491138
21
5.4800482
0
LINE
8
DEFAULT_255_2_778
10
16.3525138
20
5.5160482
11
17.2637138
21
5.5160482
0
LINE
8
DEFAULT_255_2_778
10
17.2637138
20
5.5160482
11
17.2637138
21
3.1295482
0
LINE
8
DEFAULT_255_2_778
10
17.2637138
20
3.1295482
11
18.7142138
21
3.1279482
0
ARC
8
DEFAULT_255_2_778
10
26.5995047
20
910.5936849
40
908.3033643
50
269.959514
51
269.9942594
0
ARC
8
DEFAULT_255_2_778
10
25.3160646
20
-905.2298346
40
907.5206088
50
89.9594916
51
89.9942221
0
LINE
8
DEFAULT_255_2_778
10
25.4075818
20
2.2907697
11
25.3898406
21
2.2907693
0
ARC
8
DEFAULT_255_2_778
10
25.3735974
20
-297.2280482
40
299.5188179
50
89.9968928
51
90.0987257
0
ARC
8
DEFAULT_255_2_778
10
24.8387645
20
3.1397644
40
0.8496458
50
269.9998522
51
271.2635547
0
ARC
8
DEFAULT_255_2_778
10
24.8386189
20
3.1380764
40
0.8479579
50
238.4158217
51
270.0096911
0
ARC
8
DEFAULT_255_2_778
10
24.0309269
20
2.9494948
40
0.2800347
50
177.3124917
51
242.3566739
0
ARC
8
DEFAULT_255_2_778
10
24.0326276
20
4.8720239
40
0.2817605
50
179.9998293
51
182.7867084
0
ARC
8
DEFAULT_255_2_778
10
24.0315709
20
4.8719742
40
0.2807038
50
116.6189197
51
179.9896942
0
ARC
8
DEFAULT_255_2_778
10
24.7767593
20
4.8720679
40
0.6548693
50
90.3463734
51
121.46826
0
ARC
8
DEFAULT_255_2_778
10
26.5452748
20
5.2386994
40
0.2882697
50
81.1347482
51
89.0010769
0
LINE
8
DEFAULT_255_2_778
10
24.6672004
20
4.6908252
11
24.6672004
21
3.1258252
0
LINE
8
DEFAULT_255_2_778
10
24.6672004
20
3.1258252
11
26.5897004
21
3.1258252
0
LINE
8
DEFAULT_255_2_778
10
26.5897004
20
3.1258252
11
26.5897004
21
2.2903252
0
LINE
8
DEFAULT_255_2_778
10
26.5897004
20
2.2903252
11
26.5085004
21
2.2903252
0
LINE
8
DEFAULT_255_2_778
10
24.3945004
20
2.4157252
11
23.9010004
21
2.7014252
0
LINE
8
DEFAULT_255_2_778
10
23.7512004
20
2.9626252
11
23.7512004
21
4.8583252
0
LINE
8
DEFAULT_255_2_778
10
23.9058004
20
5.1229252
11
24.4349004
21
5.4306252
0
LINE
8
DEFAULT_255_2_778
10
24.7728004
20
5.5269252
11
26.5503004
21
5.5269252
0
LINE
8
DEFAULT_255_2_778
10
26.5897004
20
5.5235252
11
26.5897004
21
4.6945252
0
LINE
8
DEFAULT_255_2_778
10
26.5897004
20
4.6945252
11
24.6672004
21
4.6908252
0
LINE
8
DEFAULT_255_2_778
10
22.141238
20
2.2862844
11
21.242738
21
2.2862844
0
LINE
8
DEFAULT_255_2_778
10
21.242738
20
2.2862844
11
21.242738
21
5.5160844
0
LINE
8
DEFAULT_255_2_778
10
21.242738
20
5.5160844
11
22.141238
21
5.5160844
0
LINE
8
DEFAULT_255_2_778
10
22.141238
20
5.5160844
11
22.141238
21
2.2862844
0
ARC
8
DEFAULT_255_2_778
10
4.7868544
20
1.3386166
40
0.0974686
50
269.9719111
51
306.5730484
0
LINE
8
DEFAULT_255_2_778
10
4.7868067
20
1.241148
11
4.7864649
21
1.2411486
0
ARC
8
DEFAULT_255_2_778
10
4.7867898
20
1.338915
40
0.0977669
50
234.5824464
51
269.8095835
0
ARC
8
DEFAULT_255_2_778
10
1.5881117
20
3.1858655
40
0.0941323
50
173.7950872
51
244.7318531
0
ARC
8
DEFAULT_255_2_778
10
1.6018453
20
4.1891603
40
0.1076846
50
115.8867453
51
184.75182
0
ARC
8
DEFAULT_255_2_778
10
4.8129587
20
5.8821473
40
0.2479424
50
102.1300098
51
122.1195461
0
ARC
8
DEFAULT_255_2_778
10
4.7876977
20
5.9794161
40
0.1475987
50
90.0744625
51
100.4769272
0
ARC
8
DEFAULT_255_2_778
10
4.7875059
20
5.9848635
40
0.1421512
50
88.8466287
51
90.0000277
0
ARC
8
DEFAULT_255_2_778
10
4.7803449
20
5.9348974
40
0.1923499
50
59.1860378
51
87.0132557
0
ARC
8
DEFAULT_255_2_778
10
4.689296
20
5.7513046
40
0.3969824
50
59.1558228
51
61.4742242
0
ARC
8
DEFAULT_255_2_778
10
7.8957404
20
4.1494282
40
0.1800557
50
356.5033399
51
66.571654
0
ARC
8
DEFAULT_255_2_778
10
7.6971586
20
4.1386306
40
0.3783023
50
358.0017716
51
359.9721216
0
ARC
8
DEFAULT_255_2_778
10
7.9850149
20
3.1834031
40
0.0898275
50
305.463156
51
353.3108254
0
ARC
8
DEFAULT_255_2_778
10
7.7210813
20
3.0241737
40
0.0847311
50
276.9118886
51
298.8231684
0
ARC
8
DEFAULT_255_2_778
10
7.7177182
20
3.0347411
40
0.0956488
50
270.2092901
51
278.1500978
0
ARC
8
DEFAULT_255_2_778
10
7.7155115
20
2.9793428
40
0.0403309
50
240.7921737
51
273.633791
0
ARC
8
DEFAULT_255_2_778
10
6.7443145
20
3.5129224
40
0.0170085
50
213.3646586
51
235.2953349
0
ARC
8
DEFAULT_255_2_778
10
6.9089997
20
3.6097923
40
0.2080513
50
205.9537096
51
210.7015782
0
ARC
8
DEFAULT_255_2_778
10
4.7554558
20
4.8033518
40
0.1681799
50
57.6565775
51
72.4443826
0
ARC
8
DEFAULT_255_2_778
10
4.7846715
20
4.8889981
40
0.0777366
50
73.9344339
51
89.749737
0
ARC
8
DEFAULT_255_2_778
10
4.7880186
20
4.871308
40
0.0954733
50
91.8051809
51
121.9254667
0
ARC
8
DEFAULT_255_2_778
10
2.7777483
20
3.9103936
40
0.3014841
50
226.1875432
51
234.0668933
0
ARC
8
DEFAULT_255_2_778
10
6.5344797
20
8.8920214
40
6.5407949
50
233.029546
51
233.1161738
0
ARC
8
DEFAULT_255_2_778
10
4.7778092
20
2.502104
40
0.0814056
50
244.3187006
51
271.9626937
0
ARC
8
DEFAULT_255_2_778
10
4.7804867
20
2.5528308
40
0.1320848
50
270.047943
51
275.1025762
0
ARC
8
DEFAULT_255_2_778
10
4.7820251
20
2.5477523
40
0.1268942
50
274.6146241
51
294.3430674
0
ARC
8
DEFAULT_255_2_778
10
4.4891962
20
3.2177688
40
0.8580973
50
293.7163578
51
306.5514151
0
ARC
8
DEFAULT_255_2_778
10
5.1005634
20
2.40551
40
0.1586769
50
102.503389
51
129.2205657
0
ARC
8
DEFAULT_255_2_778
10
5.087194
20
2.4499542
40
0.1124446
50
94.6973622
51
100.7552355
0
ARC
8
DEFAULT_255_2_778
10
5.0871583
20
2.4500254
40
0.1123707
50
89.9925581
51
94.6821705
0
ARC
8
DEFAULT_255_2_778
10
5.07837
20
2.3849281
40
0.1776861
50
57.8642695
51
87.1603052
0
ARC
8
DEFAULT_255_2_778
10
4.9732239
20
2.177018
40
0.4102392
50
59.8729373
51
60.8762964
0
LINE
8
DEFAULT_255_2_778
10
6.1043308
20
1.9892397
11
4.8449308
21
1.2603397
0
LINE
8
DEFAULT_255_2_778
10
4.7301308
20
1.2592397
11
1.5479308
21
3.1007397
0
LINE
8
DEFAULT_255_2_778
10
1.4945308
20
3.1960397
11
1.4945308
21
4.1802397
0
LINE
8
DEFAULT_255_2_778
10
1.5548308
20
4.2860397
11
3.4900308
21
5.4026397
0
LINE
8
DEFAULT_255_2_778
10
3.4900308
20
5.4026397
11
4.6811308
21
6.0921397
0
LINE
8
DEFAULT_255_2_778
10
4.8928308
20
6.0921397
11
7.9673308
21
4.3146397
0
LINE
8
DEFAULT_255_2_778
10
8.0752308
20
4.1254397
11
8.0742308
21
3.1729397
0
LINE
8
DEFAULT_255_2_778
10
8.0371308
20
3.1102397
11
7.7619308
21
2.9499397
0
LINE
8
DEFAULT_255_2_778
10
7.6958308
20
2.9441397
11
6.7346308
21
3.4989397
0
LINE
8
DEFAULT_255_2_778
10
6.7219308
20
3.5187397
11
7.0129308
21
3.6894397
0
LINE
8
DEFAULT_255_2_778
10
7.0129308
20
3.6894397
11
4.8454308
21
4.9454397
0
LINE
8
DEFAULT_255_2_778
10
4.7375308
20
4.9523397
11
2.6118308
21
3.7206397
0
LINE
8
DEFAULT_255_2_778
10
2.6118308
20
3.7206397
11
2.5690308
21
3.6928397
0
LINE
8
DEFAULT_255_2_778
10
2.6087308
20
3.6603397
11
4.7425308
21
2.4287397
0
LINE
8
DEFAULT_255_2_778
10
5.1791308
20
2.5318397
11
6.0257308
21
2.0418397
0
LINE
8
DEFAULT_255_2_778
10
6.0257308
20
2.0418397
11
6.1059308
21
1.9918397
0
LINE
8
DEFAULT_255_2_778
10
6.1059308
20
1.9918397
11
6.1043308
21
1.9892397
0
ENDSEC
0
EOF