0
SECTION
2
HEADER
9
$MEASUREMENT
70
1
0
ENDSEC
0
SECTION
2
TABLES
0
TABLE
2
LTYPE
0
LTYPE
72
65
70
64
2
CONTINUOUS
3
______
73
0
40
0
0
ENDTAB
0
TABLE
2
LAYER
0
LAYER
2
DEFAULT_255_2_778
70
0
62
255
6
CONTINUOUS
0
ENDTAB
0
ENDSEC
0
SECTION
2
ENTITIES
0
LINE
8
DEFAULT_255_2_778
10
96.8461421
20
2.5400597
11
97.4459421
21
2.5400597
0
LINE
8
DEFAULT_255_2_778
10
97.4459421
20
2.5400597
11
97.4459421
21
2.4696597
0
LINE
8
DEFAULT_255_2_778
10
97.4459421
20
2.4696597
11
97.4813421
21
2.4341597
0
LINE
8
DEFAULT_255_2_778
10
97.4813421
20
2.4341597
11
97.4813421
21
2.3635597
0
LINE
8
DEFAULT_255_2_778
10
97.4813421
20
2.3635597
11
97.5517421
21
2.2931597
0
LINE
8
DEFAULT_255_2_778
10
97.5517421
20
2.2931597
11
97.5872421
21
2.2931597
0
LINE
8
DEFAULT_255_2_778
10
97.5872421
20
2.2931597
11
97.6578421
21
2.2577597
0
LINE
8
DEFAULT_255_2_778
10
97.6578421
20
2.2577597
11
100.6915421
21
2.2577597
0
LINE
8
DEFAULT_255_2_778
10
100.6915421
20
2.2577597
11
99.6684421
21
0.5297597
0
LINE
8
DEFAULT_255_2_778
10
99.6684421
20
0.5297597
11
99.6332421
21
0.4590597
0
LINE
8
DEFAULT_255_2_778
10
99.6332421
20
0.4590597
11
99.6332421
21
0.3177597
0
LINE
8
DEFAULT_255_2_778
10
99.6332421
20
0.3177597
11
99.6684421
21
0.2825597
0
LINE
8
DEFAULT_255_2_778
10
99.6684421
20
0.2825597
11
99.7038421
21
0.2119597
0
LINE
8
DEFAULT_255_2_778
10
99.7038421
20
0.2119597
11
99.7745421
21
0.1767597
0
LINE
8
DEFAULT_255_2_778
10
99.7745421
20
0.1767597
11
99.8097421
21
0.1413597
0
LINE
8
DEFAULT_255_2_778
10
99.8097421
20
0.1413597
11
101.3265421
21
0.1413597
0
LINE
8
DEFAULT_255_2_778
10
101.3265421
20
0.1413597
11
101.3972421
21
0.1767597
0
LINE
8
DEFAULT_255_2_778
10
101.3972421
20
0.1767597
11
101.4324421
21
0.1767597
0
LINE
8
DEFAULT_255_2_778
10
101.4324421
20
0.1767597
11
101.4678421
21
0.2119597
0
LINE
8
DEFAULT_255_2_778
10
101.4678421
20
0.2119597
11
101.5385421
21
0.2119597
0
LINE
8
DEFAULT_255_2_778
10
101.5385421
20
0.2119597
11
104.2195421
21
2.8929597
0
LINE
8
DEFAULT_255_2_778
10
104.2195421
20
2.8929597
11
104.2195421
21
2.9284597
0
LINE
8
DEFAULT_255_2_778
10
104.2195421
20
2.9284597
11
104.2547421
21
2.9990597
0
LINE
8
DEFAULT_255_2_778
10
104.2547421
20
2.9990597
11
104.2901421
21
3.0342597
0
LINE
8
DEFAULT_255_2_778
10
104.2901421
20
3.0342597
11
104.2901421
21
3.0694597
0
LINE
8
DEFAULT_255_2_778
10
104.2901421
20
3.0694597
11
104.3253421
21
3.1400597
0
LINE
8
DEFAULT_255_2_778
10
104.3253421
20
3.1400597
11
104.3253421
21
5.5036597
0
LINE
8
DEFAULT_255_2_778
10
104.3253421
20
5.5036597
11
101.0093421
21
5.5036597
0
LINE
8
DEFAULT_255_2_778
10
5.6529421
20
0.9175597
11
5.6529421
21
-0.1759403
0
LINE
8
DEFAULT_255_2_778
10
5.6529421
20
-0.1759403
11
4.8766421
21
-0.0700403
0
LINE
8
DEFAULT_255_2_778
10
4.8766421
20
-0.0700403
11
4.0654421
21
0.1413597
0
LINE
8
DEFAULT_255_2_778
10
4.0654421
20
0.1413597
11
3.3246421
21
0.4939597
0
LINE
8
DEFAULT_255_2_778
10
3.3246421
20
0.4939597
11
2.6544421
21
0.9525597
0
LINE
8
DEFAULT_255_2_778
10
2.6544421
20
0.9525597
11
2.0546421
21
1.5171597
0
LINE
8
DEFAULT_255_2_778
10
2.0546421
20
1.5171597
11
1.5254421
21
2.2227597
0
LINE
8
DEFAULT_255_2_778
10
1.5254421
20
2.2227597
11
1.1727421
21
2.9636597
0
LINE
8
DEFAULT_255_2_778
10
1.1727421
20
2.9636597
11
0.9259421
21
3.7748597
0
LINE
8
DEFAULT_255_2_778
10
0.9259421
20
3.7748597
11
0.8552421
21
4.0219597
0
LINE
8
DEFAULT_255_2_778
10
0.8552421
20
4.0219597
11
0.9611421
21
4.0219597
0
LINE
8
DEFAULT_255_2_778
10
0.9611421
20
4.0219597
11
1.1024421
21
4.0574597
0
LINE
8
DEFAULT_255_2_778
10
1.1024421
20
4.0574597
11
1.2788421
21
4.0925597
0
LINE
8
DEFAULT_255_2_778
10
1.2788421
20
4.0925597
11
1.7374421
21
4.1632597
0
LINE
8
DEFAULT_255_2_778
10
1.7374421
20
4.1632597
11
2.0194421
21
4.1984597
0
LINE
8
DEFAULT_255_2_778
10
2.0194421
20
4.1984597
11
2.3017421
21
4.2690597
0
LINE
8
DEFAULT_255_2_778
10
2.3017421
20
4.2690597
11
8.7927421
21
4.2690597
0
LINE
8
DEFAULT_255_2_778
10
8.7927421
20
4.2690597
11
8.7927421
21
0.8120597
0
LINE
8
DEFAULT_255_2_778
10
8.7927421
20
0.8120597
11
5.6529421
21
0.9178597
0
LINE
8
DEFAULT_255_2_778
10
5.6529421
20
0.9178597
11
4.5240421
21
1.1649597
0
LINE
8
DEFAULT_255_2_778
10
4.5240421
20
1.1649597
11
3.5363421
21
1.7999597
0
LINE
8
DEFAULT_255_2_778
10
3.5363421
20
1.7999597
11
2.7954421
21
2.8231597
0
LINE
8
DEFAULT_255_2_778
10
2.7954421
20
2.8231597
11
2.3369421
21
4.0928597
0
LINE
8
DEFAULT_255_2_778
10
2.3369421
20
4.0928597
11
2.2663421
21
4.4455597
0
LINE
8
DEFAULT_255_2_778
10
2.2663421
20
4.4455597
11
2.2663421
21
123.3315597
0
LINE
8
DEFAULT_255_2_778
10
2.2663421
20
123.3315597
11
0.7846421
21
123.3315597
0
LINE
8
DEFAULT_255_2_778
10
0.7846421
20
123.3315597
11
0.7846421
21
124.2134597
0
LINE
8
DEFAULT_255_2_778
10
95.3290421
20
1.4118597
11
95.8936421
21
1.4118597
0
LINE
8
DEFAULT_255_2_778
10
95.8936421
20
1.4118597
11
96.1756421
21
1.4470597
0
LINE
8
DEFAULT_255_2_778
10
96.1756421
20
1.4470597
11
96.3870421
21
1.5176597
0
LINE
8
DEFAULT_255_2_778
10
96.3870421
20
1.5176597
11
96.5990421
21
1.5528597
0
LINE
8
DEFAULT_255_2_778
10
96.5990421
20
1.5528597
11
96.8104421
21
1.6941597
0
LINE
8
DEFAULT_255_2_778
10
96.8104421
20
1.6941597
11
96.8455421
21
1.7647597
0
LINE
8
DEFAULT_255_2_778
10
96.8455421
20
1.7647597
11
96.8455421
21
4.2693597
0
LINE
8
DEFAULT_255_2_778
10
96.8455421
20
4.2693597
11
95.3287421
21
4.2693597
0
LINE
8
DEFAULT_255_2_778
10
95.3287421
20
4.2693597
11
95.3287421
21
1.4121597
0
LINE
8
DEFAULT_255_2_778
10
95.3287421
20
1.4121597
11
95.2935421
21
1.2001597
0
LINE
8
DEFAULT_255_2_778
10
95.2935421
20
1.2001597
11
95.2229421
21
1.0236597
0
LINE
8
DEFAULT_255_2_778
10
95.2229421
20
1.0236597
11
95.0816421
21
0.9178597
0
LINE
8
DEFAULT_255_2_778
10
95.0816421
20
0.9178597
11
94.9405421
21
0.8472597
0
LINE
8
DEFAULT_255_2_778
10
94.9405421
20
0.8472597
11
94.8347421
21
0.8120597
0
LINE
8
DEFAULT_255_2_778
10
94.8347421
20
0.8120597
11
42.4829421
21
0.8120597
0
LINE
8
DEFAULT_255_2_778
10
42.4829421
20
0.8120597
11
42.4829421
21
4.2690597
0
LINE
8
DEFAULT_255_2_778
10
42.4829421
20
4.2690597
11
41.9890421
21
4.2690597
0
LINE
8
DEFAULT_255_2_778
10
41.9890421
20
4.2690597
11
41.9890421
21
98.2136597
0
LINE
8
DEFAULT_255_2_778
10
41.9890421
20
98.2136597
11
35.9215421
21
104.2815597
0
LINE
8
DEFAULT_255_2_778
10
35.9215421
20
104.2815597
11
35.9215421
21
123.3315597
0
LINE
8
DEFAULT_255_2_778
10
35.9215421
20
123.3315597
11
8.7927421
21
123.3315597
0
LINE
8
DEFAULT_255_2_778
10
8.7927421
20
123.3315597
11
8.7927421
21
4.2690597
0
LINE
8
DEFAULT_255_2_778
10
8.7927421
20
4.2690597
11
41.9890421
21
4.2690597
0
LINE
8
DEFAULT_255_2_778
10
41.9890421
20
4.2690597
11
41.9890421
21
0.8120597
0
LINE
8
DEFAULT_255_2_778
10
41.9890421
20
0.8120597
11
8.7927421
21
0.8120597
0
LINE
8
DEFAULT_255_2_778
10
8.7927421
20
0.8120597
11
8.7927421
21
-0.2463403
0
LINE
8
DEFAULT_255_2_778
10
8.7927421
20
-0.2463403
11
41.9890421
21
-0.2463403
0
LINE
8
DEFAULT_255_2_778
10
41.9890421
20
-0.2463403
11
41.9890421
21
0.8120597
0
LINE
8
DEFAULT_255_2_778
10
2.2663421
20
124.3544597
11
1.9842421
21
124.3544597
0
LINE
8
DEFAULT_255_2_778
10
1.9842421
20
124.3544597
11
1.7019421
21
124.3192597
0
LINE
8
DEFAULT_255_2_778
10
1.7019421
20
124.3192597
11
1.2079421
21
124.3192597
0
LINE
8
DEFAULT_255_2_778
10
1.2079421
20
124.3192597
11
1.0315421
21
124.2840597
0
LINE
8
DEFAULT_255_2_778
10
1.0315421
20
124.2840597
11
0.9256421
21
124.2840597
0
LINE
8
DEFAULT_255_2_778
10
0.9256421
20
124.2840597
11
0.8198421
21
124.2488597
0
LINE
8
DEFAULT_255_2_778
10
0.8198421
20
124.2488597
11
0.7846421
21
124.2136597
0
LINE
8
DEFAULT_255_2_778
10
0.7846421
20
124.2136597
11
0.9963421
21
125.3778597
0
LINE
8
DEFAULT_255_2_778
10
0.9963421
20
125.3778597
11
1.5609421
21
126.4007597
0
LINE
8
DEFAULT_255_2_778
10
1.5609421
20
126.4007597
11
2.4427421
21
127.1767597
0
LINE
8
DEFAULT_255_2_778
10
2.4427421
20
127.1767597
11
3.5363421
21
127.6355597
0
LINE
8
DEFAULT_255_2_778
10
3.5363421
20
127.6355597
11
4.2067421
21
127.7059597
0
LINE
8
DEFAULT_255_2_778
10
4.2067421
20
127.7059597
11
4.2067421
21
126.6475597
0
LINE
8
DEFAULT_255_2_778
10
0.8552421
20
4.0219597
11
0.8201421
21
4.2690597
0
LINE
8
DEFAULT_255_2_778
10
0.8201421
20
4.2690597
11
0.8201421
21
4.5511597
0
LINE
8
DEFAULT_255_2_778
10
0.8201421
20
4.5511597
11
0.7849421
21
4.8331597
0
LINE
8
DEFAULT_255_2_778
10
0.7849421
20
4.8331597
11
2.2665421
21
4.8331597
0
LINE
8
DEFAULT_255_2_778
10
0.7846421
20
4.8334597
11
0.7846421
21
123.3315597
0
LINE
8
DEFAULT_255_2_778
10
8.7930421
20
-0.2465403
11
5.6532421
21
-0.1759403
0
LINE
8
DEFAULT_255_2_778
10
4.2067421
20
127.7059597
11
8.7927421
21
127.8469597
0
LINE
8
DEFAULT_255_2_778
10
95.3292284
20
55.033692
11
85.8396284
21
55.033692
0
LINE
8
DEFAULT_255_2_778
10
85.8396284
20
55.033692
11
85.8396284
21
13.017792
0
LINE
8
DEFAULT_255_2_778
10
85.8396284
20
13.017792
11
95.3292284
21
13.017792
0
LINE
8
DEFAULT_255_2_778
10
95.3292284
20
13.017792
11
95.3292284
21
4.269092
0
LINE
8
DEFAULT_255_2_778
10
95.3292284
20
4.269092
11
91.2017284
21
4.269092
0
LINE
8
DEFAULT_255_2_778
10
91.2017284
20
4.269092
11
91.4136284
21
4.656992
0
LINE
8
DEFAULT_255_2_778
10
91.4136284
20
4.656992
11
91.4843284
21
5.080292
0
LINE
8
DEFAULT_255_2_778
10
91.4843284
20
5.080292
11
91.4136284
21
5.503692
0
LINE
8
DEFAULT_255_2_778
10
91.4136284
20
5.503692
11
91.2017284
21
5.891492
0
LINE
8
DEFAULT_255_2_778
10
91.2017284
20
5.891492
11
90.8845284
21
6.209292
0
LINE
8
DEFAULT_255_2_778
10
90.8845284
20
6.209292
11
90.4963284
21
6.385792
0
LINE
8
DEFAULT_255_2_778
10
90.4963284
20
6.385792
11
90.0732284
21
6.456392
0
LINE
8
DEFAULT_255_2_778
10
90.0732284
20
6.456392
11
89.6499284
21
6.385792
0
LINE
8
DEFAULT_255_2_778
10
89.6499284
20
6.385792
11
89.2618284
21
6.209292
0
LINE
8
DEFAULT_255_2_778
10
89.2618284
20
6.209292
11
88.9445284
21
5.891492
0
LINE
8
DEFAULT_255_2_778
10
88.9445284
20
5.891492
11
88.7326284
21
5.503692
0
LINE
8
DEFAULT_255_2_778
10
88.7326284
20
5.503692
11
88.6622284
21
5.080292
0
LINE
8
DEFAULT_255_2_778
10
88.6622284
20
5.080292
11
88.7326284
21
4.656992
0
LINE
8
DEFAULT_255_2_778
10
88.7326284
20
4.656992
11
88.9091284
21
4.269092
0
LINE
8
DEFAULT_255_2_778
10
88.9091284
20
4.269092
11
42.4832284
21
4.269092
0
LINE
8
DEFAULT_255_2_778
10
42.4832284
20
4.269092
11
42.4832284
21
98.425292
0
LINE
8
DEFAULT_255_2_778
10
42.4832284
20
98.425292
11
36.4152284
21
104.493292
0
LINE
8
DEFAULT_255_2_778
10
36.4152284
20
104.493292
11
36.4152284
21
123.331592
0
LINE
8
DEFAULT_255_2_778
10
36.4152284
20
123.331592
11
93.9179284
21
123.331592
0
LINE
8
DEFAULT_255_2_778
10
93.9179284
20
123.331592
11
95.3289284
21
119.556792
0
LINE
8
DEFAULT_255_2_778
10
95.3289284
20
119.556792
11
95.6467284
21
119.627492
0
LINE
8
DEFAULT_255_2_778
10
95.6467284
20
119.627492
11
95.8938284
21
119.662592
0
LINE
8
DEFAULT_255_2_778
10
95.8938284
20
119.662592
11
96.1759284
21
119.732992
0
LINE
8
DEFAULT_255_2_778
10
96.1759284
20
119.732992
11
96.5992284
21
119.803692
0
LINE
8
DEFAULT_255_2_778
10
96.5992284
20
119.803692
11
96.7050284
21
119.803692
0
LINE
8
DEFAULT_255_2_778
10
96.7050284
20
119.803692
11
96.8109284
21
119.838892
0
LINE
8
DEFAULT_255_2_778
10
96.8109284
20
119.838892
11
96.8460284
21
119.838892
0
LINE
8
DEFAULT_255_2_778
10
96.8460284
20
119.838892
11
95.3292284
21
123.860492
0
LINE
8
DEFAULT_255_2_778
10
95.3292284
20
123.860492
11
95.2940284
21
123.860492
0
LINE
8
DEFAULT_255_2_778
10
95.2940284
20
123.860492
11
95.2234284
21
123.825292
0
LINE
8
DEFAULT_255_2_778
10
95.2234284
20
123.825292
11
95.0821284
21
123.790092
0
LINE
8
DEFAULT_255_2_778
10
95.0821284
20
123.790092
11
94.9056284
21
123.719792
0
LINE
8
DEFAULT_255_2_778
10
94.9056284
20
123.719792
11
94.6942284
21
123.613892
0
LINE
8
DEFAULT_255_2_778
10
94.6942284
20
123.613892
11
94.4471284
21
123.543592
0
LINE
8
DEFAULT_255_2_778
10
94.4471284
20
123.543592
11
94.1999284
21
123.437692
0
LINE
8
DEFAULT_255_2_778
10
94.1999284
20
123.437692
11
93.9179284
21
123.331892
0
LINE
8
DEFAULT_255_2_778
10
93.9179284
20
123.331892
11
93.6007284
21
124.354992
0
LINE
8
DEFAULT_255_2_778
10
93.6007284
20
124.354992
11
93.2480284
21
125.378192
0
LINE
8
DEFAULT_255_2_778
10
93.2480284
20
125.378192
11
92.9302284
21
126.401292
0
LINE
8
DEFAULT_255_2_778
10
92.9302284
20
126.401292
11
93.6708284
21
126.612692
0
LINE
8
DEFAULT_255_2_778
10
93.6708284
20
126.612692
11
93.8827284
21
126.612692
0
LINE
8
DEFAULT_255_2_778
10
93.8827284
20
126.612692
11
94.0592284
21
126.647892
0
LINE
8
DEFAULT_255_2_778
10
94.0592284
20
126.647892
11
94.2002284
21
126.612692
0
LINE
8
DEFAULT_255_2_778
10
94.2002284
20
126.612692
11
94.2709284
21
126.577492
0
LINE
8
DEFAULT_255_2_778
10
94.2709284
20
126.577492
11
94.3063284
21
126.542292
0
LINE
8
DEFAULT_255_2_778
10
94.3063284
20
126.542292
11
94.6590284
21
125.660492
0
LINE
8
DEFAULT_255_2_778
10
94.6590284
20
125.660492
11
94.9762284
21
124.778592
0
LINE
8
DEFAULT_255_2_778
10
94.9762284
20
124.778592
11
95.3289284
21
123.861292
0
LINE
8
DEFAULT_255_2_778
10
91.2017284
20
4.269092
11
90.8845284
21
3.916392
0
LINE
8
DEFAULT_255_2_778
10
90.8845284
20
3.916392
11
90.4611284
21
3.704992
0
LINE
8
DEFAULT_255_2_778
10
90.4611284
20
3.704992
11
90.0026284
21
3.669592
0
LINE
8
DEFAULT_255_2_778
10
90.0026284
20
3.669592
11
89.5441284
21
3.775392
0
LINE
8
DEFAULT_255_2_778
10
89.5441284
20
3.775392
11
89.1559284
21
4.022492
0
LINE
8
DEFAULT_255_2_778
10
89.1559284
20
4.022492
11
88.9088284
21
4.269692
0
LINE
8
DEFAULT_255_2_778
10
92.9305284
20
126.400792
11
92.8598284
21
126.506592
0
LINE
8
DEFAULT_255_2_778
10
92.8598284
20
126.506592
11
92.7540284
21
126.647592
0
LINE
8
DEFAULT_255_2_778
10
92.7540284
20
126.647592
11
92.6127284
21
126.753492
0
LINE
8
DEFAULT_255_2_778
10
92.6127284
20
126.753492
11
36.4152284
21
126.753492
0
LINE
8
DEFAULT_255_2_778
10
36.4152284
20
126.753492
11
36.4152284
21
123.331392
0
LINE
8
DEFAULT_255_2_778
10
36.4152284
20
123.331392
11
35.9215284
21
123.331392
0
LINE
8
DEFAULT_255_2_778
10
35.9215284
20
123.331392
11
35.9215284
21
126.753492
0
LINE
8
DEFAULT_255_2_778
10
35.9215284
20
126.753492
11
8.7930284
21
126.753492
0
LINE
8
DEFAULT_255_2_778
10
8.7930284
20
126.753492
11
8.7930284
21
123.331392
0
LINE
8
DEFAULT_255_2_778
10
8.7930284
20
123.331392
11
2.2665284
21
123.331392
0
LINE
8
DEFAULT_255_2_778
10
2.2665284
20
123.331392
11
2.2665284
21
124.354492
0
LINE
8
DEFAULT_255_2_778
10
2.2665284
20
124.354492
11
2.3723284
21
125.095292
0
LINE
8
DEFAULT_255_2_778
10
2.3723284
20
125.095292
11
2.6901284
21
125.765492
0
LINE
8
DEFAULT_255_2_778
10
2.6901284
20
125.765492
11
3.2193284
21
126.294692
0
LINE
8
DEFAULT_255_2_778
10
3.2193284
20
126.294692
11
3.8188284
21
126.576992
0
LINE
8
DEFAULT_255_2_778
10
3.8188284
20
126.576992
11
4.2070284
21
126.647392
0
LINE
8
DEFAULT_255_2_778
10
4.2070284
20
126.647392
11
8.7930284
21
126.753192
0
LINE
8
DEFAULT_255_2_778
10
8.7930284
20
126.753192
11
8.7930284
21
127.846992
0
LINE
8
DEFAULT_255_2_778
10
8.7930284
20
127.846992
11
35.9218284
21
127.846992
0
LINE
8
DEFAULT_255_2_778
10
35.9218284
20
127.846992
11
35.9218284
21
126.753492
0
LINE
8
DEFAULT_255_2_778
10
95.3292284
20
13.017792
11
96.8460284
21
13.017792
0
LINE
8
DEFAULT_255_2_778
10
96.8460284
20
13.017792
11
96.8460284
21
4.269092
0
LINE
8
DEFAULT_255_2_778
10
96.8460284
20
1.764292
11
96.7050284
21
1.058692
0
LINE
8
DEFAULT_255_2_778
10
96.7050284
20
1.058692
11
96.3873284
21
0.458892
0
LINE
8
DEFAULT_255_2_778
10
96.3873284
20
0.458892
11
95.8581284
21
0.035492
0
LINE
8
DEFAULT_255_2_778
10
95.8581284
20
0.035492
11
95.2231284
21
-0.211608
0
LINE
8
DEFAULT_255_2_778
10
95.2231284
20
-0.211608
11
94.8352284
21
-0.246808
0
LINE
8
DEFAULT_255_2_778
10
94.8352284
20
-0.246808
11
94.8352284
21
0.811492
0
LINE
8
DEFAULT_255_2_778
10
92.4363455
20
126.7534597
11
92.4363455
21
127.8469597
0
LINE
8
DEFAULT_255_2_778
10
92.4363455
20
127.8469597
11
93.1067455
21
127.7411597
0
LINE
8
DEFAULT_255_2_778
10
93.1067455
20
127.7411597
11
93.6711455
21
127.4236597
0
LINE
8
DEFAULT_255_2_778
10
93.6711455
20
127.4236597
11
94.0944455
21
126.9648597
0
LINE
8
DEFAULT_255_2_778
10
94.0944455
20
126.9648597
11
94.3063455
21
126.5414597
0
LINE
8
DEFAULT_255_2_778
10
94.8355455
20
-0.2465403
11
42.4832455
21
-0.2465403
0
LINE
8
DEFAULT_255_2_778
10
42.4832455
20
-0.2465403
11
42.4832455
21
0.8117597
0
LINE
8
DEFAULT_255_2_778
10
36.4152858
20
126.753442
11
36.4152858
21
127.846942
0
LINE
8
DEFAULT_255_2_778
10
36.4152858
20
127.846942
11
92.4362858
21
127.846942
0
LINE
8
DEFAULT_255_2_778
10
90.9194858
20
3.951342
11
89.2260858
21
3.951342
0
LINE
8
DEFAULT_255_2_778
10
92.0483858
20
14.534642
11
92.0483858
21
17.674442
0
LINE
8
DEFAULT_255_2_778
10
92.0483858
20
50.235942
11
92.0483858
21
53.375742
0
LINE
8
DEFAULT_255_2_778
10
95.3292858
20
119.556442
11
95.3292858
21
55.033642
0
LINE
8
DEFAULT_255_2_778
10
95.3292858
20
55.033642
11
96.8460858
21
55.033642
0
LINE
8
DEFAULT_255_2_778
10
96.8460858
20
55.033642
11
96.8460858
21
119.838842
0
LINE
8
DEFAULT_255_2_778
10
96.8460858
20
119.838842
11
99.0333858
21
119.838842
0
LINE
8
DEFAULT_255_2_778
10
99.0333858
20
119.838842
11
100.0210858
21
121.320442
0
LINE
8
DEFAULT_255_2_778
10
100.0210858
20
121.320442
11
100.6208858
21
121.320442
0
LINE
8
DEFAULT_255_2_778
10
100.6208858
20
121.320442
11
100.7267858
21
121.285242
0
LINE
8
DEFAULT_255_2_778
10
100.7267858
20
121.285242
11
100.7973858
21
121.250042
0
LINE
8
DEFAULT_255_2_778
10
100.7973858
20
121.250042
11
100.9031858
21
121.179442
0
LINE
8
DEFAULT_255_2_778
10
100.9031858
20
121.179442
11
100.9386858
21
121.109042
0
LINE
8
DEFAULT_255_2_778
10
100.9386858
20
121.109042
11
101.0092858
21
121.038442
0
LINE
8
DEFAULT_255_2_778
10
101.0092858
20
121.038442
11
101.0444858
21
120.932542
0
LINE
8
DEFAULT_255_2_778
10
101.0444858
20
120.932542
11
101.0444858
21
116.522742
0
LINE
8
DEFAULT_255_2_778
10
101.0444858
20
116.522742
11
100.9386858
21
116.205042
0
LINE
8
DEFAULT_255_2_778
10
100.9386858
20
116.205042
11
100.8680858
21
116.099142
0
LINE
8
DEFAULT_255_2_778
10
100.8680858
20
116.099142
11
100.8328858
21
115.993342
0
LINE
8
DEFAULT_255_2_778
10
100.8328858
20
115.993342
11
100.7267858
21
115.922742
0
LINE
8
DEFAULT_255_2_778
10
100.7267858
20
115.922742
11
100.6563858
21
115.852042
0
LINE
8
DEFAULT_255_2_778
10
100.6563858
20
115.852042
11
98.1515858
21
113.841242
0
LINE
8
DEFAULT_255_2_778
10
98.1515858
20
113.841242
11
96.8460858
21
113.841242
0
LINE
8
DEFAULT_255_2_778
10
0.7848858
20
6.174042
11
0.2205858
21
6.174042
0
LINE
8
DEFAULT_255_2_778
10
0.2205858
20
6.174042
11
0.2205858
21
123.507742
0
LINE
8
DEFAULT_255_2_778
10
0.2205858
20
123.507742
11
0.7848858
21
123.507742
0
LINE
8
DEFAULT_255_2_778
10
0.1850858
20
102.341142
11
0.2202858
21
102.341142
0
LINE
8
DEFAULT_255_2_778
10
0.2202858
20
102.059042
11
0.1850858
21
102.059042
0
LINE
8
DEFAULT_255_2_778
10
42.4829858
20
0.070642
11
41.9889858
21
0.070642
0
LINE
8
DEFAULT_255_2_778
10
42.48292
20
0.9175264
11
41.98902
21
0.9175264
0
LINE
8
DEFAULT_255_2_778
10
36.41532
20
127.5294264
11
35.92152
21
127.5294264
0
LINE
8
DEFAULT_255_2_778
10
36.41532
20
126.6827264
11
35.92152
21
126.6827264
0
LINE
8
DEFAULT_255_2_778
10
96.84612
20
55.0336264
11
96.84612
21
13.0177264
0
LINE
8
DEFAULT_255_2_778
10
94.20032
20
55.0336264
11
94.20032
21
54.1517264
0
LINE
8
DEFAULT_255_2_778
10
94.20032
20
54.1517264
11
94.05922
21
53.7990264
0
LINE
8
DEFAULT_255_2_778
10
94.05922
20
53.7990264
11
93.91792
21
53.6580264
0
LINE
8
DEFAULT_255_2_778
10
93.91792
20
53.6580264
11
93.77692
21
53.5522264
0
LINE
8
DEFAULT_255_2_778
10
93.77692
20
53.5522264
11
93.60042
21
53.4463264
0
LINE
8
DEFAULT_255_2_778
10
93.60042
20
53.4463264
11
93.42402
21
53.3760264
0
LINE
8
DEFAULT_255_2_778
10
93.42402
20
53.3760264
11
88.73182
21
53.3760264
0
LINE
8
DEFAULT_255_2_778
10
88.73182
20
53.3760264
11
88.52042
21
53.3408264
0
LINE
8
DEFAULT_255_2_778
10
88.52042
20
53.3408264
11
88.34402
21
53.3056264
0
LINE
8
DEFAULT_255_2_778
10
88.34402
20
53.3056264
11
88.16752
21
53.1997264
0
LINE
8
DEFAULT_255_2_778
10
88.16752
20
53.1997264
11
88.02622
21
53.0939264
0
LINE
8
DEFAULT_255_2_778
10
88.02622
20
53.0939264
11
87.88522
21
52.9174264
0
LINE
8
DEFAULT_255_2_778
10
87.88522
20
52.9174264
11
87.81452
21
52.7764264
0
LINE
8
DEFAULT_255_2_778
10
87.81452
20
52.7764264
11
87.74392
21
52.5647264
0
LINE
8
DEFAULT_255_2_778
10
87.74392
20
52.5647264
11
87.74392
21
51.0479264
0
LINE
8
DEFAULT_255_2_778
10
87.74392
20
51.0479264
11
87.88522
21
50.6952264
0
LINE
8
DEFAULT_255_2_778
10
87.88522
20
50.6952264
11
88.02622
21
50.5187264
0
LINE
8
DEFAULT_255_2_778
10
88.02622
20
50.5187264
11
88.16752
21
50.4129264
0
LINE
8
DEFAULT_255_2_778
10
88.16752
20
50.4129264
11
88.34402
21
50.3071264
0
LINE
8
DEFAULT_255_2_778
10
88.34402
20
50.3071264
11
88.52042
21
50.2719264
0
LINE
8
DEFAULT_255_2_778
10
88.52042
20
50.2719264
11
88.73182
21
50.2367264
0
LINE
8
DEFAULT_255_2_778
10
88.73182
20
50.2367264
11
95.96372
21
50.2367264
0
LINE
8
DEFAULT_255_2_778
10
95.96372
20
50.2367264
11
96.31642
21
50.0957264
0
LINE
8
DEFAULT_255_2_778
10
96.31642
20
50.0957264
11
96.59902
21
49.8136264
0
LINE
8
DEFAULT_255_2_778
10
96.59902
20
49.8136264
11
96.74002
21
49.4609264
0
LINE
8
DEFAULT_255_2_778
10
96.74002
20
49.4609264
11
96.74002
21
18.4517264
0
LINE
8
DEFAULT_255_2_778
10
96.74002
20
18.4517264
11
96.59902
21
18.0991264
0
LINE
8
DEFAULT_255_2_778
10
96.59902
20
18.0991264
11
96.31642
21
17.8170264
0
LINE
8
DEFAULT_255_2_778
10
96.31642
20
17.8170264
11
95.96372
21
17.6757264
0
LINE
8
DEFAULT_255_2_778
10
95.96372
20
17.6757264
11
88.73182
21
17.6757264
0
LINE
8
DEFAULT_255_2_778
10
88.73182
20
17.6757264
11
88.52042
21
17.6405264
0
LINE
8
DEFAULT_255_2_778
10
88.52042
20
17.6405264
11
88.16782
21
17.4992264
0
LINE
8
DEFAULT_255_2_778
10
88.16782
20
17.4992264
11
87.88572
21
17.2172264
0
LINE
8
DEFAULT_255_2_778
10
87.88572
20
17.2172264
11
87.74442
21
16.8645264
0
LINE
8
DEFAULT_255_2_778
10
87.74442
20
16.8645264
11
87.74442
21
15.3477264
0
LINE
8
DEFAULT_255_2_778
10
87.74442
20
15.3477264
11
87.81512
21
15.1357264
0
LINE
8
DEFAULT_255_2_778
10
87.81512
20
15.1357264
11
87.88572
21
14.9592264
0
LINE
8
DEFAULT_255_2_778
10
87.88572
20
14.9592264
11
88.02672
21
14.8182264
0
LINE
8
DEFAULT_255_2_778
10
88.02672
20
14.8182264
11
88.16802
21
14.7121264
0
LINE
8
DEFAULT_255_2_778
10
88.16802
20
14.7121264
11
88.34452
21
14.6063264
0
LINE
8
DEFAULT_255_2_778
10
88.34452
20
14.6063264
11
88.52102
21
14.5357264
0
LINE
8
DEFAULT_255_2_778
10
88.52102
20
14.5357264
11
93.21262
21
14.5357264
0
LINE
8
DEFAULT_255_2_778
10
93.21262
20
14.5357264
11
93.42452
21
14.5005264
0
LINE
8
DEFAULT_255_2_778
10
93.42452
20
14.5005264
11
93.60102
21
14.4653264
0
LINE
8
DEFAULT_255_2_778
10
93.60102
20
14.4653264
11
93.77742
21
14.3592264
0
LINE
8
DEFAULT_255_2_778
10
93.77742
20
14.3592264
11
93.91852
21
14.2533264
0
LINE
8
DEFAULT_255_2_778
10
93.91852
20
14.2533264
11
94.05982
21
14.0769264
0
LINE
8
DEFAULT_255_2_778
10
94.05982
20
14.0769264
11
94.13042
21
13.9358264
0
LINE
8
DEFAULT_255_2_778
10
94.13042
20
13.9358264
11
94.20082
21
13.7239264
0
LINE
8
DEFAULT_255_2_778
10
94.20082
20
13.7239264
11
94.20082
21
13.0177264
0
LINE
8
DEFAULT_255_2_778
10
101.04422
20
10.7603264
11
101.04422
21
11.7480264
0
LINE
8
DEFAULT_255_2_778
10
101.04422
20
11.7480264
11
96.84612
21
11.7480264
0
LINE
8
DEFAULT_255_2_778
10
96.84612
20
4.7627264
11
100.23302
21
4.7627264
0
LINE
8
DEFAULT_255_2_778
10
100.23302
20
4.7627264
11
100.40952
21
4.8331264
0
LINE
8
DEFAULT_255_2_778
10
100.40952
20
4.8331264
11
100.58602
21
4.9392264
0
LINE
8
DEFAULT_255_2_778
10
100.58602
20
4.9392264
11
100.72702
21
5.0450264
0
LINE
8
DEFAULT_255_2_778
10
100.72702
20
5.0450264
11
100.86832
21
5.1861264
0
LINE
8
DEFAULT_255_2_778
10
100.86832
20
5.1861264
11
100.97412
21
5.3625264
0
LINE
8
DEFAULT_255_2_778
10
100.97412
20
5.3625264
11
101.00962
21
5.5745264
0
LINE
8
DEFAULT_255_2_778
10
101.00962
20
5.5745264
11
101.04482
21
5.7510264
0
LINE
8
DEFAULT_255_2_778
10
101.04482
20
5.7510264
11
101.04482
21
10.7606264
0
LINE
8
DEFAULT_255_2_778
10
101.04482
20
10.7606264
11
96.84662
21
10.7606264
0
LINE
8
DEFAULT_255_2_778
10
16.09552
20
112.3598264
11
16.09552
21
113.8769264
0
LINE
8
DEFAULT_255_2_778
10
16.09552
20
116.9106264
11
16.09552
21
118.4277264
0
LINE
8
DEFAULT_255_2_778
10
10.13342
20
118.4277264
11
19.58802
21
118.4277264
0
LINE
8
DEFAULT_255_2_778
10
19.58802
20
118.4277264
11
19.87012
21
118.3925264
0
LINE
8
DEFAULT_255_2_778
10
19.87012
20
118.3925264
11
20.15242
21
118.2161264
0
LINE
8
DEFAULT_255_2_778
10
20.15242
20
118.2161264
11
20.29342
21
117.9689264
0
LINE
8
DEFAULT_255_2_778
10
20.29342
20
117.9689264
11
20.36402
21
117.6869264
0
LINE
8
DEFAULT_255_2_778
10
20.36402
20
117.6869264
11
20.29342
21
117.4046264
0
LINE
8
DEFAULT_255_2_778
10
20.29342
20
117.4046264
11
20.15242
21
117.1575264
0
LINE
8
DEFAULT_255_2_778
10
20.15242
20
117.1575264
11
19.87012
21
116.9810264
0
LINE
8
DEFAULT_255_2_778
10
19.87012
20
116.9810264
11
19.58802
21
116.9103264
0
LINE
8
DEFAULT_255_2_778
10
19.58802
20
116.9103264
11
11.65052
21
116.9103264
0
LINE
8
DEFAULT_255_2_778
10
11.65052
20
116.9103264
11
11.65052
21
113.8769264
0
LINE
8
DEFAULT_255_2_778
10
11.65052
20
113.8769264
11
19.58802
21
113.8769264
0
LINE
8
DEFAULT_255_2_778
10
19.58802
20
113.8769264
11
19.87012
21
113.8063264
0
LINE
8
DEFAULT_255_2_778
10
19.87012
20
113.8063264
11
20.15242
21
113.6298264
0
LINE
8
DEFAULT_255_2_778
10
20.15242
20
113.6298264
11
20.29342
21
113.3827264
0
LINE
8
DEFAULT_255_2_778
10
20.29342
20
113.3827264
11
20.36402
21
113.1006264
0
LINE
8
DEFAULT_255_2_778
10
20.36402
20
113.1006264
11
20.29342
21
112.8186264
0
LINE
8
DEFAULT_255_2_778
10
20.29342
20
112.8186264
11
20.15242
21
112.5714264
0
LINE
8
DEFAULT_255_2_778
10
20.15242
20
112.5714264
11
19.87012
21
112.3950264
0
LINE
8
DEFAULT_255_2_778
10
19.87012
20
112.3950264
11
19.58802
21
112.3598264
0
LINE
8
DEFAULT_255_2_778
10
19.58802
20
112.3598264
11
10.13342
21
112.3598264
0
LINE
8
DEFAULT_255_2_778
10
10.13342
20
112.3598264
11
10.13342
21
118.4277264
0
LINE
8
DEFAULT_255_2_778
10
13.6262182
20
86.3251203
11
13.6262182
21
87.8419203
0
LINE
8
DEFAULT_255_2_778
10
13.6262182
20
90.8759203
11
13.6262182
21
92.3928203
0
LINE
8
DEFAULT_255_2_778
10
10.1334182
20
86.3251203
11
19.5880182
21
86.3251203
0
LINE
8
DEFAULT_255_2_778
10
19.5880182
20
86.3251203
11
19.8701182
21
86.3603203
0
LINE
8
DEFAULT_255_2_778
10
19.8701182
20
86.3603203
11
20.1524182
21
86.5367203
0
LINE
8
DEFAULT_255_2_778
10
20.1524182
20
86.5367203
11
20.2934182
21
86.7836203
0
LINE
8
DEFAULT_255_2_778
10
20.2934182
20
86.7836203
11
20.3640182
21
87.0659203
0
LINE
8
DEFAULT_255_2_778
10
20.3640182
20
87.0659203
11
20.2934182
21
87.3834203
0
LINE
8
DEFAULT_255_2_778
10
20.2934182
20
87.3834203
11
20.1524182
21
87.6303203
0
LINE
8
DEFAULT_255_2_778
10
20.1524182
20
87.6303203
11
19.8701182
21
87.7716203
0
LINE
8
DEFAULT_255_2_778
10
19.8701182
20
87.7716203
11
19.5880182
21
87.8419203
0
LINE
8
DEFAULT_255_2_778
10
19.5880182
20
87.8419203
11
11.6505182
21
87.8419203
0
LINE
8
DEFAULT_255_2_778
10
11.6505182
20
87.8419203
11
11.6505182
21
90.8759203
0
LINE
8
DEFAULT_255_2_778
10
11.6505182
20
90.8759203
11
19.5880182
21
90.8759203
0
LINE
8
DEFAULT_255_2_778
10
19.5880182
20
90.8759203
11
19.8701182
21
90.9466203
0
LINE
8
DEFAULT_255_2_778
10
19.8701182
20
90.9466203
11
20.1524182
21
91.1230203
0
LINE
8
DEFAULT_255_2_778
10
20.1524182
20
91.1230203
11
20.2934182
21
91.3699203
0
LINE
8
DEFAULT_255_2_778
10
20.2934182
20
91.3699203
11
20.3640182
21
91.6522203
0
LINE
8
DEFAULT_255_2_778
10
20.3640182
20
91.6522203
11
20.2934182
21
91.9342203
0
LINE
8
DEFAULT_255_2_778
10
20.2934182
20
91.9342203
11
20.1524182
21
92.1814203
0
LINE
8
DEFAULT_255_2_778
10
20.1524182
20
92.1814203
11
19.8701182
21
92.3578203
0
LINE
8
DEFAULT_255_2_778
10
19.8701182
20
92.3578203
11
19.5880182
21
92.3930203
0
LINE
8
DEFAULT_255_2_778
10
19.5880182
20
92.3930203
11
10.1334182
21
92.3930203
0
LINE
8
DEFAULT_255_2_778
10
10.1334182
20
92.3930203
11
10.1334182
21
86.3251203
0
LINE
8
DEFAULT_255_2_778
10
46.0109182
20
6.8440203
11
46.1167182
21
6.8440203
0
LINE
8
DEFAULT_255_2_778
10
46.1167182
20
6.8440203
11
46.1167182
21
23.8480203
0
LINE
8
DEFAULT_255_2_778
10
46.1167182
20
23.8480203
11
46.0109182
21
23.8480203
0
LINE
8
DEFAULT_255_2_778
10
46.1167182
20
6.8440203
11
46.5049182
21
6.8440203
0
LINE
8
DEFAULT_255_2_778
10
46.5049182
20
6.8440203
11
46.5049182
21
23.8480203
0
LINE
8
DEFAULT_255_2_778
10
46.5049182
20
23.8480203
11
46.1167182
21
23.8480203
0
LINE
8
DEFAULT_255_2_778
10
47.9162182
20
23.9186203
11
47.9162182
21
6.7381203
0
LINE
8
DEFAULT_255_2_778
10
47.9162182
20
6.7381203
11
46.0109182
21
6.7030203
0
LINE
8
DEFAULT_255_2_778
10
46.0109182
20
6.7030203
11
46.0109182
21
23.9535203
0
LINE
8
DEFAULT_255_2_778
10
46.0109182
20
23.9535203
11
47.9162182
21
23.9186203
0
LINE
8
DEFAULT_255_2_778
10
47.9162182
20
23.8480203
11
46.5051182
21
23.8480203
0
LINE
8
DEFAULT_255_2_778
10
47.9162182
20
6.8440203
11
46.5051182
21
6.8440203
0
LINE
8
DEFAULT_255_2_778
10
41.8125182
20
105.8336203
11
40.4369182
21
105.8336203
0
LINE
8
DEFAULT_255_2_778
10
40.4369182
20
105.8336203
11
40.4369182
21
122.8376203
0
LINE
8
DEFAULT_255_2_778
10
40.4369182
20
122.8376203
11
41.8125182
21
122.8376203
0
LINE
8
DEFAULT_255_2_778
10
40.4369182
20
105.8336203
11
40.0136182
21
105.8336203
0
LINE
8
DEFAULT_255_2_778
10
40.0136182
20
105.8336203
11
40.0136182
21
122.8376203
0
LINE
8
DEFAULT_255_2_778
10
40.0136182
20
122.8376203
11
40.4369182
21
122.8376203
0
LINE
8
DEFAULT_255_2_778
10
39.9429182
20
105.6926203
11
41.8125182
21
105.7278203
0
LINE
8
DEFAULT_255_2_778
10
41.8125182
20
105.7278203
11
41.8125182
21
122.9434203
0
LINE
8
DEFAULT_255_2_778
10
41.8125182
20
122.9434203
11
39.9429182
21
122.9786203
0
LINE
8
DEFAULT_255_2_778
10
39.9429182
20
122.9786203
11
39.9429182
21
105.6926203
0
LINE
8
DEFAULT_255_2_778
10
40.0136182
20
105.8336203
11
39.9429182
21
105.8336203
0
LINE
8
DEFAULT_255_2_778
10
40.0136182
20
122.8376203
11
39.9429182
21
122.8376203
0
ENDSEC
0
EOF