0
SECTION
2
HEADER
9
$MEASUREMENT
70
1
0
ENDSEC
0
SECTION
2
TABLES
0
TABLE
2
LTYPE
0
LTYPE
72
65
70
64
2
CONTINUOUS
3
______
73
0
40
0
0
ENDTAB
0
TABLE
2
LAYER
0
LAYER
2
DEFAULT_255_2_778
70
0
62
255
6
CONTINUOUS
0
ENDTAB
0
ENDSEC
0
SECTION
2
ENTITIES
0
LINE
8
DEFAULT_255_2_778
10
96.8460098
20
2.5398597
11
97.4458098
21
2.5398597
0
LINE
8
DEFAULT_255_2_778
10
97.4458098
20
2.5398597
11
97.4458098
21
2.4695597
0
LINE
8
DEFAULT_255_2_778
10
97.4458098
20
2.4695597
11
97.4813098
21
2.4340597
0
LINE
8
DEFAULT_255_2_778
10
97.4813098
20
2.4340597
11
97.4813098
21
2.3634597
0
LINE
8
DEFAULT_255_2_778
10
97.4813098
20
2.3634597
11
97.5517098
21
2.2930597
0
LINE
8
DEFAULT_255_2_778
10
97.5517098
20
2.2930597
11
97.5871098
21
2.2930597
0
LINE
8
DEFAULT_255_2_778
10
97.5871098
20
2.2930597
11
97.6578098
21
2.2575597
0
LINE
8
DEFAULT_255_2_778
10
97.6578098
20
2.2575597
11
100.6915098
21
2.2575597
0
LINE
8
DEFAULT_255_2_778
10
100.6915098
20
2.2575597
11
99.6683098
21
0.5290597
0
LINE
8
DEFAULT_255_2_778
10
99.6683098
20
0.5290597
11
99.6332098
21
0.4584597
0
LINE
8
DEFAULT_255_2_778
10
99.6332098
20
0.4584597
11
99.6332098
21
0.3173597
0
LINE
8
DEFAULT_255_2_778
10
99.6332098
20
0.3173597
11
99.6683098
21
0.2821597
0
LINE
8
DEFAULT_255_2_778
10
99.6683098
20
0.2821597
11
99.7038098
21
0.2115597
0
LINE
8
DEFAULT_255_2_778
10
99.7038098
20
0.2115597
11
99.7744098
21
0.1763597
0
LINE
8
DEFAULT_255_2_778
10
99.7744098
20
0.1763597
11
99.8096098
21
0.1409597
0
LINE
8
DEFAULT_255_2_778
10
99.8096098
20
0.1409597
11
101.3265098
21
0.1409597
0
LINE
8
DEFAULT_255_2_778
10
101.3265098
20
0.1409597
11
101.3971098
21
0.1763597
0
LINE
8
DEFAULT_255_2_778
10
101.3971098
20
0.1763597
11
101.4323098
21
0.1763597
0
LINE
8
DEFAULT_255_2_778
10
101.4323098
20
0.1763597
11
101.4678098
21
0.2115597
0
LINE
8
DEFAULT_255_2_778
10
101.4678098
20
0.2115597
11
101.5384098
21
0.2115597
0
LINE
8
DEFAULT_255_2_778
10
101.5384098
20
0.2115597
11
104.2194098
21
2.8925597
0
LINE
8
DEFAULT_255_2_778
10
104.2194098
20
2.8925597
11
104.2194098
21
2.9280597
0
LINE
8
DEFAULT_255_2_778
10
104.2194098
20
2.9280597
11
104.2546098
21
2.9986597
0
LINE
8
DEFAULT_255_2_778
10
104.2546098
20
2.9986597
11
104.2901098
21
3.0338597
0
LINE
8
DEFAULT_255_2_778
10
104.2901098
20
3.0338597
11
104.2901098
21
3.0690597
0
LINE
8
DEFAULT_255_2_778
10
104.2901098
20
3.0690597
11
104.3253098
21
3.1396597
0
LINE
8
DEFAULT_255_2_778
10
104.3253098
20
3.1396597
11
104.3253098
21
5.5032597
0
LINE
8
DEFAULT_255_2_778
10
104.3253098
20
5.5032597
11
101.0093098
21
5.5032597
0
LINE
8
DEFAULT_255_2_778
10
5.6529098
20
0.9171597
11
5.6529098
21
-0.1763403
0
LINE
8
DEFAULT_255_2_778
10
5.6529098
20
-0.1763403
11
4.8766098
21
-0.0704403
0
LINE
8
DEFAULT_255_2_778
10
4.8766098
20
-0.0704403
11
4.0654098
21
0.1409597
0
LINE
8
DEFAULT_255_2_778
10
4.0654098
20
0.1409597
11
3.3246098
21
0.4935597
0
LINE
8
DEFAULT_255_2_778
10
3.3246098
20
0.4935597
11
2.6544098
21
0.9521597
0
LINE
8
DEFAULT_255_2_778
10
2.6544098
20
0.9521597
11
2.0546098
21
1.5167597
0
LINE
8
DEFAULT_255_2_778
10
2.0546098
20
1.5167597
11
1.5254098
21
2.2223597
0
LINE
8
DEFAULT_255_2_778
10
1.5254098
20
2.2223597
11
1.1727098
21
2.9632597
0
LINE
8
DEFAULT_255_2_778
10
1.1727098
20
2.9632597
11
0.9259098
21
3.7744597
0
LINE
8
DEFAULT_255_2_778
10
0.9259098
20
3.7744597
11
0.8552098
21
4.0215597
0
LINE
8
DEFAULT_255_2_778
10
0.8552098
20
4.0215597
11
0.9610098
21
4.0215597
0
LINE
8
DEFAULT_255_2_778
10
0.9610098
20
4.0215597
11
1.1023098
21
4.0570597
0
LINE
8
DEFAULT_255_2_778
10
1.1023098
20
4.0570597
11
1.2788098
21
4.0921597
0
LINE
8
DEFAULT_255_2_778
10
1.2788098
20
4.0921597
11
1.7373098
21
4.1628597
0
LINE
8
DEFAULT_255_2_778
10
1.7373098
20
4.1628597
11
2.0194098
21
4.1980597
0
LINE
8
DEFAULT_255_2_778
10
2.0194098
20
4.1980597
11
2.3017098
21
4.2686597
0
LINE
8
DEFAULT_255_2_778
10
2.3017098
20
4.2686597
11
8.7927098
21
4.2686597
0
LINE
8
DEFAULT_255_2_778
10
8.7927098
20
4.2686597
11
8.7927098
21
0.8113597
0
LINE
8
DEFAULT_255_2_778
10
8.7927098
20
0.8113597
11
5.6532098
21
0.9171597
0
LINE
8
DEFAULT_255_2_778
10
5.6532098
20
0.9171597
11
4.5242098
21
1.1643597
0
LINE
8
DEFAULT_255_2_778
10
4.5242098
20
1.1643597
11
3.5365098
21
1.7993597
0
LINE
8
DEFAULT_255_2_778
10
3.5365098
20
1.7993597
11
2.7957098
21
2.8224597
0
LINE
8
DEFAULT_255_2_778
10
2.7957098
20
2.8224597
11
2.3371098
21
4.0924597
0
LINE
8
DEFAULT_255_2_778
10
2.3371098
20
4.0924597
11
2.2665098
21
4.4451597
0
LINE
8
DEFAULT_255_2_778
10
2.2665098
20
4.4451597
11
2.2665098
21
123.3311597
0
LINE
8
DEFAULT_255_2_778
10
2.2665098
20
123.3311597
11
0.7848098
21
123.3311597
0
LINE
8
DEFAULT_255_2_778
10
0.7848098
20
123.3311597
11
0.7848098
21
124.2130597
0
LINE
8
DEFAULT_255_2_778
10
95.3289098
20
1.4111597
11
95.8935098
21
1.4111597
0
LINE
8
DEFAULT_255_2_778
10
95.8935098
20
1.4111597
11
96.1756098
21
1.4463597
0
LINE
8
DEFAULT_255_2_778
10
96.1756098
20
1.4463597
11
96.3870098
21
1.5170597
0
LINE
8
DEFAULT_255_2_778
10
96.3870098
20
1.5170597
11
96.5989098
21
1.5521597
0
LINE
8
DEFAULT_255_2_778
10
96.5989098
20
1.5521597
11
96.8103098
21
1.6934597
0
LINE
8
DEFAULT_255_2_778
10
96.8103098
20
1.6934597
11
96.8455098
21
1.7641597
0
LINE
8
DEFAULT_255_2_778
10
96.8455098
20
1.7641597
11
96.8455098
21
4.2686597
0
LINE
8
DEFAULT_255_2_778
10
96.8455098
20
4.2686597
11
95.3287098
21
4.2686597
0
LINE
8
DEFAULT_255_2_778
10
95.3287098
20
4.2686597
11
95.3287098
21
1.4111597
0
LINE
8
DEFAULT_255_2_778
10
95.3287098
20
1.4111597
11
95.2935098
21
1.1992597
0
LINE
8
DEFAULT_255_2_778
10
95.2935098
20
1.1992597
11
95.2228098
21
1.0227597
0
LINE
8
DEFAULT_255_2_778
10
95.2228098
20
1.0227597
11
95.0815098
21
0.9169597
0
LINE
8
DEFAULT_255_2_778
10
95.0815098
20
0.9169597
11
94.9407098
21
0.8462597
0
LINE
8
DEFAULT_255_2_778
10
94.9407098
20
0.8462597
11
94.8349098
21
0.8110597
0
LINE
8
DEFAULT_255_2_778
10
94.8349098
20
0.8110597
11
42.4829098
21
0.8110597
0
LINE
8
DEFAULT_255_2_778
10
42.4829098
20
0.8110597
11
42.4829098
21
4.2681597
0
LINE
8
DEFAULT_255_2_778
10
42.4829098
20
4.2681597
11
41.9889098
21
4.2681597
0
LINE
8
DEFAULT_255_2_778
10
41.9889098
20
4.2681597
11
41.9889098
21
98.2132597
0
LINE
8
DEFAULT_255_2_778
10
41.9889098
20
98.2132597
11
35.9215098
21
104.2811597
0
LINE
8
DEFAULT_255_2_778
10
35.9215098
20
104.2811597
11
35.9215098
21
123.3311597
0
LINE
8
DEFAULT_255_2_778
10
35.9215098
20
123.3311597
11
8.7927098
21
123.3311597
0
LINE
8
DEFAULT_255_2_778
10
8.7927098
20
123.3311597
11
8.7927098
21
4.2686597
0
LINE
8
DEFAULT_255_2_778
10
8.7927098
20
4.2686597
11
41.9889098
21
4.2686597
0
LINE
8
DEFAULT_255_2_778
10
41.9889098
20
4.2686597
11
41.9889098
21
0.8116597
0
LINE
8
DEFAULT_255_2_778
10
41.9889098
20
0.8116597
11
8.7927098
21
0.8116597
0
LINE
8
DEFAULT_255_2_778
10
8.7927098
20
0.8116597
11
8.7927098
21
-0.2467403
0
LINE
8
DEFAULT_255_2_778
10
8.7927098
20
-0.2467403
11
41.9889098
21
-0.2467403
0
LINE
8
DEFAULT_255_2_778
10
41.9889098
20
-0.2467403
11
41.9889098
21
0.8116597
0
LINE
8
DEFAULT_255_2_778
10
2.2662098
20
124.3540597
11
1.9842098
21
124.3540597
0
LINE
8
DEFAULT_255_2_778
10
1.9842098
20
124.3540597
11
1.7019098
21
124.3188597
0
LINE
8
DEFAULT_255_2_778
10
1.7019098
20
124.3188597
11
1.2079098
21
124.3188597
0
LINE
8
DEFAULT_255_2_778
10
1.2079098
20
124.3188597
11
1.0314098
21
124.2836597
0
LINE
8
DEFAULT_255_2_778
10
1.0314098
20
124.2836597
11
0.9256098
21
124.2836597
0
LINE
8
DEFAULT_255_2_778
10
0.9256098
20
124.2836597
11
0.8198098
21
124.2484597
0
LINE
8
DEFAULT_255_2_778
10
0.8198098
20
124.2484597
11
0.7843098
21
124.2132597
0
LINE
8
DEFAULT_255_2_778
10
0.7843098
20
124.2132597
11
0.9960098
21
125.3774597
0
LINE
8
DEFAULT_255_2_778
10
0.9960098
20
125.3774597
11
1.5609098
21
126.4003597
0
LINE
8
DEFAULT_255_2_778
10
1.5609098
20
126.4003597
11
2.4427098
21
127.1763597
0
LINE
8
DEFAULT_255_2_778
10
2.4427098
20
127.1763597
11
3.5362098
21
127.6351597
0
LINE
8
DEFAULT_255_2_778
10
3.5362098
20
127.6351597
11
4.2067098
21
127.7055597
0
LINE
8
DEFAULT_255_2_778
10
4.2067098
20
127.7055597
11
4.2067098
21
126.6471597
0
LINE
8
DEFAULT_255_2_778
10
0.8552098
20
4.0215597
11
0.8200098
21
4.2686597
0
LINE
8
DEFAULT_255_2_778
10
0.8200098
20
4.2686597
11
0.8200098
21
4.5507597
0
LINE
8
DEFAULT_255_2_778
10
0.8200098
20
4.5507597
11
0.7848098
21
4.8327597
0
LINE
8
DEFAULT_255_2_778
10
0.7848098
20
4.8327597
11
2.2665098
21
4.8327597
0
LINE
8
DEFAULT_255_2_778
10
0.7846098
20
4.8330597
11
0.7846098
21
123.3311597
0
LINE
8
DEFAULT_255_2_778
10
8.7930098
20
-0.2469403
11
5.6534098
21
-0.1763403
0
LINE
8
DEFAULT_255_2_778
10
4.2067098
20
127.7055597
11
8.7927098
21
127.8465597
0
LINE
8
DEFAULT_255_2_778
10
95.3292284
20
55.0332597
11
85.8396284
21
55.0332597
0
LINE
8
DEFAULT_255_2_778
10
85.8396284
20
55.0332597
11
85.8396284
21
13.0173597
0
LINE
8
DEFAULT_255_2_778
10
85.8396284
20
13.0173597
11
95.3292284
21
13.0173597
0
LINE
8
DEFAULT_255_2_778
10
95.3292284
20
13.0173597
11
95.3292284
21
4.2686597
0
LINE
8
DEFAULT_255_2_778
10
95.3292284
20
4.2686597
11
91.2017284
21
4.2686597
0
LINE
8
DEFAULT_255_2_778
10
91.2017284
20
4.2686597
11
91.4136284
21
4.6565597
0
LINE
8
DEFAULT_255_2_778
10
91.4136284
20
4.6565597
11
91.4843284
21
5.0798597
0
LINE
8
DEFAULT_255_2_778
10
91.4843284
20
5.0798597
11
91.4136284
21
5.5032597
0
LINE
8
DEFAULT_255_2_778
10
91.4136284
20
5.5032597
11
91.2017284
21
5.8910597
0
LINE
8
DEFAULT_255_2_778
10
91.2017284
20
5.8910597
11
90.8845284
21
6.2085597
0
LINE
8
DEFAULT_255_2_778
10
90.8845284
20
6.2085597
11
90.4960284
21
6.3850597
0
LINE
8
DEFAULT_255_2_778
10
90.4960284
20
6.3850597
11
90.0730284
21
6.4557597
0
LINE
8
DEFAULT_255_2_778
10
90.0730284
20
6.4557597
11
89.6496284
21
6.3850597
0
LINE
8
DEFAULT_255_2_778
10
89.6496284
20
6.3850597
11
89.2615284
21
6.2085597
0
LINE
8
DEFAULT_255_2_778
10
89.2615284
20
6.2085597
11
88.9443284
21
5.8910597
0
LINE
8
DEFAULT_255_2_778
10
88.9443284
20
5.8910597
11
88.7323284
21
5.5032597
0
LINE
8
DEFAULT_255_2_778
10
88.7323284
20
5.5032597
11
88.6620284
21
5.0798597
0
LINE
8
DEFAULT_255_2_778
10
88.6620284
20
5.0798597
11
88.7323284
21
4.6565597
0
LINE
8
DEFAULT_255_2_778
10
88.7323284
20
4.6565597
11
88.9088284
21
4.2686597
0
LINE
8
DEFAULT_255_2_778
10
88.9088284
20
4.2686597
11
42.4832284
21
4.2686597
0
LINE
8
DEFAULT_255_2_778
10
42.4832284
20
4.2686597
11
42.4832284
21
98.4248597
0
LINE
8
DEFAULT_255_2_778
10
42.4832284
20
98.4248597
11
36.4152284
21
104.4928597
0
LINE
8
DEFAULT_255_2_778
10
36.4152284
20
104.4928597
11
36.4152284
21
123.3311597
0
LINE
8
DEFAULT_255_2_778
10
36.4152284
20
123.3311597
11
93.9179284
21
123.3311597
0
LINE
8
DEFAULT_255_2_778
10
93.9179284
20
123.3311597
11
95.3289284
21
119.5563597
0
LINE
8
DEFAULT_255_2_778
10
95.3289284
20
119.5563597
11
95.6467284
21
119.6270597
0
LINE
8
DEFAULT_255_2_778
10
95.6467284
20
119.6270597
11
95.8938284
21
119.6624597
0
LINE
8
DEFAULT_255_2_778
10
95.8938284
20
119.6624597
11
96.1759284
21
119.7328597
0
LINE
8
DEFAULT_255_2_778
10
96.1759284
20
119.7328597
11
96.5992284
21
119.8034597
0
LINE
8
DEFAULT_255_2_778
10
96.5992284
20
119.8034597
11
96.7050284
21
119.8034597
0
LINE
8
DEFAULT_255_2_778
10
96.7050284
20
119.8034597
11
96.8109284
21
119.8386597
0
LINE
8
DEFAULT_255_2_778
10
96.8109284
20
119.8386597
11
96.8460284
21
119.8386597
0
LINE
8
DEFAULT_255_2_778
10
96.8460284
20
119.8386597
11
95.3292284
21
123.8603597
0
LINE
8
DEFAULT_255_2_778
10
95.3292284
20
123.8603597
11
95.2940284
21
123.8603597
0
LINE
8
DEFAULT_255_2_778
10
95.2940284
20
123.8603597
11
95.2234284
21
123.8251597
0
LINE
8
DEFAULT_255_2_778
10
95.2234284
20
123.8251597
11
95.0821284
21
123.7899597
0
LINE
8
DEFAULT_255_2_778
10
95.0821284
20
123.7899597
11
94.9056284
21
123.7195597
0
LINE
8
DEFAULT_255_2_778
10
94.9056284
20
123.7195597
11
94.6939284
21
123.6137597
0
LINE
8
DEFAULT_255_2_778
10
94.6939284
20
123.6137597
11
94.4468284
21
123.5433597
0
LINE
8
DEFAULT_255_2_778
10
94.4468284
20
123.5433597
11
94.1997284
21
123.4375597
0
LINE
8
DEFAULT_255_2_778
10
94.1997284
20
123.4375597
11
93.9176284
21
123.3317597
0
LINE
8
DEFAULT_255_2_778
10
93.9176284
20
123.3317597
11
93.6004284
21
124.3548597
0
LINE
8
DEFAULT_255_2_778
10
93.6004284
20
124.3548597
11
93.2477284
21
125.3779597
0
LINE
8
DEFAULT_255_2_778
10
93.2477284
20
125.3779597
11
92.9302284
21
126.4011597
0
LINE
8
DEFAULT_255_2_778
10
92.9302284
20
126.4011597
11
93.6708284
21
126.6125597
0
LINE
8
DEFAULT_255_2_778
10
93.6708284
20
126.6125597
11
93.8827284
21
126.6125597
0
LINE
8
DEFAULT_255_2_778
10
93.8827284
20
126.6125597
11
94.0592284
21
126.6477597
0
LINE
8
DEFAULT_255_2_778
10
94.0592284
20
126.6477597
11
94.1999284
21
126.6125597
0
LINE
8
DEFAULT_255_2_778
10
94.1999284
20
126.6125597
11
94.2706284
21
126.5773597
0
LINE
8
DEFAULT_255_2_778
10
94.2706284
20
126.5773597
11
94.3060284
21
126.5421597
0
LINE
8
DEFAULT_255_2_778
10
94.3060284
20
126.5421597
11
94.6587284
21
125.6602597
0
LINE
8
DEFAULT_255_2_778
10
94.6587284
20
125.6602597
11
94.9760284
21
124.7784597
0
LINE
8
DEFAULT_255_2_778
10
94.9760284
20
124.7784597
11
95.3287284
21
123.8611597
0
LINE
8
DEFAULT_255_2_778
10
91.2017284
20
4.2686597
11
90.8845284
21
3.9159597
0
LINE
8
DEFAULT_255_2_778
10
90.8845284
20
3.9159597
11
90.4611284
21
3.7045597
0
LINE
8
DEFAULT_255_2_778
10
90.4611284
20
3.7045597
11
90.0026284
21
3.6691597
0
LINE
8
DEFAULT_255_2_778
10
90.0026284
20
3.6691597
11
89.5441284
21
3.7749597
0
LINE
8
DEFAULT_255_2_778
10
89.5441284
20
3.7749597
11
89.1559284
21
4.0220597
0
LINE
8
DEFAULT_255_2_778
10
89.1559284
20
4.0220597
11
88.9088284
21
4.2692597
0
LINE
8
DEFAULT_255_2_778
10
92.9305284
20
126.4003597
11
92.8598284
21
126.5061597
0
LINE
8
DEFAULT_255_2_778
10
92.8598284
20
126.5061597
11
92.7540284
21
126.6471597
0
LINE
8
DEFAULT_255_2_778
10
92.7540284
20
126.6471597
11
92.6127284
21
126.7530597
0
LINE
8
DEFAULT_255_2_778
10
92.6127284
20
126.7530597
11
36.4152284
21
126.7530597
0
LINE
8
DEFAULT_255_2_778
10
36.4152284
20
126.7530597
11
36.4152284
21
123.3309597
0
LINE
8
DEFAULT_255_2_778
10
36.4152284
20
123.3309597
11
35.9215284
21
123.3309597
0
LINE
8
DEFAULT_255_2_778
10
35.9215284
20
123.3309597
11
35.9215284
21
126.7530597
0
LINE
8
DEFAULT_255_2_778
10
35.9215284
20
126.7530597
11
8.7930284
21
126.7530597
0
LINE
8
DEFAULT_255_2_778
10
8.7930284
20
126.7530597
11
8.7930284
21
123.3309597
0
LINE
8
DEFAULT_255_2_778
10
8.7930284
20
123.3309597
11
2.2665284
21
123.3309597
0
LINE
8
DEFAULT_255_2_778
10
2.2665284
20
123.3309597
11
2.2665284
21
124.3540597
0
LINE
8
DEFAULT_255_2_778
10
2.2665284
20
124.3540597
11
2.3723284
21
125.0948597
0
LINE
8
DEFAULT_255_2_778
10
2.3723284
20
125.0948597
11
2.6901284
21
125.7650597
0
LINE
8
DEFAULT_255_2_778
10
2.6901284
20
125.7650597
11
3.2193284
21
126.2942597
0
LINE
8
DEFAULT_255_2_778
10
3.2193284
20
126.2942597
11
3.8188284
21
126.5765597
0
LINE
8
DEFAULT_255_2_778
10
3.8188284
20
126.5765597
11
4.2070284
21
126.6469597
0
LINE
8
DEFAULT_255_2_778
10
4.2070284
20
126.6469597
11
8.7930284
21
126.7527597
0
LINE
8
DEFAULT_255_2_778
10
8.7930284
20
126.7527597
11
8.7930284
21
127.8465597
0
LINE
8
DEFAULT_255_2_778
10
8.7930284
20
127.8465597
11
35.9218284
21
127.8465597
0
LINE
8
DEFAULT_255_2_778
10
35.9218284
20
127.8465597
11
35.9218284
21
126.7530597
0
LINE
8
DEFAULT_255_2_778
10
95.3292284
20
13.0173597
11
96.8460284
21
13.0173597
0
LINE
8
DEFAULT_255_2_778
10
96.8460284
20
13.0173597
11
96.8460284
21
4.2686597
0
LINE
8
DEFAULT_255_2_778
10
96.8460284
20
1.7638597
11
96.7050284
21
1.0582597
0
LINE
8
DEFAULT_255_2_778
10
96.7050284
20
1.0582597
11
96.3875284
21
0.4584597
0
LINE
8
DEFAULT_255_2_778
10
96.3875284
20
0.4584597
11
95.8584284
21
0.0350597
0
LINE
8
DEFAULT_255_2_778
10
95.8584284
20
0.0350597
11
95.2234284
21
-0.2117403
0
LINE
8
DEFAULT_255_2_778
10
95.2234284
20
-0.2117403
11
94.8355284
21
-0.2469403
0
LINE
8
DEFAULT_255_2_778
10
94.8355284
20
-0.2469403
11
94.8355284
21
0.8113597
0
LINE
8
DEFAULT_255_2_778
10
92.4363455
20
126.7530597
11
92.4363455
21
127.8465597
0
LINE
8
DEFAULT_255_2_778
10
92.4363455
20
127.8465597
11
93.1067455
21
127.7407597
0
LINE
8
DEFAULT_255_2_778
10
93.1067455
20
127.7407597
11
93.6711455
21
127.4232597
0
LINE
8
DEFAULT_255_2_778
10
93.6711455
20
127.4232597
11
94.0944455
21
126.9644597
0
LINE
8
DEFAULT_255_2_778
10
94.0944455
20
126.9644597
11
94.3063455
21
126.5410597
0
LINE
8
DEFAULT_255_2_778
10
94.8355455
20
-0.2469403
11
42.4832455
21
-0.2469403
0
LINE
8
DEFAULT_255_2_778
10
42.4832455
20
-0.2469403
11
42.4832455
21
0.8113597
0
LINE
8
DEFAULT_255_2_778
10
36.4152858
20
126.753042
11
36.4152858
21
127.846542
0
LINE
8
DEFAULT_255_2_778
10
36.4152858
20
127.846542
11
92.4362858
21
127.846542
0
LINE
8
DEFAULT_255_2_778
10
90.9194858
20
3.950942
11
89.2260858
21
3.950942
0
LINE
8
DEFAULT_255_2_778
10
92.0483858
20
14.534242
11
92.0483858
21
17.674042
0
LINE
8
DEFAULT_255_2_778
10
92.0483858
20
50.235542
11
92.0483858
21
53.375342
0
LINE
8
DEFAULT_255_2_778
10
95.3292858
20
119.556042
11
95.3292858
21
55.033242
0
LINE
8
DEFAULT_255_2_778
10
95.3292858
20
55.033242
11
96.8460858
21
55.033242
0
LINE
8
DEFAULT_255_2_778
10
96.8460858
20
55.033242
11
96.8460858
21
119.838442
0
LINE
8
DEFAULT_255_2_778
10
96.8460858
20
119.838442
11
99.0333858
21
119.838442
0
LINE
8
DEFAULT_255_2_778
10
99.0333858
20
119.838442
11
100.0210858
21
121.320042
0
LINE
8
DEFAULT_255_2_778
10
100.0210858
20
121.320042
11
100.6208858
21
121.320042
0
LINE
8
DEFAULT_255_2_778
10
100.6208858
20
121.320042
11
100.7267858
21
121.284842
0
LINE
8
DEFAULT_255_2_778
10
100.7267858
20
121.284842
11
100.7973858
21
121.249442
0
LINE
8
DEFAULT_255_2_778
10
100.7973858
20
121.249442
11
100.9031858
21
121.178742
0
LINE
8
DEFAULT_255_2_778
10
100.9031858
20
121.178742
11
100.9386858
21
121.108442
0
LINE
8
DEFAULT_255_2_778
10
100.9386858
20
121.108442
11
101.0092858
21
121.037742
0
LINE
8
DEFAULT_255_2_778
10
101.0092858
20
121.037742
11
101.0444858
21
120.931942
0
LINE
8
DEFAULT_255_2_778
10
101.0444858
20
120.931942
11
101.0444858
21
116.522342
0
LINE
8
DEFAULT_255_2_778
10
101.0444858
20
116.522342
11
100.9386858
21
116.204842
0
LINE
8
DEFAULT_255_2_778
10
100.9386858
20
116.204842
11
100.8680858
21
116.099042
0
LINE
8
DEFAULT_255_2_778
10
100.8680858
20
116.099042
11
100.8328858
21
115.993242
0
LINE
8
DEFAULT_255_2_778
10
100.8328858
20
115.993242
11
100.7267858
21
115.922542
0
LINE
8
DEFAULT_255_2_778
10
100.7267858
20
115.922542
11
100.6563858
21
115.851942
0
LINE
8
DEFAULT_255_2_778
10
100.6563858
20
115.851942
11
98.1515858
21
113.841042
0
LINE
8
DEFAULT_255_2_778
10
98.1515858
20
113.841042
11
96.8460858
21
113.841042
0
LINE
8
DEFAULT_255_2_778
10
0.7848858
20
6.173642
11
0.2205858
21
6.173642
0
LINE
8
DEFAULT_255_2_778
10
0.2205858
20
6.173642
11
0.2205858
21
123.507342
0
LINE
8
DEFAULT_255_2_778
10
0.2205858
20
123.507342
11
0.7848858
21
123.507342
0
LINE
8
DEFAULT_255_2_778
10
0.1850858
20
102.340742
11
0.2202858
21
102.340742
0
LINE
8
DEFAULT_255_2_778
10
0.2205858
20
102.058642
11
0.1850858
21
102.058642
0
LINE
8
DEFAULT_255_2_778
10
42.4829858
20
0.070242
11
41.9889858
21
0.070242
0
LINE
8
DEFAULT_255_2_778
10
42.48292
20
0.9171264
11
41.98902
21
0.9171264
0
LINE
8
DEFAULT_255_2_778
10
36.41532
20
127.5290264
11
35.92152
21
127.5290264
0
LINE
8
DEFAULT_255_2_778
10
36.41532
20
126.6823264
11
35.92152
21
126.6823264
0
LINE
8
DEFAULT_255_2_778
10
96.84612
20
55.0332264
11
96.84612
21
13.0173264
0
LINE
8
DEFAULT_255_2_778
10
94.20032
20
55.0332264
11
94.20032
21
54.1513264
0
LINE
8
DEFAULT_255_2_778
10
94.20032
20
54.1513264
11
94.05952
21
53.7986264
0
LINE
8
DEFAULT_255_2_778
10
94.05952
20
53.7986264
11
93.91822
21
53.6576264
0
LINE
8
DEFAULT_255_2_778
10
93.91822
20
53.6576264
11
93.77722
21
53.5518264
0
LINE
8
DEFAULT_255_2_778
10
93.77722
20
53.5518264
11
93.60072
21
53.4459264
0
LINE
8
DEFAULT_255_2_778
10
93.60072
20
53.4459264
11
93.42422
21
53.3756264
0
LINE
8
DEFAULT_255_2_778
10
93.42422
20
53.3756264
11
88.73212
21
53.3756264
0
LINE
8
DEFAULT_255_2_778
10
88.73212
20
53.3756264
11
88.52072
21
53.3404264
0
LINE
8
DEFAULT_255_2_778
10
88.52072
20
53.3404264
11
88.34422
21
53.3049264
0
LINE
8
DEFAULT_255_2_778
10
88.34422
20
53.3049264
11
88.16782
21
53.1991264
0
LINE
8
DEFAULT_255_2_778
10
88.16782
20
53.1991264
11
88.02652
21
53.0932264
0
LINE
8
DEFAULT_255_2_778
10
88.02652
20
53.0932264
11
87.88572
21
52.9168264
0
LINE
8
DEFAULT_255_2_778
10
87.88572
20
52.9168264
11
87.81512
21
52.7757264
0
LINE
8
DEFAULT_255_2_778
10
87.81512
20
52.7757264
11
87.74442
21
52.5641264
0
LINE
8
DEFAULT_255_2_778
10
87.74442
20
52.5641264
11
87.74442
21
51.0472264
0
LINE
8
DEFAULT_255_2_778
10
87.74442
20
51.0472264
11
87.88572
21
50.6945264
0
LINE
8
DEFAULT_255_2_778
10
87.88572
20
50.6945264
11
88.02652
21
50.5181264
0
LINE
8
DEFAULT_255_2_778
10
88.02652
20
50.5181264
11
88.16782
21
50.4122264
0
LINE
8
DEFAULT_255_2_778
10
88.16782
20
50.4122264
11
88.34422
21
50.3064264
0
LINE
8
DEFAULT_255_2_778
10
88.34422
20
50.3064264
11
88.52072
21
50.2709264
0
LINE
8
DEFAULT_255_2_778
10
88.52072
20
50.2709264
11
88.73212
21
50.2355264
0
LINE
8
DEFAULT_255_2_778
10
88.73212
20
50.2355264
11
95.96402
21
50.2355264
0
LINE
8
DEFAULT_255_2_778
10
95.96402
20
50.2355264
11
96.31672
21
50.0945264
0
LINE
8
DEFAULT_255_2_778
10
96.31672
20
50.0945264
11
96.59922
21
49.8124264
0
LINE
8
DEFAULT_255_2_778
10
96.59922
20
49.8124264
11
96.74032
21
49.4597264
0
LINE
8
DEFAULT_255_2_778
10
96.74032
20
49.4597264
11
96.74032
21
18.4506264
0
LINE
8
DEFAULT_255_2_778
10
96.74032
20
18.4506264
11
96.59922
21
18.0979264
0
LINE
8
DEFAULT_255_2_778
10
96.59922
20
18.0979264
11
96.31672
21
17.8158264
0
LINE
8
DEFAULT_255_2_778
10
96.31672
20
17.8158264
11
95.96402
21
17.6745264
0
LINE
8
DEFAULT_255_2_778
10
95.96402
20
17.6745264
11
88.73212
21
17.6745264
0
LINE
8
DEFAULT_255_2_778
10
88.73212
20
17.6745264
11
88.52072
21
17.6393264
0
LINE
8
DEFAULT_255_2_778
10
88.52072
20
17.6393264
11
88.16802
21
17.4981264
0
LINE
8
DEFAULT_255_2_778
10
88.16802
20
17.4981264
11
87.88602
21
17.2160264
0
LINE
8
DEFAULT_255_2_778
10
87.88602
20
17.2160264
11
87.74472
21
16.8633264
0
LINE
8
DEFAULT_255_2_778
10
87.74472
20
16.8633264
11
87.74472
21
15.3465264
0
LINE
8
DEFAULT_255_2_778
10
87.74472
20
15.3465264
11
87.81532
21
15.1345264
0
LINE
8
DEFAULT_255_2_778
10
87.81532
20
15.1345264
11
87.88602
21
14.9581264
0
LINE
8
DEFAULT_255_2_778
10
87.88602
20
14.9581264
11
88.02672
21
14.8170264
0
LINE
8
DEFAULT_255_2_778
10
88.02672
20
14.8170264
11
88.16802
21
14.7109264
0
LINE
8
DEFAULT_255_2_778
10
88.16802
20
14.7109264
11
88.34452
21
14.6051264
0
LINE
8
DEFAULT_255_2_778
10
88.34452
20
14.6051264
11
88.52102
21
14.5345264
0
LINE
8
DEFAULT_255_2_778
10
88.52102
20
14.5345264
11
93.21262
21
14.5345264
0
LINE
8
DEFAULT_255_2_778
10
93.21262
20
14.5345264
11
93.42452
21
14.4993264
0
LINE
8
DEFAULT_255_2_778
10
93.42452
20
14.4993264
11
93.60102
21
14.4641264
0
LINE
8
DEFAULT_255_2_778
10
93.60102
20
14.4641264
11
93.77742
21
14.3580264
0
LINE
8
DEFAULT_255_2_778
10
93.77742
20
14.3580264
11
93.91852
21
14.2521264
0
LINE
8
DEFAULT_255_2_778
10
93.91852
20
14.2521264
11
94.05982
21
14.0757264
0
LINE
8
DEFAULT_255_2_778
10
94.05982
20
14.0757264
11
94.13042
21
13.9346264
0
LINE
8
DEFAULT_255_2_778
10
94.13042
20
13.9346264
11
94.20082
21
13.7227264
0
LINE
8
DEFAULT_255_2_778
10
94.20082
20
13.7227264
11
94.20082
21
13.0173264
0
LINE
8
DEFAULT_255_2_778
10
101.04422
20
10.7599264
11
101.04422
21
11.7476264
0
LINE
8
DEFAULT_255_2_778
10
101.04422
20
11.7476264
11
96.84612
21
11.7476264
0
LINE
8
DEFAULT_255_2_778
10
96.84612
20
4.7623264
11
100.23302
21
4.7623264
0
LINE
8
DEFAULT_255_2_778
10
100.23302
20
4.7623264
11
100.40952
21
4.8327264
0
LINE
8
DEFAULT_255_2_778
10
100.40952
20
4.8327264
11
100.58602
21
4.9388264
0
LINE
8
DEFAULT_255_2_778
10
100.58602
20
4.9388264
11
100.72702
21
5.0446264
0
LINE
8
DEFAULT_255_2_778
10
100.72702
20
5.0446264
11
100.86832
21
5.1857264
0
LINE
8
DEFAULT_255_2_778
10
100.86832
20
5.1857264
11
100.97412
21
5.3621264
0
LINE
8
DEFAULT_255_2_778
10
100.97412
20
5.3621264
11
101.00962
21
5.5741264
0
LINE
8
DEFAULT_255_2_778
10
101.00962
20
5.5741264
11
101.04482
21
5.7506264
0
LINE
8
DEFAULT_255_2_778
10
101.04482
20
5.7506264
11
101.04482
21
10.7602264
0
LINE
8
DEFAULT_255_2_778
10
101.04482
20
10.7602264
11
96.84662
21
10.7602264
0
LINE
8
DEFAULT_255_2_778
10
16.09552
20
112.3594264
11
16.09552
21
113.8765264
0
LINE
8
DEFAULT_255_2_778
10
16.09552
20
116.9102264
11
16.09552
21
118.4273264
0
LINE
8
DEFAULT_255_2_778
10
10.13342
20
118.4273264
11
19.58802
21
118.4273264
0
LINE
8
DEFAULT_255_2_778
10
19.58802
20
118.4273264
11
19.87012
21
118.3921264
0
LINE
8
DEFAULT_255_2_778
10
19.87012
20
118.3921264
11
20.15242
21
118.2157264
0
LINE
8
DEFAULT_255_2_778
10
20.15242
20
118.2157264
11
20.29342
21
117.9685264
0
LINE
8
DEFAULT_255_2_778
10
20.29342
20
117.9685264
11
20.36402
21
117.6865264
0
LINE
8
DEFAULT_255_2_778
10
20.36402
20
117.6865264
11
20.29342
21
117.4042264
0
LINE
8
DEFAULT_255_2_778
10
20.29342
20
117.4042264
11
20.15242
21
117.1571264
0
LINE
8
DEFAULT_255_2_778
10
20.15242
20
117.1571264
11
19.87012
21
116.9806264
0
LINE
8
DEFAULT_255_2_778
10
19.87012
20
116.9806264
11
19.58802
21
116.9099264
0
LINE
8
DEFAULT_255_2_778
10
19.58802
20
116.9099264
11
11.65052
21
116.9099264
0
LINE
8
DEFAULT_255_2_778
10
11.65052
20
116.9099264
11
11.65052
21
113.8765264
0
LINE
8
DEFAULT_255_2_778
10
11.65052
20
113.8765264
11
19.58802
21
113.8765264
0
LINE
8
DEFAULT_255_2_778
10
19.58802
20
113.8765264
11
19.87012
21
113.8059264
0
LINE
8
DEFAULT_255_2_778
10
19.87012
20
113.8059264
11
20.15242
21
113.6294264
0
LINE
8
DEFAULT_255_2_778
10
20.15242
20
113.6294264
11
20.29342
21
113.3823264
0
LINE
8
DEFAULT_255_2_778
10
20.29342
20
113.3823264
11
20.36402
21
113.1002264
0
LINE
8
DEFAULT_255_2_778
10
20.36402
20
113.1002264
11
20.29342
21
112.8182264
0
LINE
8
DEFAULT_255_2_778
10
20.29342
20
112.8182264
11
20.15242
21
112.5710264
0
LINE
8
DEFAULT_255_2_778
10
20.15242
20
112.5710264
11
19.87012
21
112.3946264
0
LINE
8
DEFAULT_255_2_778
10
19.87012
20
112.3946264
11
19.58802
21
112.3594264
0
LINE
8
DEFAULT_255_2_778
10
19.58802
20
112.3594264
11
10.13342
21
112.3594264
0
LINE
8
DEFAULT_255_2_778
10
10.13342
20
112.3594264
11
10.13342
21
118.4273264
0
LINE
8
DEFAULT_255_2_778
10
13.6262182
20
86.3247203
11
13.6262182
21
87.8415203
0
LINE
8
DEFAULT_255_2_778
10
13.6262182
20
90.8755203
11
13.6262182
21
92.3924203
0
LINE
8
DEFAULT_255_2_778
10
10.1337182
20
86.3247203
11
19.5883182
21
86.3247203
0
LINE
8
DEFAULT_255_2_778
10
19.5883182
20
86.3247203
11
19.8703182
21
86.3599203
0
LINE
8
DEFAULT_255_2_778
10
19.8703182
20
86.3599203
11
20.1526182
21
86.5363203
0
LINE
8
DEFAULT_255_2_778
10
20.1526182
20
86.5363203
11
20.2937182
21
86.7832203
0
LINE
8
DEFAULT_255_2_778
10
20.2937182
20
86.7832203
11
20.3643182
21
87.0655203
0
LINE
8
DEFAULT_255_2_778
10
20.3643182
20
87.0655203
11
20.2937182
21
87.3830203
0
LINE
8
DEFAULT_255_2_778
10
20.2937182
20
87.3830203
11
20.1526182
21
87.6299203
0
LINE
8
DEFAULT_255_2_778
10
20.1526182
20
87.6299203
11
19.8703182
21
87.7712203
0
LINE
8
DEFAULT_255_2_778
10
19.8703182
20
87.7712203
11
19.5883182
21
87.8415203
0
LINE
8
DEFAULT_255_2_778
10
19.5883182
20
87.8415203
11
11.6508182
21
87.8415203
0
LINE
8
DEFAULT_255_2_778
10
11.6508182
20
87.8415203
11
11.6508182
21
90.8755203
0
LINE
8
DEFAULT_255_2_778
10
11.6508182
20
90.8755203
11
19.5883182
21
90.8755203
0
LINE
8
DEFAULT_255_2_778
10
19.5883182
20
90.8755203
11
19.8703182
21
90.9462203
0
LINE
8
DEFAULT_255_2_778
10
19.8703182
20
90.9462203
11
20.1526182
21
91.1226203
0
LINE
8
DEFAULT_255_2_778
10
20.1526182
20
91.1226203
11
20.2937182
21
91.3695203
0
LINE
8
DEFAULT_255_2_778
10
20.2937182
20
91.3695203
11
20.3643182
21
91.6518203
0
LINE
8
DEFAULT_255_2_778
10
20.3643182
20
91.6518203
11
20.2937182
21
91.9338203
0
LINE
8
DEFAULT_255_2_778
10
20.2937182
20
91.9338203
11
20.1526182
21
92.1810203
0
LINE
8
DEFAULT_255_2_778
10
20.1526182
20
92.1810203
11
19.8703182
21
92.3574203
0
LINE
8
DEFAULT_255_2_778
10
19.8703182
20
92.3574203
11
19.5883182
21
92.3926203
0
LINE
8
DEFAULT_255_2_778
10
19.5883182
20
92.3926203
11
10.1334182
21
92.3926203
0
LINE
8
DEFAULT_255_2_778
10
10.1334182
20
92.3926203
11
10.1337182
21
86.3247203
0
LINE
8
DEFAULT_255_2_778
10
46.0109182
20
6.8436203
11
46.1167182
21
6.8436203
0
LINE
8
DEFAULT_255_2_778
10
46.1167182
20
6.8436203
11
46.1167182
21
23.8476203
0
LINE
8
DEFAULT_255_2_778
10
46.1167182
20
23.8476203
11
46.0109182
21
23.8476203
0
LINE
8
DEFAULT_255_2_778
10
46.1167182
20
6.8436203
11
46.5051182
21
6.8436203
0
LINE
8
DEFAULT_255_2_778
10
46.5051182
20
6.8436203
11
46.5051182
21
23.8476203
0
LINE
8
DEFAULT_255_2_778
10
46.5051182
20
23.8476203
11
46.1167182
21
23.8476203
0
LINE
8
DEFAULT_255_2_778
10
47.9162182
20
23.9182203
11
47.9162182
21
6.7377203
0
LINE
8
DEFAULT_255_2_778
10
47.9162182
20
6.7377203
11
46.0109182
21
6.7026203
0
LINE
8
DEFAULT_255_2_778
10
46.0109182
20
6.7026203
11
46.0109182
21
23.9531203
0
LINE
8
DEFAULT_255_2_778
10
46.0109182
20
23.9531203
11
47.9162182
21
23.9182203
0
LINE
8
DEFAULT_255_2_778
10
47.9162182
20
23.8476203
11
46.5051182
21
23.8476203
0
LINE
8
DEFAULT_255_2_778
10
47.9162182
20
6.8436203
11
46.5051182
21
6.8436203
0
LINE
8
DEFAULT_255_2_778
10
41.8125182
20
105.8332203
11
40.4369182
21
105.8332203
0
LINE
8
DEFAULT_255_2_778
10
40.4369182
20
105.8332203
11
40.4369182
21
122.8372203
0
LINE
8
DEFAULT_255_2_778
10
40.4369182
20
122.8372203
11
41.8125182
21
122.8372203
0
LINE
8
DEFAULT_255_2_778
10
40.4369182
20
105.8332203
11
40.0136182
21
105.8332203
0
LINE
8
DEFAULT_255_2_778
10
40.0136182
20
105.8332203
11
40.0136182
21
122.8372203
0
LINE
8
DEFAULT_255_2_778
10
40.0136182
20
122.8372203
11
40.4369182
21
122.8372203
0
LINE
8
DEFAULT_255_2_778
10
39.9429182
20
105.6922203
11
41.8125182
21
105.7274203
0
LINE
8
DEFAULT_255_2_778
10
41.8125182
20
105.7274203
11
41.8125182
21
122.9427203
0
LINE
8
DEFAULT_255_2_778
10
41.8125182
20
122.9427203
11
39.9429182
21
122.9782203
0
LINE
8
DEFAULT_255_2_778
10
39.9429182
20
122.9782203
11
39.9429182
21
105.6922203
0
LINE
8
DEFAULT_255_2_778
10
40.0136182
20
105.8332203
11
39.9429182
21
105.8332203
0
LINE
8
DEFAULT_255_2_778
10
40.0136182
20
122.8372203
11
39.9429182
21
122.8372203
0
ENDSEC
0
EOF